  0
SECTION
  2
HEADER
  9
$ACADVER
  1
AC1015
  9
$ACADMAINTVER
 70
     6
  9
$DWGCODEPAGE
  3
DOS850
  9
$INSBASE
 10
0.0
 20
0.0
 30
0.0
  9
$EXTMIN
 10
35.952
 20
-22.9433
 30
1.000000E+20
  9
$EXTMAX
 10
92.4045
 20
53.8055
 30
-1.000000E+20
  9
$LIMMIN
 10
0.0
 20
0.0
  9
$LIMMAX
 10
0.0
 20
0.0
  9
$ORTHOMODE
 70
     0
  9
$REGENMODE
 70
     1
  9
$FILLMODE
 70
     1
  9
$QTEXTMODE
 70
     0
  9
$MIRRTEXT
 70
     1
  9
$LTSCALE
 40
1.0
  9
$ATTMODE
 70
     1
  9
$TEXTSIZE
 40
0.2
  9
$TRACEWID
 40
0.05
  9
$TEXTSTYLE
  7
Standard
  9
$CLAYER
  8
0
  9
$CELTYPE
  6
Continuous
  9
$CECOLOR
 62
   256
  9
$CELTSCALE
 40
1.0
  9
$DISPSILH
 70
     0
  9
$DIMSCALE
 40
1.0
  9
$DIMASZ
 40
0.18
  9
$DIMEXO
 40
0.0625
  9
$DIMDLI
 40
0.38
  9
$DIMRND
 40
0.0
  9
$DIMDLE
 40
0.0
  9
$DIMEXE
 40
0.18
  9
$DIMTP
 40
0.0
  9
$DIMTM
 40
0.0
  9
$DIMTXT
 40
0.18
  9
$DIMCEN
 40
0.09
  9
$DIMTSZ
 40
0.0
  9
$DIMTOL
 70
     0
  9
$DIMLIM
 70
     0
  9
$DIMTIH
 70
     1
  9
$DIMTOH
 70
     1
  9
$DIMSE1
 70
     0
  9
$DIMSE2
 70
     0
  9
$DIMTAD
 70
     0
  9
$DIMZIN
 70
     0
  9
$DIMBLK
  1

  9
$DIMASO
 70
     1
  9
$DIMSHO
 70
     1
  9
$DIMPOST
  1

  9
$DIMAPOST
  1

  9
$DIMALT
 70
     0
  9
$DIMALTD
 70
     2
  9
$DIMALTF
 40
25.4
  9
$DIMLFAC
 40
1.0
  9
$DIMTOFL
 70
     0
  9
$DIMTVP
 40
0.0
  9
$DIMTIX
 70
     0
  9
$DIMSOXD
 70
     0
  9
$DIMSAH
 70
     0
  9
$DIMBLK1
  1

  9
$DIMBLK2
  1

  9
$DIMSTYLE
  2
Standard
  9
$DIMCLRD
 70
     0
  9
$DIMCLRE
 70
     0
  9
$DIMCLRT
 70
     0
  9
$DIMTFAC
 40
1.0
  9
$DIMGAP
 40
0.09
  9
$DIMJUST
 70
     0
  9
$DIMSD1
 70
     0
  9
$DIMSD2
 70
     0
  9
$DIMTOLJ
 70
     1
  9
$DIMTZIN
 70
     0
  9
$DIMALTZ
 70
     0
  9
$DIMALTTZ
 70
     0
  9
$DIMUPT
 70
     0
  9
$DIMDEC
 70
     4
  9
$DIMTDEC
 70
     4
  9
$DIMALTU
 70
     2
  9
$DIMALTTD
 70
     2
  9
$DIMTXSTY
  7
Standard
  9
$DIMAUNIT
 70
     0
  9
$DIMADEC
 70
     0
  9
$DIMALTRND
 40
0.0
  9
$DIMAZIN
 70
     0
  9
$DIMDSEP
 70
     0
  9
$DIMATFIT
 70
     3
  9
$DIMFRAC
 70
     0
  9
$DIMLDRBLK
  1

  9
$DIMLUNIT
 70
     2
  9
$DIMLWD
 70
     0
  9
$DIMLWE
 70
     0
  9
$DIMTMOVE
 70
     0
  9
$LUNITS
 70
     2
  9
$LUPREC
 70
     4
  9
$SKETCHINC
 40
0.1
  9
$FILLETRAD
 40
0.0
  9
$AUNITS
 70
     0
  9
$AUPREC
 70
     0
  9
$MENU
  1
acad
  9
$ELEVATION
 40
0.0
  9
$PELEVATION
 40
0.0
  9
$THICKNESS
 40
0.0
  9
$LIMCHECK
 70
     0
  9
$CHAMFERA
 40
0.0
  9
$CHAMFERB
 40
0.0
  9
$CHAMFERC
 40
0.0
  9
$CHAMFERD
 40
0.0
  9
$SKPOLY
 70
     0
  9
$TDCREATE
 40
0.000000000
  9
$TDUCREATE
 40
0.000000000
  9
$TDUPDATE
 40
0.000000000
  9
$TDUUPDATE
 40
0.000000000
  9
$TDINDWG
 40
0.0000000000
  9
$TDUSRTIMER
 40
0.0000000000
  9
$USRTIMER
 70
     1
  9
$ANGBASE
 50
0.0
  9
$ANGDIR
 70
     0
  9
$PDMODE
 70
     0
  9
$PDSIZE
 40
0.0
  9
$PLINEWID
 40
0.0
  9
$SPLFRAME
 70
     0
  9
$SPLINETYPE
 70
     6
  9
$SPLINESEGS
 70
     8
  9
$HANDSEED
  5
265
  9
$SURFTAB1
 70
     6
  9
$SURFTAB2
 70
     6
  9
$SURFTYPE
 70
     6
  9
$SURFU
 70
     6
  9
$SURFV
 70
     6
  9
$UCSBASE
  2

  9
$UCSNAME
  2

  9
$UCSORG
 10
0.0
 20
0.0
 30
0.0
  9
$UCSXDIR
 10
1.0
 20
0.0
 30
0.0
  9
$UCSYDIR
 10
0.0
 20
1.0
 30
0.0
  9
$UCSORTHOREF
  2

  9
$UCSORTHOVIEW
 70
     0
  9
$UCSORGTOP
 10
0.0
 20
0.0
 30
0.0
  9
$UCSORGBOTTOM
 10
0.0
 20
0.0
 30
0.0
  9
$UCSORGLEFT
 10
0.0
 20
0.0
 30
0.0
  9
$UCSORGRIGHT
 10
0.0
 20
0.0
 30
0.0
  9
$UCSORGFRONT
 10
0.0
 20
0.0
 30
0.0
  9
$UCSORGBACK
 10
0.0
 20
0.0
 30
0.0
  9
$PUCSBASE
  2

  9
$PUCSNAME
  2

  9
$PUCSORG
 10
0.0
 20
0.0
 30
0.0
  9
$PUCSXDIR
 10
1.0
 20
0.0
 30
0.0
  9
$PUCSYDIR
 10
0.0
 20
1.0
 30
0.0
  9
$PUCSORTHOREF
  2

  9
$PUCSORTHOVIEW
 70
     0
  9
$PUCSORGTOP
 10
0.0
 20
0.0
 30
0.0
  9
$PUCSORGBOTTOM
 10
0.0
 20
0.0
 30
0.0
  9
$PUCSORGLEFT
 10
0.0
 20
0.0
 30
0.0
  9
$PUCSORGRIGHT
 10
0.0
 20
0.0
 30
0.0
  9
$PUCSORGFRONT
 10
0.0
 20
0.0
 30
0.0
  9
$PUCSORGBACK
 10
0.0
 20
0.0
 30
0.0
  9
$USERI1
 70
     0
  9
$USERI2
 70
     0
  9
$USERI3
 70
     0
  9
$USERI4
 70
     0
  9
$USERI5
 70
     0
  9
$USERR1
 40
0.0
  9
$USERR2
 40
0.0
  9
$USERR3
 40
0.0
  9
$USERR4
 40
0.0
  9
$USERR5
 40
0.0
  9
$WORLDVIEW
 70
     1
  9
$SHADEDGE
 70
     3
  9
$SHADEDIF
 70
    70
  9
$TILEMODE
 70
     1
  9
$MAXACTVP
 70
    16
  9
$PINSBASE
 10
0.0
 20
0.0
 30
0.0
  9
$PLIMCHECK
 70
     0
  9
$PEXTMIN
 10
1.000000E+20
 20
1.000000E+20
 30
1.000000E+20
  9
$PEXTMAX
 10
-1.000000E+20
 20
-1.000000E+20
 30
-1.000000E+20
  9
$PLIMMIN
 10
0.0
 20
0.0
  9
$PLIMMAX
 10
12.0
 20
9.0
  9
$UNITMODE
 70
     0
  9
$VISRETAIN
 70
     0
  9
$PLINEGEN
 70
     1
  9
$PSLTSCALE
 70
     0
  9
$TREEDEPTH
 70
  3020
  9
$CMLSTYLE
  2
Standard
  9
$CMLJUST
 70
     0
  9
$CMLSCALE
 40
1.0
  9
$PROXYGRAPHICS
 70
     0
  9
$MEASUREMENT
 70
     0
  9
$CELWEIGHT
370
     0
  9
$ENDCAPS
280
     0
  9
$JOINSTYLE
280
     0
  9
$LWDISPLAY
290
     0
  9
$INSUNITS
 70
     4
  9
$HYPERLINKBASE
  1

  9
$XEDIT
290
     1
  9
$CEPSNTYPE
380
     0
  9
$PSTYLEMODE
290
     1
  9
$FINGERPRINTGUID
  2

  9
$VERSIONGUID
  2

  9
$EXTNAMES
290
     1
  9
$PSVPSCALE
 40
0.0
  0
ENDSEC
  0
SECTION
  2
CLASSES
  0
CLASS
  1
LWPOLYLINE
  2
AcDbPolyline
  3
AutoCAD 2000
 90
    32768
280
     0
281
     1
  0
CLASS
  1
IMAGE
  2
AcDbRasterImage
  3
ISM
 90
    32895
280
     0
281
     1
  0
CLASS
  1
OLE2FRAME
  2
AcDbOle2Frame
  3
AutoCAD 2000
 90
    32768
280
     0
281
     1
  0
CLASS
  1
HATCH
  2
AcDbHatch
  3
AutoCAD 2000
 90
    32768
280
     0
281
     1
  0
CLASS
  1
DICTIONARYVAR
  2
AcDbDictionaryVar
  3
AutoCAD 2000
 90
    32768
280
     0
281
     0
  0
CLASS
  1
RASTERVARIABLES
  2
AcDbRasterVariables
  3
ISM
 90
    32768
280
     0
281
     0
  0
CLASS
  1
IMAGEDEF
  2
AcDbRasterImageDef
  3
ISM
 90
    32768
280
     0
281
     0
  0
CLASS
  1
IMAGEDEF_REACTOR
  2
AcDbRasterImageDefReactor
  3
ISM
 90
    32769
280
     0
281
     0
  0
CLASS
  1
IDBUFFER
  2
AcDbIdBuffer
  3
AutoCAD 2000
 90
    32768
280
     0
281
     0
  0
CLASS
  1
SPATIAL_FILTER
  2
AcDbSpatialFilter
  3
AutoCAD 2000
 90
    32768
280
     0
281
     0
  0
CLASS
  1
XRECORD
  2
AcDbXrecord
  3
AutoCAD 2000
 90
    32768
280
     0
281
     0
  0
CLASS
  1
SORTENTSTABLE
  2
AcDbSortentsTable
  3
AutoCAD 2000
 90
    32768
280
     0
281
     0
  0
CLASS
  1
LAYER_INDEX
  2
AcDbLayerIndex
  3
AutoCAD 2000
 90
    32768
280
     0
281
     0
  0
CLASS
  1
SPATIAL_INDEX
  2
AcDbSpatialIndex
  3
AutoCAD 2000
 90
    32768
280
     0
281
     0
  0
CLASS
  1
OBJECT_PTR
  2
CAseDLPNTableRecord
  3
"ASE-LPNTableRecord"
 90
    32769
280
     0
281
     0
  0
CLASS
  1
LAYOUT
  2
AcDbLayout
  3
AutoCAD 2000
 90
        0
280
     0
281
     0
  0
CLASS
  1
PLOTSETTINGS
  2
AcDbPlotSettings
  3
AutoCAD 2000
 90
    32768
280
     0
281
     0
  0
CLASS
  1
ACDBDICTIONARYWDFLT
  2
AcDbDictionaryWithDefault
  3
AutoCAD 2000
 90
        0
280
     0
281
     0
  0
CLASS
  1
ACDBPLACEHOLDER
  2
AcDbPlaceHolder
  3
AutoCAD 2000
 90
        0
280
     0
281
     0
  0
CLASS
  1
VBA_PROJECT
  2
AcDbVbaProject
  3
acadvba
 90
    32768
280
     0
281
     0
  0
CLASS
  1
WIPEOUT
  2
AcDbWipeout
  3
WipeOut|AutoCAD Express Tool|expresstools@autodesk.com
 90
    32895
280
     0
281
     1
  0
CLASS
  1
WIPEOUTVARIABLES
  2
AcDbWipeoutVariables
  3
WipeOut|AutoCAD Express Tool|expresstools@autodesk.com
 90
        0
280
     0
281
     0
  0
CLASS
  1
RTEXT
  2
RText
  3
RText|AutoCAD Express Tool|expresstools@autodesk.com
 90
    32768
280
     0
281
     1
  0
CLASS
  1
ARCALIGNEDTEXT
  2
AcDbArcAlignedText
  3
ATEXT|AutoCAD Express Tool|expresstools@autodesk.com
 90
    32768
280
     0
281
     1
  0
ENDSEC
  0
SECTION
  2
TABLES
  0
TABLE
  2
VPORT
  5
7
100
AcDbSymbolTable
 70
     1
  0
VPORT
  5
15
100
AcDbSymbolTableRecord
100
AcDbViewportTableRecord
  2
*ACTIVE
 70
     0
 10
0.0
 20
0.0
 11
1.0
 21
1.0
 12
6.591288
 22
4.579184
 13
0.0
 23
0.0
 14
1.0
 24
1.0
 15
0.0
 25
0.0
 16
0.0
 26
0.0
 36
1.0
 17
0.0
 27
0.0
 37
0.0
 40
9.158369
 41
0.688564
 42
50.0
 43
0.0
 44
0.0
 50
0.0
 51
0.0
 71
     0
 72
   100
 73
     1
 74
     1
 75
     0
 76
     0
 77
     0
 78
     0
281
     0
 65
     0
110
0.0
120
0.0
130
0.0
111
1.0
121
0.0
131
0.0
112
0.0
122
1.0
132
0.0
345
0
346
0
 79
     0
146
0.0
  0
ENDTAB
  0
TABLE
  2
LTYPE
  5
4
100
AcDbSymbolTable
 70
     3
  0
LTYPE
  5
11
100
AcDbSymbolTableRecord
100
AcDbLinetypeTableRecord
  2
ByBlock
 70
    64
  3

 72
    65
 73
     0
 40
0.0
  0
LTYPE
  5
12
100
AcDbSymbolTableRecord
100
AcDbLinetypeTableRecord
  2
ByLayer
 70
    64
  3

 72
    65
 73
     0
 40
0.0
  0
LTYPE
  5
13
100
AcDbSymbolTableRecord
100
AcDbLinetypeTableRecord
  2
Continuous
 70
    64
  3
Solid line
 72
    65
 73
     0
 40
0.0
  0
ENDTAB
  0
TABLE
  2
LAYER
  5
2
100
AcDbSymbolTable
 70
     2
  0
LAYER
  5
14
100
AcDbSymbolTableRecord
100
AcDbLayerTableRecord
  2
0
 70
     0
 62
     7
  6
Continuous
290
     1
370
    -3
390
1D
  0
LAYER
  5
24
100
AcDbSymbolTableRecord
100
AcDbLayerTableRecord
  2
Ebene 1
 70
     0
 62
     7
  6
Continuous
290
     1
370
    -3
390
1F
  0
ENDTAB
  0
TABLE
  2
STYLE
  5
3
100
AcDbSymbolTable
 70
     2
  0
STYLE
  5
17
100
AcDbSymbolTableRecord
100
AcDbTextStyleTableRecord
  2
Standard
 70
     0
 40
0.0
 41
1.0
 50
0.0
 71
     0
 42
0.0
  3
txt
  4

  0
STYLE
  5
25
100
AcDbSymbolTableRecord
100
AcDbTextStyleTableRecord
  2
Arial
 70
     0
 40
1.0
 41
1.0
 50
0.0
 71
     0
 42
1.0
  3
Arial
  4

  0
ENDTAB
  0
TABLE
  2
VIEW
  5
5
100
AcDbSymbolTable
 70
     0
  0
ENDTAB
  0
TABLE
  2
UCS
  5
6
100
AcDbSymbolTable
 70
     0
  0
ENDTAB
  0
TABLE
  2
APPID
  5
8
100
AcDbSymbolTable
 70
     1
  0
APPID
  5
16
100
AcDbSymbolTableRecord
100
AcDbRegAppTableRecord
  2
ACAD
 70
     0
  0
ENDTAB
  0
TABLE
  2
DIMSTYLE
  5
9
100
AcDbSymbolTable
 70
     1
100
AcDbDimStyleTable
 71
     0
  0
DIMSTYLE
105
18
100
AcDbSymbolTableRecord
100
AcDbDimStyleTableRecord
  2
Standard
 70
     0
  3

  4

 40
1.0
 41
0.18
 42
0.0625
 43
0.38
 44
0.18
 45
0.0
 46
0.0
 47
0.0
 48
0.0
 71
     0
 72
     0
 73
     1
 74
     1
 75
     0
 76
     0
 77
     0
 78
     0
 79
     0
140
0.18
141
0.09
142
0.0
143
25.4
144
1.0
145
0.0
146
1.0
147
0.09
148
0.0
170
     0
171
     2
172
     0
173
     0
174
     0
175
     0
176
     0
177
     0
178
     0
179
     0
271
     4
272
     4
273
     2
274
     2
275
     0
276
     0
277
     2
278
    46
279
     0
280
     0
281
     0
282
     0
283
     1
284
     0
285
     0
286
     0
288
     0
340
17
341
0
342
0
343
0
344
0
371
    -2
372
    -2
  0
ENDTAB
  0
TABLE
  2
BLOCK_RECORD
  5
1
100
AcDbSymbolTable
 70
     0
  0
BLOCK_RECORD
  5
A
100
AcDbSymbolTableRecord
100
AcDbBlockTableRecord
  2
*MODEL_SPACE
340
20
  0
BLOCK_RECORD
  5
B
100
AcDbSymbolTableRecord
100
AcDbBlockTableRecord
  2
*PAPER_SPACE
340
21
  0
ENDTAB
  0
ENDSEC
  0
SECTION
  2
BLOCKS
  0
BLOCK
  5
D
100
AcDbEntity
  8
0
100
AcDbBlockBegin
  2
*MODEL_SPACE
 70
     0
 10
0.0
 20
0.0
 30
0.0
  3
*MODEL_SPACE
  1

  0
ENDBLK
  5
E
100
AcDbEntity
  8
0
100
AcDbBlockEnd
  0
BLOCK
  5
F
100
AcDbEntity
 67
     1
  8
0
100
AcDbBlockBegin
  2
*PAPER_SPACE
 70
     0
 10
0.0
 20
0.0
 30
0.0
  3
*PAPER_SPACE
  1

  0
ENDBLK
  5
10
100
AcDbEntity
 67
     1
  8
0
100
AcDbBlockEnd
  0
ENDSEC
  0
SECTION
  2
ENTITIES
  0
TEXT
  5
26
100
AcDbEntity
  8
Ebene 1
100
AcDbText
 10
53.5786
 20
45.9574
 30
0.0
 40
7.860816
  1
145
 51
-0.000002
  7
Arial
100
AcDbText
  0
SPLINE
  5
27
100
AcDbEntity
  8
Ebene 1
370
    40
 62
     0
100
AcDbSpline
210
0.0
220
0.0
230
1.0
 70
     0
 71
     3
 72
   244
 73
   240
 74
     0
 42
0.0000000001
 43
0.0000000001
 40
0.0
 40
0.0
 40
0.0
 40
0.0
 40
0.0166666666666667
 40
0.0166666666666667
 40
0.0166666666666667
 40
0.0166666666666667
 40
0.0333333333333333
 40
0.0333333333333333
 40
0.0333333333333333
 40
0.0333333333333333
 40
0.05
 40
0.05
 40
0.05
 40
0.05
 40
0.0666666666666667
 40
0.0666666666666667
 40
0.0666666666666667
 40
0.0666666666666667
 40
0.0833333333333333
 40
0.0833333333333333
 40
0.0833333333333333
 40
0.0833333333333333
 40
0.1
 40
0.1
 40
0.1
 40
0.1
 40
0.1166666666666667
 40
0.1166666666666667
 40
0.1166666666666667
 40
0.1166666666666667
 40
0.1333333333333333
 40
0.1333333333333333
 40
0.1333333333333333
 40
0.1333333333333333
 40
0.15
 40
0.15
 40
0.15
 40
0.15
 40
0.1666666666666667
 40
0.1666666666666667
 40
0.1666666666666667
 40
0.1666666666666667
 40
0.1833333333333333
 40
0.1833333333333333
 40
0.1833333333333333
 40
0.1833333333333333
 40
0.2
 40
0.2
 40
0.2
 40
0.2
 40
0.2166666666666667
 40
0.2166666666666667
 40
0.2166666666666667
 40
0.2166666666666667
 40
0.2333333333333333
 40
0.2333333333333333
 40
0.2333333333333333
 40
0.2333333333333333
 40
0.25
 40
0.25
 40
0.25
 40
0.25
 40
0.2666666666666667
 40
0.2666666666666667
 40
0.2666666666666667
 40
0.2666666666666667
 40
0.2833333333333333
 40
0.2833333333333333
 40
0.2833333333333333
 40
0.2833333333333333
 40
0.3
 40
0.3
 40
0.3
 40
0.3
 40
0.3166666666666667
 40
0.3166666666666667
 40
0.3166666666666667
 40
0.3166666666666667
 40
0.3333333333333333
 40
0.3333333333333333
 40
0.3333333333333333
 40
0.3333333333333333
 40
0.35
 40
0.35
 40
0.35
 40
0.35
 40
0.3666666666666666
 40
0.3666666666666666
 40
0.3666666666666666
 40
0.3666666666666666
 40
0.3833333333333333
 40
0.3833333333333333
 40
0.3833333333333333
 40
0.3833333333333333
 40
0.4
 40
0.4
 40
0.4
 40
0.4
 40
0.4166666666666666
 40
0.4166666666666666
 40
0.4166666666666666
 40
0.4166666666666666
 40
0.4333333333333333
 40
0.4333333333333333
 40
0.4333333333333333
 40
0.4333333333333333
 40
0.45
 40
0.45
 40
0.45
 40
0.45
 40
0.4666666666666666
 40
0.4666666666666666
 40
0.4666666666666666
 40
0.4666666666666666
 40
0.4833333333333333
 40
0.4833333333333333
 40
0.4833333333333333
 40
0.4833333333333333
 40
0.4999999999999999
 40
0.4999999999999999
 40
0.4999999999999999
 40
0.4999999999999999
 40
0.5166666666666666
 40
0.5166666666666666
 40
0.5166666666666666
 40
0.5166666666666666
 40
0.5333333333333333
 40
0.5333333333333333
 40
0.5333333333333333
 40
0.5333333333333333
 40
0.55
 40
0.55
 40
0.55
 40
0.55
 40
0.5666666666666668
 40
0.5666666666666668
 40
0.5666666666666668
 40
0.5666666666666668
 40
0.5833333333333335
 40
0.5833333333333335
 40
0.5833333333333335
 40
0.5833333333333335
 40
0.6000000000000002
 40
0.6000000000000002
 40
0.6000000000000002
 40
0.6000000000000002
 40
0.6166666666666669
 40
0.6166666666666669
 40
0.6166666666666669
 40
0.6166666666666669
 40
0.6333333333333336
 40
0.6333333333333336
 40
0.6333333333333336
 40
0.6333333333333336
 40
0.6500000000000004
 40
0.6500000000000004
 40
0.6500000000000004
 40
0.6500000000000004
 40
0.6666666666666671
 40
0.6666666666666671
 40
0.6666666666666671
 40
0.6666666666666671
 40
0.6833333333333338
 40
0.6833333333333338
 40
0.6833333333333338
 40
0.6833333333333338
 40
0.7000000000000005
 40
0.7000000000000005
 40
0.7000000000000005
 40
0.7000000000000005
 40
0.7166666666666672
 40
0.7166666666666672
 40
0.7166666666666672
 40
0.7166666666666672
 40
0.733333333333334
 40
0.733333333333334
 40
0.733333333333334
 40
0.733333333333334
 40
0.7500000000000007
 40
0.7500000000000007
 40
0.7500000000000007
 40
0.7500000000000007
 40
0.7666666666666674
 40
0.7666666666666674
 40
0.7666666666666674
 40
0.7666666666666674
 40
0.7833333333333341
 40
0.7833333333333341
 40
0.7833333333333341
 40
0.7833333333333341
 40
0.8000000000000008
 40
0.8000000000000008
 40
0.8000000000000008
 40
0.8000000000000008
 40
0.8166666666666675
 40
0.8166666666666675
 40
0.8166666666666675
 40
0.8166666666666675
 40
0.8333333333333343
 40
0.8333333333333343
 40
0.8333333333333343
 40
0.8333333333333343
 40
0.850000000000001
 40
0.850000000000001
 40
0.850000000000001
 40
0.850000000000001
 40
0.8666666666666677
 40
0.8666666666666677
 40
0.8666666666666677
 40
0.8666666666666677
 40
0.8833333333333344
 40
0.8833333333333344
 40
0.8833333333333344
 40
0.8833333333333344
 40
0.9000000000000011
 40
0.9000000000000011
 40
0.9000000000000011
 40
0.9000000000000011
 40
0.9166666666666679
 40
0.9166666666666679
 40
0.9166666666666679
 40
0.9166666666666679
 40
0.9333333333333346
 40
0.9333333333333346
 40
0.9333333333333346
 40
0.9333333333333346
 40
0.9500000000000013
 40
0.9500000000000013
 40
0.9500000000000013
 40
0.9500000000000013
 40
0.966666666666668
 40
0.966666666666668
 40
0.966666666666668
 40
0.966666666666668
 40
0.9833333333333347
 40
0.9833333333333347
 40
0.9833333333333347
 40
0.9833333333333347
 40
1.0
 40
1.0
 40
1.0
 40
1.0
 10
92.211800000000011
 20
5.2928000000000006
 30
0.0
 10
92.211800000000011
 20
5.2928000000000006
 30
0.0
 10
92.093900000000005
 20
8.2406000000000006
 30
0.0
 10
92.093900000000005
 20
8.2406000000000006
 30
0.0
 10
92.093900000000005
 20
8.2406000000000006
 30
0.0
 10
92.093900000000005
 20
8.2406000000000006
 30
0.0
 10
91.62230000000001
 20
11.1884
 30
0.0
 10
91.62230000000001
 20
11.1884
 30
0.0
 10
91.62230000000001
 20
11.1884
 30
0.0
 10
91.62230000000001
 20
11.1884
 30
0.0
 10
90.836200000000005
 20
13.998600000000001
 30
0.0
 10
90.836200000000005
 20
13.998600000000001
 30
0.0
 10
90.836200000000005
 20
13.998600000000001
 30
0.0
 10
90.836200000000005
 20
13.998600000000001
 30
0.0
 10
89.794700000000006
 20
16.7499
 30
0.0
 10
89.794700000000006
 20
16.7499
 30
0.0
 10
89.794700000000006
 20
16.7499
 30
0.0
 10
89.794700000000006
 20
16.7499
 30
0.0
 10
88.478000000000009
 20
19.363600000000002
 30
0.0
 10
88.478000000000009
 20
19.363600000000002
 30
0.0
 10
88.478000000000009
 20
19.363600000000002
 30
0.0
 10
88.478000000000009
 20
19.363600000000002
 30
0.0
 10
86.846900000000005
 20
21.859400000000001
 30
0.0
 10
86.846900000000005
 20
21.859400000000001
 30
0.0
 10
86.846900000000005
 20
21.859400000000001
 30
0.0
 10
86.846900000000005
 20
21.859400000000001
 30
0.0
 10
85.019199999999998
 20
24.1587
 30
0.0
 10
85.019199999999998
 20
24.1587
 30
0.0
 10
85.019199999999998
 20
24.1587
 30
0.0
 10
85.019199999999998
 20
24.1587
 30
0.0
 10
82.916499999999999
 20
26.1828
 30
0.0
 10
82.916499999999999
 20
26.1828
 30
0.0
 10
82.916499999999999
 20
26.1828
 30
0.0
 10
82.916499999999999
 20
26.1828
 30
0.0
 10
80.617199999999997
 20
28.010400000000001
 30
0.0
 10
80.617199999999997
 20
28.010400000000001
 30
0.0
 10
80.617199999999997
 20
28.010400000000001
 30
0.0
 10
80.617199999999997
 20
28.010400000000001
 30
0.0
 10
78.141000000000005
 20
29.661200000000001
 30
0.0
 10
78.141000000000005
 20
29.661200000000001
 30
0.0
 10
78.141000000000005
 20
29.661200000000001
 30
0.0
 10
78.141000000000005
 20
29.661200000000001
 30
0.0
 10
75.5077
 20
30.958200000000001
 30
0.0
 10
75.5077
 20
30.958200000000001
 30
0.0
 10
75.5077
 20
30.958200000000001
 30
0.0
 10
75.5077
 20
30.958200000000001
 30
0.0
 10
72.756399999999999
 20
32.019400000000005
 30
0.0
 10
72.756399999999999
 20
32.019400000000005
 30
0.0
 10
72.756399999999999
 20
32.019400000000005
 30
0.0
 10
72.756399999999999
 20
32.019400000000005
 30
0.0
 10
69.887200000000007
 20
32.726900000000001
 30
0.0
 10
69.887200000000007
 20
32.726900000000001
 30
0.0
 10
69.887200000000007
 20
32.726900000000001
 30
0.0
 10
69.887200000000007
 20
32.726900000000001
 30
0.0
 10
66.998400000000004
 20
33.198599999999999
 30
0.0
 10
66.998400000000004
 20
33.198599999999999
 30
0.0
 10
66.998400000000004
 20
33.198599999999999
 30
0.0
 10
66.998400000000004
 20
33.198599999999999
 30
0.0
 10
64.050600000000003
 20
33.316500000000005
 30
0.0
 10
64.050600000000003
 20
33.316500000000005
 30
0.0
 10
64.050600000000003
 20
33.316500000000005
 30
0.0
 10
64.050600000000003
 20
33.316500000000005
 30
0.0
 10
61.102800000000002
 20
33.198599999999999
 30
0.0
 10
61.102800000000002
 20
33.198599999999999
 30
0.0
 10
61.102800000000002
 20
33.198599999999999
 30
0.0
 10
61.102800000000002
 20
33.198599999999999
 30
0.0
 10
58.213900000000002
 20
32.726900000000001
 30
0.0
 10
58.213900000000002
 20
32.726900000000001
 30
0.0
 10
58.213900000000002
 20
32.726900000000001
 30
0.0
 10
58.213900000000002
 20
32.726900000000001
 30
0.0
 10
55.344700000000003
 20
31.940800000000003
 30
0.0
 10
55.344700000000003
 20
31.940800000000003
 30
0.0
 10
55.344700000000003
 20
31.940800000000003
 30
0.0
 10
55.344700000000003
 20
31.940800000000003
 30
0.0
 10
52.593500000000006
 20
30.840300000000003
 30
0.0
 10
52.593500000000006
 20
30.840300000000003
 30
0.0
 10
52.593500000000006
 20
30.840300000000003
 30
0.0
 10
52.593500000000006
 20
30.840300000000003
 30
0.0
 10
50.038700000000006
 20
29.523600000000002
 30
0.0
 10
50.038700000000006
 20
29.523600000000002
 30
0.0
 10
50.038700000000006
 20
29.523600000000002
 30
0.0
 10
50.038700000000006
 20
29.523600000000002
 30
0.0
 10
47.542900000000003
 20
27.892500000000002
 30
0.0
 10
47.542900000000003
 20
27.892500000000002
 30
0.0
 10
47.542900000000003
 20
27.892500000000002
 30
0.0
 10
47.542900000000003
 20
27.892500000000002
 30
0.0
 10
45.243600000000001
 20
25.9863
 30
0.0
 10
45.243600000000001
 20
25.9863
 30
0.0
 10
45.243600000000001
 20
25.9863
 30
0.0
 10
45.243600000000001
 20
25.9863
 30
0.0
 10
43.219500000000004
 20
23.883500000000002
 30
0.0
 10
43.219500000000004
 20
23.883500000000002
 30
0.0
 10
43.219500000000004
 20
23.883500000000002
 30
0.0
 10
43.219500000000004
 20
23.883500000000002
 30
0.0
 10
41.391800000000003
 20
21.603899999999999
 30
0.0
 10
41.391800000000003
 20
21.603899999999999
 30
0.0
 10
41.391800000000003
 20
21.603899999999999
 30
0.0
 10
41.391800000000003
 20
21.603899999999999
 30
0.0
 10
39.819700000000005
 20
19.1081
 30
0.0
 10
39.819700000000005
 20
19.1081
 30
0.0
 10
39.819700000000005
 20
19.1081
 30
0.0
 10
39.819700000000005
 20
19.1081
 30
0.0
 10
38.444000000000003
 20
16.494400000000002
 30
0.0
 10
38.444000000000003
 20
16.494400000000002
 30
0.0
 10
38.444000000000003
 20
16.494400000000002
 30
0.0
 10
38.444000000000003
 20
16.494400000000002
 30
0.0
 10
37.461400000000005
 20
13.7431
 30
0.0
 10
37.461400000000005
 20
13.7431
 30
0.0
 10
37.461400000000005
 20
13.7431
 30
0.0
 10
37.461400000000005
 20
13.7431
 30
0.0
 10
36.734300000000005
 20
10.8543
 30
0.0
 10
36.734300000000005
 20
10.8543
 30
0.0
 10
36.734300000000005
 20
10.8543
 30
0.0
 10
36.734300000000005
 20
10.8543
 30
0.0
 10
36.282299999999999
 20
7.9654000000000007
 30
0.0
 10
36.282299999999999
 20
7.9654000000000007
 30
0.0
 10
36.282299999999999
 20
7.9654000000000007
 30
0.0
 10
36.282299999999999
 20
7.9654000000000007
 30
0.0
 10
36.144800000000004
 20
5.0177000000000005
 30
0.0
 10
36.144800000000004
 20
5.0177000000000005
 30
0.0
 10
36.144800000000004
 20
5.0177000000000005
 30
0.0
 10
36.144800000000004
 20
5.0177000000000005
 30
0.0
 10
36.341300000000004
 20
2.0699000000000001
 30
0.0
 10
36.341300000000004
 20
2.0699000000000001
 30
0.0
 10
36.341300000000004
 20
2.0699000000000001
 30
0.0
 10
36.341300000000004
 20
2.0699000000000001
 30
0.0
 10
36.793300000000002
 20
-0.7993
 30
0.0
 10
36.793300000000002
 20
-0.7993
 30
0.0
 10
36.793300000000002
 20
-0.7993
 30
0.0
 10
36.793300000000002
 20
-0.7993
 30
0.0
 10
37.579300000000003
 20
-3.6882000000000001
 30
0.0
 10
37.579300000000003
 20
-3.6882000000000001
 30
0.0
 10
37.579300000000003
 20
-3.6882000000000001
 30
0.0
 10
37.579300000000003
 20
-3.6882000000000001
 30
0.0
 10
38.6995
 20
-6.3805000000000005
 30
0.0
 10
38.6995
 20
-6.3805000000000005
 30
0.0
 10
38.6995
 20
-6.3805000000000005
 30
0.0
 10
38.6995
 20
-6.3805000000000005
 30
0.0
 10
40.075200000000002
 20
-8.9942000000000011
 30
0.0
 10
40.075200000000002
 20
-8.9942000000000011
 30
0.0
 10
40.075200000000002
 20
-8.9942000000000011
 30
0.0
 10
40.075200000000002
 20
-8.9942000000000011
 30
0.0
 10
41.706299999999999
 20
-11.49
 30
0.0
 10
41.706299999999999
 20
-11.49
 30
0.0
 10
41.706299999999999
 20
-11.49
 30
0.0
 10
41.706299999999999
 20
-11.49
 30
0.0
 10
43.612500000000004
 20
-13.710700000000001
 30
0.0
 10
43.612500000000004
 20
-13.710700000000001
 30
0.0
 10
43.612500000000004
 20
-13.710700000000001
 30
0.0
 10
43.612500000000004
 20
-13.710700000000001
 30
0.0
 10
45.715299999999999
 20
-15.813400000000001
 30
0.0
 10
45.715299999999999
 20
-15.813400000000001
 30
0.0
 10
45.715299999999999
 20
-15.813400000000001
 30
0.0
 10
45.715299999999999
 20
-15.813400000000001
 30
0.0
 10
47.994900000000001
 20
-17.582100000000001
 30
0.0
 10
47.994900000000001
 20
-17.582100000000001
 30
0.0
 10
47.994900000000001
 20
-17.582100000000001
 30
0.0
 10
47.994900000000001
 20
-17.582100000000001
 30
0.0
 10
50.490700000000004
 20
-19.154199999999999
 30
0.0
 10
50.490700000000004
 20
-19.154199999999999
 30
0.0
 10
50.490700000000004
 20
-19.154199999999999
 30
0.0
 10
50.490700000000004
 20
-19.154199999999999
 30
0.0
 10
53.104400000000005
 20
-20.4513
 30
0.0
 10
53.104400000000005
 20
-20.4513
 30
0.0
 10
53.104400000000005
 20
-20.4513
 30
0.0
 10
53.104400000000005
 20
-20.4513
 30
0.0
 10
55.9343
 20
-21.512499999999999
 30
0.0
 10
55.9343
 20
-21.512499999999999
 30
0.0
 10
55.9343
 20
-21.512499999999999
 30
0.0
 10
55.9343
 20
-21.512499999999999
 30
0.0
 10
58.744500000000002
 20
-22.219900000000003
 30
0.0
 10
58.744500000000002
 20
-22.219900000000003
 30
0.0
 10
58.744500000000002
 20
-22.219900000000003
 30
0.0
 10
58.744500000000002
 20
-22.219900000000003
 30
0.0
 10
61.692300000000003
 20
-22.613
 30
0.0
 10
61.692300000000003
 20
-22.613
 30
0.0
 10
61.692300000000003
 20
-22.613
 30
0.0
 10
61.692300000000003
 20
-22.613
 30
0.0
 10
64.640100000000004
 20
-22.750500000000002
 30
0.0
 10
64.640100000000004
 20
-22.750500000000002
 30
0.0
 10
64.640100000000004
 20
-22.750500000000002
 30
0.0
 10
64.640100000000004
 20
-22.750500000000002
 30
0.0
 10
67.528999999999996
 20
-22.554000000000002
 30
0.0
 10
67.528999999999996
 20
-22.554000000000002
 30
0.0
 10
67.528999999999996
 20
-22.554000000000002
 30
0.0
 10
67.528999999999996
 20
-22.554000000000002
 30
0.0
 10
70.476799999999997
 20
-22.023400000000002
 30
0.0
 10
70.476799999999997
 20
-22.023400000000002
 30
0.0
 10
70.476799999999997
 20
-22.023400000000002
 30
0.0
 10
70.476799999999997
 20
-22.023400000000002
 30
0.0
 10
73.287000000000006
 20
-21.237300000000001
 30
0.0
 10
73.287000000000006
 20
-21.237300000000001
 30
0.0
 10
73.287000000000006
 20
-21.237300000000001
 30
0.0
 10
73.287000000000006
 20
-21.237300000000001
 30
0.0
 10
76.038300000000007
 20
-20.136800000000001
 30
0.0
 10
76.038300000000007
 20
-20.136800000000001
 30
0.0
 10
76.038300000000007
 20
-20.136800000000001
 30
0.0
 10
76.038300000000007
 20
-20.136800000000001
 30
0.0
 10
78.593000000000004
 20
-18.761200000000002
 30
0.0
 10
78.593000000000004
 20
-18.761200000000002
 30
0.0
 10
78.593000000000004
 20
-18.761200000000002
 30
0.0
 10
78.593000000000004
 20
-18.761200000000002
 30
0.0
 10
81.088800000000006
 20
-17.110400000000002
 30
0.0
 10
81.088800000000006
 20
-17.110400000000002
 30
0.0
 10
81.088800000000006
 20
-17.110400000000002
 30
0.0
 10
81.088800000000006
 20
-17.110400000000002
 30
0.0
 10
83.3095
 20
-15.2239
 30
0.0
 10
83.3095
 20
-15.2239
 30
0.0
 10
83.3095
 20
-15.2239
 30
0.0
 10
83.3095
 20
-15.2239
 30
0.0
 10
85.333700000000007
 20
-13.062100000000001
 30
0.0
 10
85.333700000000007
 20
-13.062100000000001
 30
0.0
 10
85.333700000000007
 20
-13.062100000000001
 30
0.0
 10
85.333700000000007
 20
-13.062100000000001
 30
0.0
 10
87.180900000000008
 20
-10.7629
 30
0.0
 10
87.180900000000008
 20
-10.7629
 30
0.0
 10
87.180900000000008
 20
-10.7629
 30
0.0
 10
87.180900000000008
 20
-10.7629
 30
0.0
 10
88.753100000000003
 20
-8.267100000000001
 30
0.0
 10
88.753100000000003
 20
-8.267100000000001
 30
0.0
 10
88.753100000000003
 20
-8.267100000000001
 30
0.0
 10
88.753100000000003
 20
-8.267100000000001
 30
0.0
 10
89.991200000000006
 20
-5.5944000000000003
 30
0.0
 10
89.991200000000006
 20
-5.5944000000000003
 30
0.0
 10
89.991200000000006
 20
-5.5944000000000003
 30
0.0
 10
89.991200000000006
 20
-5.5944000000000003
 30
0.0
 10
91.032700000000006
 20
-2.8431000000000002
 30
0.0
 10
91.032700000000006
 20
-2.8431000000000002
 30
0.0
 10
91.032700000000006
 20
-2.8431000000000002
 30
0.0
 10
91.032700000000006
 20
-2.8431000000000002
 30
0.0
 10
91.759799999999998
 20
-0.0132
 30
0.0
 10
91.759799999999998
 20
-0.0132
 30
0.0
 10
91.759799999999998
 20
-0.0132
 30
0.0
 10
91.759799999999998
 20
-0.0132
 30
0.0
 10
92.152900000000002
 20
2.9346000000000001
 30
0.0
 10
92.152900000000002
 20
2.9346000000000001
 30
0.0
 10
92.152900000000002
 20
2.9346000000000001
 30
0.0
 10
92.152900000000002
 20
2.9346000000000001
 30
0.0
 10
92.211800000000011
 20
5.2928000000000006
 30
0.0
 10
92.211800000000011
 20
5.2928000000000006
 30
0.0
  0
SPLINE
  5
28
100
AcDbEntity
  8
Ebene 1
370
    40
 62
     0
100
AcDbSpline
210
0.0
220
0.0
230
1.0
 70
     0
 71
     3
 72
     8
 73
     4
 74
     0
 42
0.0000000001
 43
0.0000000001
 40
0.0
 40
0.0
 40
0.0
 40
0.0
 40
1.0
 40
1.0
 40
1.0
 40
1.0
 10
60.513200000000005
 20
8.9480000000000004
 30
0.0
 10
60.513200000000005
 20
8.9480000000000004
 30
0.0
 10
60.513200000000005
 20
6.0789
 30
0.0
 10
60.513200000000005
 20
6.0789
 30
0.0
  0
SPLINE
  5
29
100
AcDbEntity
  8
Ebene 1
370
    40
 62
     0
100
AcDbSpline
210
0.0
220
0.0
230
1.0
 70
     0
 71
     3
 72
     8
 73
     4
 74
     0
 42
0.0000000001
 43
0.0000000001
 40
0.0
 40
0.0
 40
0.0
 40
0.0
 40
1.0
 40
1.0
 40
1.0
 40
1.0
 10
63.402000000000001
 20
8.9480000000000004
 30
0.0
 10
63.402000000000001
 20
8.9480000000000004
 30
0.0
 10
63.402000000000001
 20
6.0789
 30
0.0
 10
63.402000000000001
 20
6.0789
 30
0.0
  0
SPLINE
  5
2A
100
AcDbEntity
  8
Ebene 1
370
    40
 62
     0
100
AcDbSpline
210
0.0
220
0.0
230
1.0
 70
     0
 71
     3
 72
     8
 73
     4
 74
     0
 42
0.0000000001
 43
0.0000000001
 40
0.0
 40
0.0
 40
0.0
 40
0.0
 40
1.0
 40
1.0
 40
1.0
 40
1.0
 10
60.513200000000005
 20
6.0789
 30
0.0
 10
60.513200000000005
 20
6.0789
 30
0.0
 10
63.402000000000001
 20
6.0789
 30
0.0
 10
63.402000000000001
 20
6.0789
 30
0.0
  0
SPLINE
  5
2B
100
AcDbEntity
  8
Ebene 1
370
    40
 62
     0
100
AcDbSpline
210
0.0
220
0.0
230
1.0
 70
     0
 71
     3
 72
     8
 73
     4
 74
     0
 42
0.0000000001
 43
0.0000000001
 40
0.0
 40
0.0
 40
0.0
 40
0.0
 40
1.0
 40
1.0
 40
1.0
 40
1.0
 10
72.304400000000001
 20
6.0789
 30
0.0
 10
72.304400000000001
 20
6.0789
 30
0.0
 10
72.304400000000001
 20
8.9480000000000004
 30
0.0
 10
72.304400000000001
 20
8.9480000000000004
 30
0.0
  0
SPLINE
  5
2C
100
AcDbEntity
  8
Ebene 1
370
    40
 62
     0
100
AcDbSpline
210
0.0
220
0.0
230
1.0
 70
     0
 71
     3
 72
     8
 73
     4
 74
     0
 42
0.0000000001
 43
0.0000000001
 40
0.0
 40
0.0
 40
0.0
 40
0.0
 40
1.0
 40
1.0
 40
1.0
 40
1.0
 10
69.415599999999998
 20
6.0789
 30
0.0
 10
69.415599999999998
 20
6.0789
 30
0.0
 10
69.415599999999998
 20
8.9480000000000004
 30
0.0
 10
69.415599999999998
 20
8.9480000000000004
 30
0.0
  0
SPLINE
  5
2D
100
AcDbEntity
  8
Ebene 1
370
    40
 62
     0
100
AcDbSpline
210
0.0
220
0.0
230
1.0
 70
     0
 71
     3
 72
     8
 73
     4
 74
     0
 42
0.0000000001
 43
0.0000000001
 40
0.0
 40
0.0
 40
0.0
 40
0.0
 40
1.0
 40
1.0
 40
1.0
 40
1.0
 10
69.415599999999998
 20
6.0789
 30
0.0
 10
69.415599999999998
 20
6.0789
 30
0.0
 10
72.304400000000001
 20
6.0789
 30
0.0
 10
72.304400000000001
 20
6.0789
 30
0.0
  0
SPLINE
  5
2E
100
AcDbEntity
  8
Ebene 1
370
    40
 62
     0
100
AcDbSpline
210
0.0
220
0.0
230
1.0
 70
     0
 71
     3
 72
     8
 73
     4
 74
     0
 42
0.0000000001
 43
0.0000000001
 40
0.0
 40
0.0
 40
0.0
 40
0.0
 40
1.0
 40
1.0
 40
1.0
 40
1.0
 10
64.974199999999996
 20
1.6179000000000001
 30
0.0
 10
64.974199999999996
 20
1.6179000000000001
 30
0.0
 10
67.843400000000003
 20
1.6179000000000001
 30
0.0
 10
67.843400000000003
 20
1.6179000000000001
 30
0.0
  0
SPLINE
  5
2F
100
AcDbEntity
  8
Ebene 1
370
    40
 62
     0
100
AcDbSpline
210
0.0
220
0.0
230
1.0
 70
     0
 71
     3
 72
     8
 73
     4
 74
     0
 42
0.0000000001
 43
0.0000000001
 40
0.0
 40
0.0
 40
0.0
 40
0.0
 40
1.0
 40
1.0
 40
1.0
 40
1.0
 10
67.843400000000003
 20
4.5067000000000004
 30
0.0
 10
67.843400000000003
 20
4.5067000000000004
 30
0.0
 10
67.843400000000003
 20
1.6179000000000001
 30
0.0
 10
67.843400000000003
 20
1.6179000000000001
 30
0.0
  0
SPLINE
  5
30
100
AcDbEntity
  8
Ebene 1
370
    40
 62
     0
100
AcDbSpline
210
0.0
220
0.0
230
1.0
 70
     0
 71
     3
 72
     8
 73
     4
 74
     0
 42
0.0000000001
 43
0.0000000001
 40
0.0
 40
0.0
 40
0.0
 40
0.0
 40
1.0
 40
1.0
 40
1.0
 40
1.0
 10
64.974199999999996
 20
4.5067000000000004
 30
0.0
 10
64.974199999999996
 20
4.5067000000000004
 30
0.0
 10
64.974199999999996
 20
1.6179000000000001
 30
0.0
 10
64.974199999999996
 20
1.6179000000000001
 30
0.0
  0
SPLINE
  5
31
100
AcDbEntity
  8
Ebene 1
370
    40
 62
     0
100
AcDbSpline
210
0.0
220
0.0
230
1.0
 70
     0
 71
     3
 72
     8
 73
     4
 74
     0
 42
0.0000000001
 43
0.0000000001
 40
0.0
 40
0.0
 40
0.0
 40
0.0
 40
1.0
 40
1.0
 40
1.0
 40
1.0
 10
64.974199999999996
 20
4.5067000000000004
 30
0.0
 10
64.974199999999996
 20
4.5067000000000004
 30
0.0
 10
67.843400000000003
 20
4.5067000000000004
 30
0.0
 10
67.843400000000003
 20
4.5067000000000004
 30
0.0
  0
SPLINE
  5
32
100
AcDbEntity
  8
Ebene 1
370
    40
 62
     0
100
AcDbSpline
210
0.0
220
0.0
230
1.0
 70
     0
 71
     3
 72
     8
 73
     4
 74
     0
 42
0.0000000001
 43
0.0000000001
 40
0.0
 40
0.0
 40
0.0
 40
0.0
 40
1.0
 40
1.0
 40
1.0
 40
1.0
 10
60.513200000000005
 20
1.6179000000000001
 30
0.0
 10
60.513200000000005
 20
1.6179000000000001
 30
0.0
 10
63.402000000000001
 20
1.6179000000000001
 30
0.0
 10
63.402000000000001
 20
1.6179000000000001
 30
0.0
  0
SPLINE
  5
33
100
AcDbEntity
  8
Ebene 1
370
    40
 62
     0
100
AcDbSpline
210
0.0
220
0.0
230
1.0
 70
     0
 71
     3
 72
     8
 73
     4
 74
     0
 42
0.0000000001
 43
0.0000000001
 40
0.0
 40
0.0
 40
0.0
 40
0.0
 40
1.0
 40
1.0
 40
1.0
 40
1.0
 10
60.513200000000005
 20
1.6179000000000001
 30
0.0
 10
60.513200000000005
 20
1.6179000000000001
 30
0.0
 10
60.513200000000005
 20
4.5067000000000004
 30
0.0
 10
60.513200000000005
 20
4.5067000000000004
 30
0.0
  0
SPLINE
  5
34
100
AcDbEntity
  8
Ebene 1
370
    40
 62
     0
100
AcDbSpline
210
0.0
220
0.0
230
1.0
 70
     0
 71
     3
 72
     8
 73
     4
 74
     0
 42
0.0000000001
 43
0.0000000001
 40
0.0
 40
0.0
 40
0.0
 40
0.0
 40
1.0
 40
1.0
 40
1.0
 40
1.0
 10
63.402000000000001
 20
1.6179000000000001
 30
0.0
 10
63.402000000000001
 20
1.6179000000000001
 30
0.0
 10
63.402000000000001
 20
4.5067000000000004
 30
0.0
 10
63.402000000000001
 20
4.5067000000000004
 30
0.0
  0
SPLINE
  5
35
100
AcDbEntity
  8
Ebene 1
370
    40
 62
     0
100
AcDbSpline
210
0.0
220
0.0
230
1.0
 70
     0
 71
     3
 72
     8
 73
     4
 74
     0
 42
0.0000000001
 43
0.0000000001
 40
0.0
 40
0.0
 40
0.0
 40
0.0
 40
1.0
 40
1.0
 40
1.0
 40
1.0
 10
60.513200000000005
 20
4.5067000000000004
 30
0.0
 10
60.513200000000005
 20
4.5067000000000004
 30
0.0
 10
63.402000000000001
 20
4.5067000000000004
 30
0.0
 10
63.402000000000001
 20
4.5067000000000004
 30
0.0
  0
SPLINE
  5
36
100
AcDbEntity
  8
Ebene 1
370
    40
 62
     0
100
AcDbSpline
210
0.0
220
0.0
230
1.0
 70
     0
 71
     3
 72
     8
 73
     4
 74
     0
 42
0.0000000001
 43
0.0000000001
 40
0.0
 40
0.0
 40
0.0
 40
0.0
 40
1.0
 40
1.0
 40
1.0
 40
1.0
 10
64.974199999999996
 20
8.9480000000000004
 30
0.0
 10
64.974199999999996
 20
8.9480000000000004
 30
0.0
 10
67.843400000000003
 20
8.9480000000000004
 30
0.0
 10
67.843400000000003
 20
8.9480000000000004
 30
0.0
  0
SPLINE
  5
37
100
AcDbEntity
  8
Ebene 1
370
    40
 62
     0
100
AcDbSpline
210
0.0
220
0.0
230
1.0
 70
     0
 71
     3
 72
     8
 73
     4
 74
     0
 42
0.0000000001
 43
0.0000000001
 40
0.0
 40
0.0
 40
0.0
 40
0.0
 40
1.0
 40
1.0
 40
1.0
 40
1.0
 10
67.843400000000003
 20
6.0789
 30
0.0
 10
67.843400000000003
 20
6.0789
 30
0.0
 10
67.843400000000003
 20
8.9480000000000004
 30
0.0
 10
67.843400000000003
 20
8.9480000000000004
 30
0.0
  0
SPLINE
  5
38
100
AcDbEntity
  8
Ebene 1
370
    40
 62
     0
100
AcDbSpline
210
0.0
220
0.0
230
1.0
 70
     0
 71
     3
 72
     8
 73
     4
 74
     0
 42
0.0000000001
 43
0.0000000001
 40
0.0
 40
0.0
 40
0.0
 40
0.0
 40
1.0
 40
1.0
 40
1.0
 40
1.0
 10
64.974199999999996
 20
6.0789
 30
0.0
 10
64.974199999999996
 20
6.0789
 30
0.0
 10
64.974199999999996
 20
8.9480000000000004
 30
0.0
 10
64.974199999999996
 20
8.9480000000000004
 30
0.0
  0
SPLINE
  5
39
100
AcDbEntity
  8
Ebene 1
370
    40
 62
     0
100
AcDbSpline
210
0.0
220
0.0
230
1.0
 70
     0
 71
     3
 72
     8
 73
     4
 74
     0
 42
0.0000000001
 43
0.0000000001
 40
0.0
 40
0.0
 40
0.0
 40
0.0
 40
1.0
 40
1.0
 40
1.0
 40
1.0
 10
64.974199999999996
 20
6.0789
 30
0.0
 10
64.974199999999996
 20
6.0789
 30
0.0
 10
67.843400000000003
 20
6.0789
 30
0.0
 10
67.843400000000003
 20
6.0789
 30
0.0
  0
SPLINE
  5
3A
100
AcDbEntity
  8
Ebene 1
370
    40
 62
     0
100
AcDbSpline
210
0.0
220
0.0
230
1.0
 70
     0
 71
     3
 72
     8
 73
     4
 74
     0
 42
0.0000000001
 43
0.0000000001
 40
0.0
 40
0.0
 40
0.0
 40
0.0
 40
1.0
 40
1.0
 40
1.0
 40
1.0
 10
60.513200000000005
 20
8.9480000000000004
 30
0.0
 10
60.513200000000005
 20
8.9480000000000004
 30
0.0
 10
63.402000000000001
 20
8.9480000000000004
 30
0.0
 10
63.402000000000001
 20
8.9480000000000004
 30
0.0
  0
SPLINE
  5
3B
100
AcDbEntity
  8
Ebene 1
370
    40
 62
     0
100
AcDbSpline
210
0.0
220
0.0
230
1.0
 70
     0
 71
     3
 72
     8
 73
     4
 74
     0
 42
0.0000000001
 43
0.0000000001
 40
0.0
 40
0.0
 40
0.0
 40
0.0
 40
1.0
 40
1.0
 40
1.0
 40
1.0
 10
56.052199999999999
 20
8.9480000000000004
 30
0.0
 10
56.052199999999999
 20
8.9480000000000004
 30
0.0
 10
56.052199999999999
 20
6.0789
 30
0.0
 10
56.052199999999999
 20
6.0789
 30
0.0
  0
SPLINE
  5
3C
100
AcDbEntity
  8
Ebene 1
370
    40
 62
     0
100
AcDbSpline
210
0.0
220
0.0
230
1.0
 70
     0
 71
     3
 72
     8
 73
     4
 74
     0
 42
0.0000000001
 43
0.0000000001
 40
0.0
 40
0.0
 40
0.0
 40
0.0
 40
1.0
 40
1.0
 40
1.0
 40
1.0
 10
58.941000000000003
 20
8.9480000000000004
 30
0.0
 10
58.941000000000003
 20
8.9480000000000004
 30
0.0
 10
58.941000000000003
 20
6.0789
 30
0.0
 10
58.941000000000003
 20
6.0789
 30
0.0
  0
SPLINE
  5
3D
100
AcDbEntity
  8
Ebene 1
370
    40
 62
     0
100
AcDbSpline
210
0.0
220
0.0
230
1.0
 70
     0
 71
     3
 72
     8
 73
     4
 74
     0
 42
0.0000000001
 43
0.0000000001
 40
0.0
 40
0.0
 40
0.0
 40
0.0
 40
1.0
 40
1.0
 40
1.0
 40
1.0
 10
56.052199999999999
 20
6.0789
 30
0.0
 10
56.052199999999999
 20
6.0789
 30
0.0
 10
58.941000000000003
 20
6.0789
 30
0.0
 10
58.941000000000003
 20
6.0789
 30
0.0
  0
SPLINE
  5
3E
100
AcDbEntity
  8
Ebene 1
370
    40
 62
     0
100
AcDbSpline
210
0.0
220
0.0
230
1.0
 70
     0
 71
     3
 72
     8
 73
     4
 74
     0
 42
0.0000000001
 43
0.0000000001
 40
0.0
 40
0.0
 40
0.0
 40
0.0
 40
1.0
 40
1.0
 40
1.0
 40
1.0
 10
73.87660000000001
 20
1.6179000000000001
 30
0.0
 10
73.87660000000001
 20
1.6179000000000001
 30
0.0
 10
76.7654
 20
1.6179000000000001
 30
0.0
 10
76.7654
 20
1.6179000000000001
 30
0.0
  0
SPLINE
  5
3F
100
AcDbEntity
  8
Ebene 1
370
    40
 62
     0
100
AcDbSpline
210
0.0
220
0.0
230
1.0
 70
     0
 71
     3
 72
     8
 73
     4
 74
     0
 42
0.0000000001
 43
0.0000000001
 40
0.0
 40
0.0
 40
0.0
 40
0.0
 40
1.0
 40
1.0
 40
1.0
 40
1.0
 10
76.7654
 20
1.6179000000000001
 30
0.0
 10
76.7654
 20
1.6179000000000001
 30
0.0
 10
76.7654
 20
4.5067000000000004
 30
0.0
 10
76.7654
 20
4.5067000000000004
 30
0.0
  0
SPLINE
  5
40
100
AcDbEntity
  8
Ebene 1
370
    40
 62
     0
100
AcDbSpline
210
0.0
220
0.0
230
1.0
 70
     0
 71
     3
 72
     8
 73
     4
 74
     0
 42
0.0000000001
 43
0.0000000001
 40
0.0
 40
0.0
 40
0.0
 40
0.0
 40
1.0
 40
1.0
 40
1.0
 40
1.0
 10
73.87660000000001
 20
1.6179000000000001
 30
0.0
 10
73.87660000000001
 20
1.6179000000000001
 30
0.0
 10
73.87660000000001
 20
4.5067000000000004
 30
0.0
 10
73.87660000000001
 20
4.5067000000000004
 30
0.0
  0
SPLINE
  5
41
100
AcDbEntity
  8
Ebene 1
370
    40
 62
     0
100
AcDbSpline
210
0.0
220
0.0
230
1.0
 70
     0
 71
     3
 72
     8
 73
     4
 74
     0
 42
0.0000000001
 43
0.0000000001
 40
0.0
 40
0.0
 40
0.0
 40
0.0
 40
1.0
 40
1.0
 40
1.0
 40
1.0
 10
73.87660000000001
 20
4.5067000000000004
 30
0.0
 10
73.87660000000001
 20
4.5067000000000004
 30
0.0
 10
76.7654
 20
4.5067000000000004
 30
0.0
 10
76.7654
 20
4.5067000000000004
 30
0.0
  0
SPLINE
  5
42
100
AcDbEntity
  8
Ebene 1
370
    40
 62
     0
100
AcDbSpline
210
0.0
220
0.0
230
1.0
 70
     0
 71
     3
 72
     8
 73
     4
 74
     0
 42
0.0000000001
 43
0.0000000001
 40
0.0
 40
0.0
 40
0.0
 40
0.0
 40
1.0
 40
1.0
 40
1.0
 40
1.0
 10
73.87660000000001
 20
8.9480000000000004
 30
0.0
 10
73.87660000000001
 20
8.9480000000000004
 30
0.0
 10
76.7654
 20
8.9480000000000004
 30
0.0
 10
76.7654
 20
8.9480000000000004
 30
0.0
  0
SPLINE
  5
43
100
AcDbEntity
  8
Ebene 1
370
    40
 62
     0
100
AcDbSpline
210
0.0
220
0.0
230
1.0
 70
     0
 71
     3
 72
     8
 73
     4
 74
     0
 42
0.0000000001
 43
0.0000000001
 40
0.0
 40
0.0
 40
0.0
 40
0.0
 40
1.0
 40
1.0
 40
1.0
 40
1.0
 10
76.7654
 20
8.9480000000000004
 30
0.0
 10
76.7654
 20
8.9480000000000004
 30
0.0
 10
76.7654
 20
6.0789
 30
0.0
 10
76.7654
 20
6.0789
 30
0.0
  0
SPLINE
  5
44
100
AcDbEntity
  8
Ebene 1
370
    40
 62
     0
100
AcDbSpline
210
0.0
220
0.0
230
1.0
 70
     0
 71
     3
 72
     8
 73
     4
 74
     0
 42
0.0000000001
 43
0.0000000001
 40
0.0
 40
0.0
 40
0.0
 40
0.0
 40
1.0
 40
1.0
 40
1.0
 40
1.0
 10
73.87660000000001
 20
8.9480000000000004
 30
0.0
 10
73.87660000000001
 20
8.9480000000000004
 30
0.0
 10
73.87660000000001
 20
6.0789
 30
0.0
 10
73.87660000000001
 20
6.0789
 30
0.0
  0
SPLINE
  5
45
100
AcDbEntity
  8
Ebene 1
370
    40
 62
     0
100
AcDbSpline
210
0.0
220
0.0
230
1.0
 70
     0
 71
     3
 72
     8
 73
     4
 74
     0
 42
0.0000000001
 43
0.0000000001
 40
0.0
 40
0.0
 40
0.0
 40
0.0
 40
1.0
 40
1.0
 40
1.0
 40
1.0
 10
73.87660000000001
 20
6.0789
 30
0.0
 10
73.87660000000001
 20
6.0789
 30
0.0
 10
76.7654
 20
6.0789
 30
0.0
 10
76.7654
 20
6.0789
 30
0.0
  0
SPLINE
  5
46
100
AcDbEntity
  8
Ebene 1
370
    40
 62
     0
100
AcDbSpline
210
0.0
220
0.0
230
1.0
 70
     0
 71
     3
 72
     8
 73
     4
 74
     0
 42
0.0000000001
 43
0.0000000001
 40
0.0
 40
0.0
 40
0.0
 40
0.0
 40
1.0
 40
1.0
 40
1.0
 40
1.0
 10
69.415599999999998
 20
1.6179000000000001
 30
0.0
 10
69.415599999999998
 20
1.6179000000000001
 30
0.0
 10
72.304400000000001
 20
1.6179000000000001
 30
0.0
 10
72.304400000000001
 20
1.6179000000000001
 30
0.0
  0
SPLINE
  5
47
100
AcDbEntity
  8
Ebene 1
370
    40
 62
     0
100
AcDbSpline
210
0.0
220
0.0
230
1.0
 70
     0
 71
     3
 72
     8
 73
     4
 74
     0
 42
0.0000000001
 43
0.0000000001
 40
0.0
 40
0.0
 40
0.0
 40
0.0
 40
1.0
 40
1.0
 40
1.0
 40
1.0
 10
72.304400000000001
 20
4.5067000000000004
 30
0.0
 10
72.304400000000001
 20
4.5067000000000004
 30
0.0
 10
72.304400000000001
 20
1.6179000000000001
 30
0.0
 10
72.304400000000001
 20
1.6179000000000001
 30
0.0
  0
SPLINE
  5
48
100
AcDbEntity
  8
Ebene 1
370
    40
 62
     0
100
AcDbSpline
210
0.0
220
0.0
230
1.0
 70
     0
 71
     3
 72
     8
 73
     4
 74
     0
 42
0.0000000001
 43
0.0000000001
 40
0.0
 40
0.0
 40
0.0
 40
0.0
 40
1.0
 40
1.0
 40
1.0
 40
1.0
 10
69.415599999999998
 20
4.5067000000000004
 30
0.0
 10
69.415599999999998
 20
4.5067000000000004
 30
0.0
 10
69.415599999999998
 20
1.6179000000000001
 30
0.0
 10
69.415599999999998
 20
1.6179000000000001
 30
0.0
  0
SPLINE
  5
49
100
AcDbEntity
  8
Ebene 1
370
    40
 62
     0
100
AcDbSpline
210
0.0
220
0.0
230
1.0
 70
     0
 71
     3
 72
     8
 73
     4
 74
     0
 42
0.0000000001
 43
0.0000000001
 40
0.0
 40
0.0
 40
0.0
 40
0.0
 40
1.0
 40
1.0
 40
1.0
 40
1.0
 10
69.415599999999998
 20
4.5067000000000004
 30
0.0
 10
69.415599999999998
 20
4.5067000000000004
 30
0.0
 10
72.304400000000001
 20
4.5067000000000004
 30
0.0
 10
72.304400000000001
 20
4.5067000000000004
 30
0.0
  0
SPLINE
  5
4A
100
AcDbEntity
  8
Ebene 1
370
    40
 62
     0
100
AcDbSpline
210
0.0
220
0.0
230
1.0
 70
     0
 71
     3
 72
     8
 73
     4
 74
     0
 42
0.0000000001
 43
0.0000000001
 40
0.0
 40
0.0
 40
0.0
 40
0.0
 40
1.0
 40
1.0
 40
1.0
 40
1.0
 10
69.415599999999998
 20
8.9480000000000004
 30
0.0
 10
69.415599999999998
 20
8.9480000000000004
 30
0.0
 10
72.304400000000001
 20
8.9480000000000004
 30
0.0
 10
72.304400000000001
 20
8.9480000000000004
 30
0.0
  0
SPLINE
  5
4B
100
AcDbEntity
  8
Ebene 1
370
    40
 62
     0
100
AcDbSpline
210
0.0
220
0.0
230
1.0
 70
     0
 71
     3
 72
     8
 73
     4
 74
     0
 42
0.0000000001
 43
0.0000000001
 40
0.0
 40
0.0
 40
0.0
 40
0.0
 40
1.0
 40
1.0
 40
1.0
 40
1.0
 10
60.513200000000005
 20
13.409000000000001
 30
0.0
 10
60.513200000000005
 20
13.409000000000001
 30
0.0
 10
60.513200000000005
 20
10.520200000000001
 30
0.0
 10
60.513200000000005
 20
10.520200000000001
 30
0.0
  0
SPLINE
  5
4C
100
AcDbEntity
  8
Ebene 1
370
    40
 62
     0
100
AcDbSpline
210
0.0
220
0.0
230
1.0
 70
     0
 71
     3
 72
     8
 73
     4
 74
     0
 42
0.0000000001
 43
0.0000000001
 40
0.0
 40
0.0
 40
0.0
 40
0.0
 40
1.0
 40
1.0
 40
1.0
 40
1.0
 10
63.402000000000001
 20
13.409000000000001
 30
0.0
 10
63.402000000000001
 20
13.409000000000001
 30
0.0
 10
63.402000000000001
 20
10.520200000000001
 30
0.0
 10
63.402000000000001
 20
10.520200000000001
 30
0.0
  0
SPLINE
  5
4D
100
AcDbEntity
  8
Ebene 1
370
    40
 62
     0
100
AcDbSpline
210
0.0
220
0.0
230
1.0
 70
     0
 71
     3
 72
     8
 73
     4
 74
     0
 42
0.0000000001
 43
0.0000000001
 40
0.0
 40
0.0
 40
0.0
 40
0.0
 40
1.0
 40
1.0
 40
1.0
 40
1.0
 10
60.513200000000005
 20
10.520200000000001
 30
0.0
 10
60.513200000000005
 20
10.520200000000001
 30
0.0
 10
63.402000000000001
 20
10.520200000000001
 30
0.0
 10
63.402000000000001
 20
10.520200000000001
 30
0.0
  0
SPLINE
  5
4E
100
AcDbEntity
  8
Ebene 1
370
    40
 62
     0
100
AcDbSpline
210
0.0
220
0.0
230
1.0
 70
     0
 71
     3
 72
     8
 73
     4
 74
     0
 42
0.0000000001
 43
0.0000000001
 40
0.0
 40
0.0
 40
0.0
 40
0.0
 40
1.0
 40
1.0
 40
1.0
 40
1.0
 10
51.610900000000001
 20
1.6179000000000001
 30
0.0
 10
51.610900000000001
 20
1.6179000000000001
 30
0.0
 10
54.480000000000004
 20
1.6179000000000001
 30
0.0
 10
54.480000000000004
 20
1.6179000000000001
 30
0.0
  0
SPLINE
  5
4F
100
AcDbEntity
  8
Ebene 1
370
    40
 62
     0
100
AcDbSpline
210
0.0
220
0.0
230
1.0
 70
     0
 71
     3
 72
     8
 73
     4
 74
     0
 42
0.0000000001
 43
0.0000000001
 40
0.0
 40
0.0
 40
0.0
 40
0.0
 40
1.0
 40
1.0
 40
1.0
 40
1.0
 10
51.610900000000001
 20
1.6179000000000001
 30
0.0
 10
51.610900000000001
 20
1.6179000000000001
 30
0.0
 10
51.610900000000001
 20
4.5067000000000004
 30
0.0
 10
51.610900000000001
 20
4.5067000000000004
 30
0.0
  0
SPLINE
  5
50
100
AcDbEntity
  8
Ebene 1
370
    40
 62
     0
100
AcDbSpline
210
0.0
220
0.0
230
1.0
 70
     0
 71
     3
 72
     8
 73
     4
 74
     0
 42
0.0000000001
 43
0.0000000001
 40
0.0
 40
0.0
 40
0.0
 40
0.0
 40
1.0
 40
1.0
 40
1.0
 40
1.0
 10
54.480000000000004
 20
1.6179000000000001
 30
0.0
 10
54.480000000000004
 20
1.6179000000000001
 30
0.0
 10
54.480000000000004
 20
4.5067000000000004
 30
0.0
 10
54.480000000000004
 20
4.5067000000000004
 30
0.0
  0
SPLINE
  5
51
100
AcDbEntity
  8
Ebene 1
370
    40
 62
     0
100
AcDbSpline
210
0.0
220
0.0
230
1.0
 70
     0
 71
     3
 72
     8
 73
     4
 74
     0
 42
0.0000000001
 43
0.0000000001
 40
0.0
 40
0.0
 40
0.0
 40
0.0
 40
1.0
 40
1.0
 40
1.0
 40
1.0
 10
51.610900000000001
 20
4.5067000000000004
 30
0.0
 10
51.610900000000001
 20
4.5067000000000004
 30
0.0
 10
54.480000000000004
 20
4.5067000000000004
 30
0.0
 10
54.480000000000004
 20
4.5067000000000004
 30
0.0
  0
SPLINE
  5
52
100
AcDbEntity
  8
Ebene 1
370
    40
 62
     0
100
AcDbSpline
210
0.0
220
0.0
230
1.0
 70
     0
 71
     3
 72
     8
 73
     4
 74
     0
 42
0.0000000001
 43
0.0000000001
 40
0.0
 40
0.0
 40
0.0
 40
0.0
 40
1.0
 40
1.0
 40
1.0
 40
1.0
 10
51.610900000000001
 20
8.9480000000000004
 30
0.0
 10
51.610900000000001
 20
8.9480000000000004
 30
0.0
 10
54.480000000000004
 20
8.9480000000000004
 30
0.0
 10
54.480000000000004
 20
8.9480000000000004
 30
0.0
  0
SPLINE
  5
53
100
AcDbEntity
  8
Ebene 1
370
    40
 62
     0
100
AcDbSpline
210
0.0
220
0.0
230
1.0
 70
     0
 71
     3
 72
     8
 73
     4
 74
     0
 42
0.0000000001
 43
0.0000000001
 40
0.0
 40
0.0
 40
0.0
 40
0.0
 40
1.0
 40
1.0
 40
1.0
 40
1.0
 10
51.610900000000001
 20
8.9480000000000004
 30
0.0
 10
51.610900000000001
 20
8.9480000000000004
 30
0.0
 10
51.610900000000001
 20
6.0789
 30
0.0
 10
51.610900000000001
 20
6.0789
 30
0.0
  0
SPLINE
  5
54
100
AcDbEntity
  8
Ebene 1
370
    40
 62
     0
100
AcDbSpline
210
0.0
220
0.0
230
1.0
 70
     0
 71
     3
 72
     8
 73
     4
 74
     0
 42
0.0000000001
 43
0.0000000001
 40
0.0
 40
0.0
 40
0.0
 40
0.0
 40
1.0
 40
1.0
 40
1.0
 40
1.0
 10
54.480000000000004
 20
8.9480000000000004
 30
0.0
 10
54.480000000000004
 20
8.9480000000000004
 30
0.0
 10
54.480000000000004
 20
6.0789
 30
0.0
 10
54.480000000000004
 20
6.0789
 30
0.0
  0
SPLINE
  5
55
100
AcDbEntity
  8
Ebene 1
370
    40
 62
     0
100
AcDbSpline
210
0.0
220
0.0
230
1.0
 70
     0
 71
     3
 72
     8
 73
     4
 74
     0
 42
0.0000000001
 43
0.0000000001
 40
0.0
 40
0.0
 40
0.0
 40
0.0
 40
1.0
 40
1.0
 40
1.0
 40
1.0
 10
51.610900000000001
 20
6.0789
 30
0.0
 10
51.610900000000001
 20
6.0789
 30
0.0
 10
54.480000000000004
 20
6.0789
 30
0.0
 10
54.480000000000004
 20
6.0789
 30
0.0
  0
SPLINE
  5
56
100
AcDbEntity
  8
Ebene 1
370
    40
 62
     0
100
AcDbSpline
210
0.0
220
0.0
230
1.0
 70
     0
 71
     3
 72
     8
 73
     4
 74
     0
 42
0.0000000001
 43
0.0000000001
 40
0.0
 40
0.0
 40
0.0
 40
0.0
 40
1.0
 40
1.0
 40
1.0
 40
1.0
 10
56.052199999999999
 20
1.6179000000000001
 30
0.0
 10
56.052199999999999
 20
1.6179000000000001
 30
0.0
 10
58.941000000000003
 20
1.6179000000000001
 30
0.0
 10
58.941000000000003
 20
1.6179000000000001
 30
0.0
  0
SPLINE
  5
57
100
AcDbEntity
  8
Ebene 1
370
    40
 62
     0
100
AcDbSpline
210
0.0
220
0.0
230
1.0
 70
     0
 71
     3
 72
     8
 73
     4
 74
     0
 42
0.0000000001
 43
0.0000000001
 40
0.0
 40
0.0
 40
0.0
 40
0.0
 40
1.0
 40
1.0
 40
1.0
 40
1.0
 10
56.052199999999999
 20
1.6179000000000001
 30
0.0
 10
56.052199999999999
 20
1.6179000000000001
 30
0.0
 10
56.052199999999999
 20
4.5067000000000004
 30
0.0
 10
56.052199999999999
 20
4.5067000000000004
 30
0.0
  0
SPLINE
  5
58
100
AcDbEntity
  8
Ebene 1
370
    40
 62
     0
100
AcDbSpline
210
0.0
220
0.0
230
1.0
 70
     0
 71
     3
 72
     8
 73
     4
 74
     0
 42
0.0000000001
 43
0.0000000001
 40
0.0
 40
0.0
 40
0.0
 40
0.0
 40
1.0
 40
1.0
 40
1.0
 40
1.0
 10
58.941000000000003
 20
1.6179000000000001
 30
0.0
 10
58.941000000000003
 20
1.6179000000000001
 30
0.0
 10
58.941000000000003
 20
4.5067000000000004
 30
0.0
 10
58.941000000000003
 20
4.5067000000000004
 30
0.0
  0
SPLINE
  5
59
100
AcDbEntity
  8
Ebene 1
370
    40
 62
     0
100
AcDbSpline
210
0.0
220
0.0
230
1.0
 70
     0
 71
     3
 72
     8
 73
     4
 74
     0
 42
0.0000000001
 43
0.0000000001
 40
0.0
 40
0.0
 40
0.0
 40
0.0
 40
1.0
 40
1.0
 40
1.0
 40
1.0
 10
56.052199999999999
 20
4.5067000000000004
 30
0.0
 10
56.052199999999999
 20
4.5067000000000004
 30
0.0
 10
58.941000000000003
 20
4.5067000000000004
 30
0.0
 10
58.941000000000003
 20
4.5067000000000004
 30
0.0
  0
SPLINE
  5
5A
100
AcDbEntity
  8
Ebene 1
370
    40
 62
     0
100
AcDbSpline
210
0.0
220
0.0
230
1.0
 70
     0
 71
     3
 72
     8
 73
     4
 74
     0
 42
0.0000000001
 43
0.0000000001
 40
0.0
 40
0.0
 40
0.0
 40
0.0
 40
1.0
 40
1.0
 40
1.0
 40
1.0
 10
56.052199999999999
 20
8.9480000000000004
 30
0.0
 10
56.052199999999999
 20
8.9480000000000004
 30
0.0
 10
58.941000000000003
 20
8.9480000000000004
 30
0.0
 10
58.941000000000003
 20
8.9480000000000004
 30
0.0
  0
SPLINE
  5
5B
100
AcDbEntity
  8
Ebene 1
370
    40
 62
     0
100
AcDbSpline
210
0.0
220
0.0
230
1.0
 70
     0
 71
     3
 72
     8
 73
     4
 74
     0
 42
0.0000000001
 43
0.0000000001
 40
0.0
 40
0.0
 40
0.0
 40
0.0
 40
1.0
 40
1.0
 40
1.0
 40
1.0
 10
56.052199999999999
 20
13.409000000000001
 30
0.0
 10
56.052199999999999
 20
13.409000000000001
 30
0.0
 10
56.052199999999999
 20
10.520200000000001
 30
0.0
 10
56.052199999999999
 20
10.520200000000001
 30
0.0
  0
SPLINE
  5
5C
100
AcDbEntity
  8
Ebene 1
370
    40
 62
     0
100
AcDbSpline
210
0.0
220
0.0
230
1.0
 70
     0
 71
     3
 72
     8
 73
     4
 74
     0
 42
0.0000000001
 43
0.0000000001
 40
0.0
 40
0.0
 40
0.0
 40
0.0
 40
1.0
 40
1.0
 40
1.0
 40
1.0
 10
58.941000000000003
 20
13.409000000000001
 30
0.0
 10
58.941000000000003
 20
13.409000000000001
 30
0.0
 10
58.941000000000003
 20
10.520200000000001
 30
0.0
 10
58.941000000000003
 20
10.520200000000001
 30
0.0
  0
SPLINE
  5
5D
100
AcDbEntity
  8
Ebene 1
370
    40
 62
     0
100
AcDbSpline
210
0.0
220
0.0
230
1.0
 70
     0
 71
     3
 72
     8
 73
     4
 74
     0
 42
0.0000000001
 43
0.0000000001
 40
0.0
 40
0.0
 40
0.0
 40
0.0
 40
1.0
 40
1.0
 40
1.0
 40
1.0
 10
56.052199999999999
 20
10.520200000000001
 30
0.0
 10
56.052199999999999
 20
10.520200000000001
 30
0.0
 10
58.941000000000003
 20
10.520200000000001
 30
0.0
 10
58.941000000000003
 20
10.520200000000001
 30
0.0
  0
SPLINE
  5
5E
100
AcDbEntity
  8
Ebene 1
370
    40
 62
     0
100
AcDbSpline
210
0.0
220
0.0
230
1.0
 70
     0
 71
     3
 72
     8
 73
     4
 74
     0
 42
0.0000000001
 43
0.0000000001
 40
0.0
 40
0.0
 40
0.0
 40
0.0
 40
1.0
 40
1.0
 40
1.0
 40
1.0
 10
73.87660000000001
 20
13.409000000000001
 30
0.0
 10
73.87660000000001
 20
13.409000000000001
 30
0.0
 10
76.7654
 20
13.409000000000001
 30
0.0
 10
76.7654
 20
13.409000000000001
 30
0.0
  0
SPLINE
  5
5F
100
AcDbEntity
  8
Ebene 1
370
    40
 62
     0
100
AcDbSpline
210
0.0
220
0.0
230
1.0
 70
     0
 71
     3
 72
     8
 73
     4
 74
     0
 42
0.0000000001
 43
0.0000000001
 40
0.0
 40
0.0
 40
0.0
 40
0.0
 40
1.0
 40
1.0
 40
1.0
 40
1.0
 10
76.7654
 20
13.409000000000001
 30
0.0
 10
76.7654
 20
13.409000000000001
 30
0.0
 10
76.7654
 20
10.520200000000001
 30
0.0
 10
76.7654
 20
10.520200000000001
 30
0.0
  0
SPLINE
  5
60
100
AcDbEntity
  8
Ebene 1
370
    40
 62
     0
100
AcDbSpline
210
0.0
220
0.0
230
1.0
 70
     0
 71
     3
 72
     8
 73
     4
 74
     0
 42
0.0000000001
 43
0.0000000001
 40
0.0
 40
0.0
 40
0.0
 40
0.0
 40
1.0
 40
1.0
 40
1.0
 40
1.0
 10
73.87660000000001
 20
13.409000000000001
 30
0.0
 10
73.87660000000001
 20
13.409000000000001
 30
0.0
 10
73.87660000000001
 20
10.520200000000001
 30
0.0
 10
73.87660000000001
 20
10.520200000000001
 30
0.0
  0
SPLINE
  5
61
100
AcDbEntity
  8
Ebene 1
370
    40
 62
     0
100
AcDbSpline
210
0.0
220
0.0
230
1.0
 70
     0
 71
     3
 72
     8
 73
     4
 74
     0
 42
0.0000000001
 43
0.0000000001
 40
0.0
 40
0.0
 40
0.0
 40
0.0
 40
1.0
 40
1.0
 40
1.0
 40
1.0
 10
73.87660000000001
 20
10.520200000000001
 30
0.0
 10
73.87660000000001
 20
10.520200000000001
 30
0.0
 10
76.7654
 20
10.520200000000001
 30
0.0
 10
76.7654
 20
10.520200000000001
 30
0.0
  0
SPLINE
  5
62
100
AcDbEntity
  8
Ebene 1
370
    40
 62
     0
100
AcDbSpline
210
0.0
220
0.0
230
1.0
 70
     0
 71
     3
 72
     8
 73
     4
 74
     0
 42
0.0000000001
 43
0.0000000001
 40
0.0
 40
0.0
 40
0.0
 40
0.0
 40
1.0
 40
1.0
 40
1.0
 40
1.0
 10
69.415599999999998
 20
13.409000000000001
 30
0.0
 10
69.415599999999998
 20
13.409000000000001
 30
0.0
 10
72.304400000000001
 20
13.409000000000001
 30
0.0
 10
72.304400000000001
 20
13.409000000000001
 30
0.0
  0
SPLINE
  5
63
100
AcDbEntity
  8
Ebene 1
370
    40
 62
     0
100
AcDbSpline
210
0.0
220
0.0
230
1.0
 70
     0
 71
     3
 72
     8
 73
     4
 74
     0
 42
0.0000000001
 43
0.0000000001
 40
0.0
 40
0.0
 40
0.0
 40
0.0
 40
1.0
 40
1.0
 40
1.0
 40
1.0
 10
72.304400000000001
 20
10.520200000000001
 30
0.0
 10
72.304400000000001
 20
10.520200000000001
 30
0.0
 10
72.304400000000001
 20
13.409000000000001
 30
0.0
 10
72.304400000000001
 20
13.409000000000001
 30
0.0
  0
SPLINE
  5
64
100
AcDbEntity
  8
Ebene 1
370
    40
 62
     0
100
AcDbSpline
210
0.0
220
0.0
230
1.0
 70
     0
 71
     3
 72
     8
 73
     4
 74
     0
 42
0.0000000001
 43
0.0000000001
 40
0.0
 40
0.0
 40
0.0
 40
0.0
 40
1.0
 40
1.0
 40
1.0
 40
1.0
 10
69.415599999999998
 20
10.520200000000001
 30
0.0
 10
69.415599999999998
 20
10.520200000000001
 30
0.0
 10
69.415599999999998
 20
13.409000000000001
 30
0.0
 10
69.415599999999998
 20
13.409000000000001
 30
0.0
  0
SPLINE
  5
65
100
AcDbEntity
  8
Ebene 1
370
    40
 62
     0
100
AcDbSpline
210
0.0
220
0.0
230
1.0
 70
     0
 71
     3
 72
     8
 73
     4
 74
     0
 42
0.0000000001
 43
0.0000000001
 40
0.0
 40
0.0
 40
0.0
 40
0.0
 40
1.0
 40
1.0
 40
1.0
 40
1.0
 10
69.415599999999998
 20
10.520200000000001
 30
0.0
 10
69.415599999999998
 20
10.520200000000001
 30
0.0
 10
72.304400000000001
 20
10.520200000000001
 30
0.0
 10
72.304400000000001
 20
10.520200000000001
 30
0.0
  0
SPLINE
  5
66
100
AcDbEntity
  8
Ebene 1
370
    40
 62
     0
100
AcDbSpline
210
0.0
220
0.0
230
1.0
 70
     0
 71
     3
 72
     8
 73
     4
 74
     0
 42
0.0000000001
 43
0.0000000001
 40
0.0
 40
0.0
 40
0.0
 40
0.0
 40
1.0
 40
1.0
 40
1.0
 40
1.0
 10
64.974199999999996
 20
13.409000000000001
 30
0.0
 10
64.974199999999996
 20
13.409000000000001
 30
0.0
 10
67.843400000000003
 20
13.409000000000001
 30
0.0
 10
67.843400000000003
 20
13.409000000000001
 30
0.0
  0
SPLINE
  5
67
100
AcDbEntity
  8
Ebene 1
370
    40
 62
     0
100
AcDbSpline
210
0.0
220
0.0
230
1.0
 70
     0
 71
     3
 72
     8
 73
     4
 74
     0
 42
0.0000000001
 43
0.0000000001
 40
0.0
 40
0.0
 40
0.0
 40
0.0
 40
1.0
 40
1.0
 40
1.0
 40
1.0
 10
67.843400000000003
 20
10.520200000000001
 30
0.0
 10
67.843400000000003
 20
10.520200000000001
 30
0.0
 10
67.843400000000003
 20
13.409000000000001
 30
0.0
 10
67.843400000000003
 20
13.409000000000001
 30
0.0
  0
SPLINE
  5
68
100
AcDbEntity
  8
Ebene 1
370
    40
 62
     0
100
AcDbSpline
210
0.0
220
0.0
230
1.0
 70
     0
 71
     3
 72
     8
 73
     4
 74
     0
 42
0.0000000001
 43
0.0000000001
 40
0.0
 40
0.0
 40
0.0
 40
0.0
 40
1.0
 40
1.0
 40
1.0
 40
1.0
 10
64.974199999999996
 20
10.520200000000001
 30
0.0
 10
64.974199999999996
 20
10.520200000000001
 30
0.0
 10
64.974199999999996
 20
13.409000000000001
 30
0.0
 10
64.974199999999996
 20
13.409000000000001
 30
0.0
  0
SPLINE
  5
69
100
AcDbEntity
  8
Ebene 1
370
    40
 62
     0
100
AcDbSpline
210
0.0
220
0.0
230
1.0
 70
     0
 71
     3
 72
     8
 73
     4
 74
     0
 42
0.0000000001
 43
0.0000000001
 40
0.0
 40
0.0
 40
0.0
 40
0.0
 40
1.0
 40
1.0
 40
1.0
 40
1.0
 10
64.974199999999996
 20
10.520200000000001
 30
0.0
 10
64.974199999999996
 20
10.520200000000001
 30
0.0
 10
67.843400000000003
 20
10.520200000000001
 30
0.0
 10
67.843400000000003
 20
10.520200000000001
 30
0.0
  0
SPLINE
  5
6A
100
AcDbEntity
  8
Ebene 1
370
    40
 62
     0
100
AcDbSpline
210
0.0
220
0.0
230
1.0
 70
     0
 71
     3
 72
     8
 73
     4
 74
     0
 42
0.0000000001
 43
0.0000000001
 40
0.0
 40
0.0
 40
0.0
 40
0.0
 40
1.0
 40
1.0
 40
1.0
 40
1.0
 10
60.513200000000005
 20
13.409000000000001
 30
0.0
 10
60.513200000000005
 20
13.409000000000001
 30
0.0
 10
63.402000000000001
 20
13.409000000000001
 30
0.0
 10
63.402000000000001
 20
13.409000000000001
 30
0.0
  0
SPLINE
  5
6B
100
AcDbEntity
  8
Ebene 1
370
    40
 62
     0
100
AcDbSpline
210
0.0
220
0.0
230
1.0
 70
     0
 71
     3
 72
     8
 73
     4
 74
     0
 42
0.0000000001
 43
0.0000000001
 40
0.0
 40
0.0
 40
0.0
 40
0.0
 40
1.0
 40
1.0
 40
1.0
 40
1.0
 10
72.304400000000001
 20
14.981200000000001
 30
0.0
 10
72.304400000000001
 20
14.981200000000001
 30
0.0
 10
72.304400000000001
 20
17.870000000000001
 30
0.0
 10
72.304400000000001
 20
17.870000000000001
 30
0.0
  0
SPLINE
  5
6C
100
AcDbEntity
  8
Ebene 1
370
    40
 62
     0
100
AcDbSpline
210
0.0
220
0.0
230
1.0
 70
     0
 71
     3
 72
     8
 73
     4
 74
     0
 42
0.0000000001
 43
0.0000000001
 40
0.0
 40
0.0
 40
0.0
 40
0.0
 40
1.0
 40
1.0
 40
1.0
 40
1.0
 10
69.415599999999998
 20
14.981200000000001
 30
0.0
 10
69.415599999999998
 20
14.981200000000001
 30
0.0
 10
69.415599999999998
 20
17.870000000000001
 30
0.0
 10
69.415599999999998
 20
17.870000000000001
 30
0.0
  0
SPLINE
  5
6D
100
AcDbEntity
  8
Ebene 1
370
    40
 62
     0
100
AcDbSpline
210
0.0
220
0.0
230
1.0
 70
     0
 71
     3
 72
     8
 73
     4
 74
     0
 42
0.0000000001
 43
0.0000000001
 40
0.0
 40
0.0
 40
0.0
 40
0.0
 40
1.0
 40
1.0
 40
1.0
 40
1.0
 10
69.415599999999998
 20
14.981200000000001
 30
0.0
 10
69.415599999999998
 20
14.981200000000001
 30
0.0
 10
72.304400000000001
 20
14.981200000000001
 30
0.0
 10
72.304400000000001
 20
14.981200000000001
 30
0.0
  0
SPLINE
  5
6E
100
AcDbEntity
  8
Ebene 1
370
    40
 62
     0
100
AcDbSpline
210
0.0
220
0.0
230
1.0
 70
     0
 71
     3
 72
     8
 73
     4
 74
     0
 42
0.0000000001
 43
0.0000000001
 40
0.0
 40
0.0
 40
0.0
 40
0.0
 40
1.0
 40
1.0
 40
1.0
 40
1.0
 10
64.974199999999996
 20
17.870000000000001
 30
0.0
 10
64.974199999999996
 20
17.870000000000001
 30
0.0
 10
67.843400000000003
 20
17.870000000000001
 30
0.0
 10
67.843400000000003
 20
17.870000000000001
 30
0.0
  0
SPLINE
  5
6F
100
AcDbEntity
  8
Ebene 1
370
    40
 62
     0
100
AcDbSpline
210
0.0
220
0.0
230
1.0
 70
     0
 71
     3
 72
     8
 73
     4
 74
     0
 42
0.0000000001
 43
0.0000000001
 40
0.0
 40
0.0
 40
0.0
 40
0.0
 40
1.0
 40
1.0
 40
1.0
 40
1.0
 10
67.843400000000003
 20
14.981200000000001
 30
0.0
 10
67.843400000000003
 20
14.981200000000001
 30
0.0
 10
67.843400000000003
 20
17.870000000000001
 30
0.0
 10
67.843400000000003
 20
17.870000000000001
 30
0.0
  0
SPLINE
  5
70
100
AcDbEntity
  8
Ebene 1
370
    40
 62
     0
100
AcDbSpline
210
0.0
220
0.0
230
1.0
 70
     0
 71
     3
 72
     8
 73
     4
 74
     0
 42
0.0000000001
 43
0.0000000001
 40
0.0
 40
0.0
 40
0.0
 40
0.0
 40
1.0
 40
1.0
 40
1.0
 40
1.0
 10
64.974199999999996
 20
14.981200000000001
 30
0.0
 10
64.974199999999996
 20
14.981200000000001
 30
0.0
 10
64.974199999999996
 20
17.870000000000001
 30
0.0
 10
64.974199999999996
 20
17.870000000000001
 30
0.0
  0
SPLINE
  5
71
100
AcDbEntity
  8
Ebene 1
370
    40
 62
     0
100
AcDbSpline
210
0.0
220
0.0
230
1.0
 70
     0
 71
     3
 72
     8
 73
     4
 74
     0
 42
0.0000000001
 43
0.0000000001
 40
0.0
 40
0.0
 40
0.0
 40
0.0
 40
1.0
 40
1.0
 40
1.0
 40
1.0
 10
64.974199999999996
 20
14.981200000000001
 30
0.0
 10
64.974199999999996
 20
14.981200000000001
 30
0.0
 10
67.843400000000003
 20
14.981200000000001
 30
0.0
 10
67.843400000000003
 20
14.981200000000001
 30
0.0
  0
SPLINE
  5
72
100
AcDbEntity
  8
Ebene 1
370
    40
 62
     0
100
AcDbSpline
210
0.0
220
0.0
230
1.0
 70
     0
 71
     3
 72
     8
 73
     4
 74
     0
 42
0.0000000001
 43
0.0000000001
 40
0.0
 40
0.0
 40
0.0
 40
0.0
 40
1.0
 40
1.0
 40
1.0
 40
1.0
 10
60.513200000000005
 20
17.870000000000001
 30
0.0
 10
60.513200000000005
 20
17.870000000000001
 30
0.0
 10
63.402000000000001
 20
17.870000000000001
 30
0.0
 10
63.402000000000001
 20
17.870000000000001
 30
0.0
  0
SPLINE
  5
73
100
AcDbEntity
  8
Ebene 1
370
    40
 62
     0
100
AcDbSpline
210
0.0
220
0.0
230
1.0
 70
     0
 71
     3
 72
     8
 73
     4
 74
     0
 42
0.0000000001
 43
0.0000000001
 40
0.0
 40
0.0
 40
0.0
 40
0.0
 40
1.0
 40
1.0
 40
1.0
 40
1.0
 10
60.513200000000005
 20
17.870000000000001
 30
0.0
 10
60.513200000000005
 20
17.870000000000001
 30
0.0
 10
60.513200000000005
 20
14.981200000000001
 30
0.0
 10
60.513200000000005
 20
14.981200000000001
 30
0.0
  0
SPLINE
  5
74
100
AcDbEntity
  8
Ebene 1
370
    40
 62
     0
100
AcDbSpline
210
0.0
220
0.0
230
1.0
 70
     0
 71
     3
 72
     8
 73
     4
 74
     0
 42
0.0000000001
 43
0.0000000001
 40
0.0
 40
0.0
 40
0.0
 40
0.0
 40
1.0
 40
1.0
 40
1.0
 40
1.0
 10
63.402000000000001
 20
17.870000000000001
 30
0.0
 10
63.402000000000001
 20
17.870000000000001
 30
0.0
 10
63.402000000000001
 20
14.981200000000001
 30
0.0
 10
63.402000000000001
 20
14.981200000000001
 30
0.0
  0
SPLINE
  5
75
100
AcDbEntity
  8
Ebene 1
370
    40
 62
     0
100
AcDbSpline
210
0.0
220
0.0
230
1.0
 70
     0
 71
     3
 72
     8
 73
     4
 74
     0
 42
0.0000000001
 43
0.0000000001
 40
0.0
 40
0.0
 40
0.0
 40
0.0
 40
1.0
 40
1.0
 40
1.0
 40
1.0
 10
60.513200000000005
 20
14.981200000000001
 30
0.0
 10
60.513200000000005
 20
14.981200000000001
 30
0.0
 10
63.402000000000001
 20
14.981200000000001
 30
0.0
 10
63.402000000000001
 20
14.981200000000001
 30
0.0
  0
SPLINE
  5
76
100
AcDbEntity
  8
Ebene 1
370
    40
 62
     0
100
AcDbSpline
210
0.0
220
0.0
230
1.0
 70
     0
 71
     3
 72
     8
 73
     4
 74
     0
 42
0.0000000001
 43
0.0000000001
 40
0.0
 40
0.0
 40
0.0
 40
0.0
 40
1.0
 40
1.0
 40
1.0
 40
1.0
 10
51.610900000000001
 20
13.409000000000001
 30
0.0
 10
51.610900000000001
 20
13.409000000000001
 30
0.0
 10
54.480000000000004
 20
13.409000000000001
 30
0.0
 10
54.480000000000004
 20
13.409000000000001
 30
0.0
  0
SPLINE
  5
77
100
AcDbEntity
  8
Ebene 1
370
    40
 62
     0
100
AcDbSpline
210
0.0
220
0.0
230
1.0
 70
     0
 71
     3
 72
     8
 73
     4
 74
     0
 42
0.0000000001
 43
0.0000000001
 40
0.0
 40
0.0
 40
0.0
 40
0.0
 40
1.0
 40
1.0
 40
1.0
 40
1.0
 10
51.610900000000001
 20
13.409000000000001
 30
0.0
 10
51.610900000000001
 20
13.409000000000001
 30
0.0
 10
51.610900000000001
 20
10.520200000000001
 30
0.0
 10
51.610900000000001
 20
10.520200000000001
 30
0.0
  0
SPLINE
  5
78
100
AcDbEntity
  8
Ebene 1
370
    40
 62
     0
100
AcDbSpline
210
0.0
220
0.0
230
1.0
 70
     0
 71
     3
 72
     8
 73
     4
 74
     0
 42
0.0000000001
 43
0.0000000001
 40
0.0
 40
0.0
 40
0.0
 40
0.0
 40
1.0
 40
1.0
 40
1.0
 40
1.0
 10
54.480000000000004
 20
13.409000000000001
 30
0.0
 10
54.480000000000004
 20
13.409000000000001
 30
0.0
 10
54.480000000000004
 20
10.520200000000001
 30
0.0
 10
54.480000000000004
 20
10.520200000000001
 30
0.0
  0
SPLINE
  5
79
100
AcDbEntity
  8
Ebene 1
370
    40
 62
     0
100
AcDbSpline
210
0.0
220
0.0
230
1.0
 70
     0
 71
     3
 72
     8
 73
     4
 74
     0
 42
0.0000000001
 43
0.0000000001
 40
0.0
 40
0.0
 40
0.0
 40
0.0
 40
1.0
 40
1.0
 40
1.0
 40
1.0
 10
51.610900000000001
 20
10.520200000000001
 30
0.0
 10
51.610900000000001
 20
10.520200000000001
 30
0.0
 10
54.480000000000004
 20
10.520200000000001
 30
0.0
 10
54.480000000000004
 20
10.520200000000001
 30
0.0
  0
SPLINE
  5
7A
100
AcDbEntity
  8
Ebene 1
370
    40
 62
     0
100
AcDbSpline
210
0.0
220
0.0
230
1.0
 70
     0
 71
     3
 72
     8
 73
     4
 74
     0
 42
0.0000000001
 43
0.0000000001
 40
0.0
 40
0.0
 40
0.0
 40
0.0
 40
1.0
 40
1.0
 40
1.0
 40
1.0
 10
56.052199999999999
 20
13.409000000000001
 30
0.0
 10
56.052199999999999
 20
13.409000000000001
 30
0.0
 10
58.941000000000003
 20
13.409000000000001
 30
0.0
 10
58.941000000000003
 20
13.409000000000001
 30
0.0
  0
SPLINE
  5
7B
100
AcDbEntity
  8
Ebene 1
370
    40
 62
     0
100
AcDbSpline
210
0.0
220
0.0
230
1.0
 70
     0
 71
     3
 72
     8
 73
     4
 74
     0
 42
0.0000000001
 43
0.0000000001
 40
0.0
 40
0.0
 40
0.0
 40
0.0
 40
1.0
 40
1.0
 40
1.0
 40
1.0
 10
60.513200000000005
 20
-2.8431000000000002
 30
0.0
 10
60.513200000000005
 20
-2.8431000000000002
 30
0.0
 10
60.513200000000005
 20
0.1047
 30
0.0
 10
60.513200000000005
 20
0.1047
 30
0.0
  0
SPLINE
  5
7C
100
AcDbEntity
  8
Ebene 1
370
    40
 62
     0
100
AcDbSpline
210
0.0
220
0.0
230
1.0
 70
     0
 71
     3
 72
     8
 73
     4
 74
     0
 42
0.0000000001
 43
0.0000000001
 40
0.0
 40
0.0
 40
0.0
 40
0.0
 40
1.0
 40
1.0
 40
1.0
 40
1.0
 10
63.402000000000001
 20
-2.8431000000000002
 30
0.0
 10
63.402000000000001
 20
-2.8431000000000002
 30
0.0
 10
63.402000000000001
 20
0.1047
 30
0.0
 10
63.402000000000001
 20
0.1047
 30
0.0
  0
SPLINE
  5
7D
100
AcDbEntity
  8
Ebene 1
370
    40
 62
     0
100
AcDbSpline
210
0.0
220
0.0
230
1.0
 70
     0
 71
     3
 72
     8
 73
     4
 74
     0
 42
0.0000000001
 43
0.0000000001
 40
0.0
 40
0.0
 40
0.0
 40
0.0
 40
1.0
 40
1.0
 40
1.0
 40
1.0
 10
60.513200000000005
 20
0.1047
 30
0.0
 10
60.513200000000005
 20
0.1047
 30
0.0
 10
63.402000000000001
 20
0.1047
 30
0.0
 10
63.402000000000001
 20
0.1047
 30
0.0
  0
SPLINE
  5
7E
100
AcDbEntity
  8
Ebene 1
370
    40
 62
     0
100
AcDbSpline
210
0.0
220
0.0
230
1.0
 70
     0
 71
     3
 72
     8
 73
     4
 74
     0
 42
0.0000000001
 43
0.0000000001
 40
0.0
 40
0.0
 40
0.0
 40
0.0
 40
1.0
 40
1.0
 40
1.0
 40
1.0
 10
51.610900000000001
 20
17.870000000000001
 30
0.0
 10
51.610900000000001
 20
17.870000000000001
 30
0.0
 10
54.480000000000004
 20
17.870000000000001
 30
0.0
 10
54.480000000000004
 20
17.870000000000001
 30
0.0
  0
SPLINE
  5
7F
100
AcDbEntity
  8
Ebene 1
370
    40
 62
     0
100
AcDbSpline
210
0.0
220
0.0
230
1.0
 70
     0
 71
     3
 72
     8
 73
     4
 74
     0
 42
0.0000000001
 43
0.0000000001
 40
0.0
 40
0.0
 40
0.0
 40
0.0
 40
1.0
 40
1.0
 40
1.0
 40
1.0
 10
51.610900000000001
 20
17.870000000000001
 30
0.0
 10
51.610900000000001
 20
17.870000000000001
 30
0.0
 10
51.610900000000001
 20
14.981200000000001
 30
0.0
 10
51.610900000000001
 20
14.981200000000001
 30
0.0
  0
SPLINE
  5
80
100
AcDbEntity
  8
Ebene 1
370
    40
 62
     0
100
AcDbSpline
210
0.0
220
0.0
230
1.0
 70
     0
 71
     3
 72
     8
 73
     4
 74
     0
 42
0.0000000001
 43
0.0000000001
 40
0.0
 40
0.0
 40
0.0
 40
0.0
 40
1.0
 40
1.0
 40
1.0
 40
1.0
 10
54.480000000000004
 20
17.870000000000001
 30
0.0
 10
54.480000000000004
 20
17.870000000000001
 30
0.0
 10
54.480000000000004
 20
14.981200000000001
 30
0.0
 10
54.480000000000004
 20
14.981200000000001
 30
0.0
  0
SPLINE
  5
81
100
AcDbEntity
  8
Ebene 1
370
    40
 62
     0
100
AcDbSpline
210
0.0
220
0.0
230
1.0
 70
     0
 71
     3
 72
     8
 73
     4
 74
     0
 42
0.0000000001
 43
0.0000000001
 40
0.0
 40
0.0
 40
0.0
 40
0.0
 40
1.0
 40
1.0
 40
1.0
 40
1.0
 10
51.610900000000001
 20
14.981200000000001
 30
0.0
 10
51.610900000000001
 20
14.981200000000001
 30
0.0
 10
54.480000000000004
 20
14.981200000000001
 30
0.0
 10
54.480000000000004
 20
14.981200000000001
 30
0.0
  0
SPLINE
  5
82
100
AcDbEntity
  8
Ebene 1
370
    40
 62
     0
100
AcDbSpline
210
0.0
220
0.0
230
1.0
 70
     0
 71
     3
 72
     8
 73
     4
 74
     0
 42
0.0000000001
 43
0.0000000001
 40
0.0
 40
0.0
 40
0.0
 40
0.0
 40
1.0
 40
1.0
 40
1.0
 40
1.0
 10
56.052199999999999
 20
17.870000000000001
 30
0.0
 10
56.052199999999999
 20
17.870000000000001
 30
0.0
 10
58.941000000000003
 20
17.870000000000001
 30
0.0
 10
58.941000000000003
 20
17.870000000000001
 30
0.0
  0
SPLINE
  5
83
100
AcDbEntity
  8
Ebene 1
370
    40
 62
     0
100
AcDbSpline
210
0.0
220
0.0
230
1.0
 70
     0
 71
     3
 72
     8
 73
     4
 74
     0
 42
0.0000000001
 43
0.0000000001
 40
0.0
 40
0.0
 40
0.0
 40
0.0
 40
1.0
 40
1.0
 40
1.0
 40
1.0
 10
56.052199999999999
 20
17.870000000000001
 30
0.0
 10
56.052199999999999
 20
17.870000000000001
 30
0.0
 10
56.052199999999999
 20
14.981200000000001
 30
0.0
 10
56.052199999999999
 20
14.981200000000001
 30
0.0
  0
SPLINE
  5
84
100
AcDbEntity
  8
Ebene 1
370
    40
 62
     0
100
AcDbSpline
210
0.0
220
0.0
230
1.0
 70
     0
 71
     3
 72
     8
 73
     4
 74
     0
 42
0.0000000001
 43
0.0000000001
 40
0.0
 40
0.0
 40
0.0
 40
0.0
 40
1.0
 40
1.0
 40
1.0
 40
1.0
 10
58.941000000000003
 20
17.870000000000001
 30
0.0
 10
58.941000000000003
 20
17.870000000000001
 30
0.0
 10
58.941000000000003
 20
14.981200000000001
 30
0.0
 10
58.941000000000003
 20
14.981200000000001
 30
0.0
  0
SPLINE
  5
85
100
AcDbEntity
  8
Ebene 1
370
    40
 62
     0
100
AcDbSpline
210
0.0
220
0.0
230
1.0
 70
     0
 71
     3
 72
     8
 73
     4
 74
     0
 42
0.0000000001
 43
0.0000000001
 40
0.0
 40
0.0
 40
0.0
 40
0.0
 40
1.0
 40
1.0
 40
1.0
 40
1.0
 10
56.052199999999999
 20
14.981200000000001
 30
0.0
 10
56.052199999999999
 20
14.981200000000001
 30
0.0
 10
58.941000000000003
 20
14.981200000000001
 30
0.0
 10
58.941000000000003
 20
14.981200000000001
 30
0.0
  0
SPLINE
  5
86
100
AcDbEntity
  8
Ebene 1
370
    40
 62
     0
100
AcDbSpline
210
0.0
220
0.0
230
1.0
 70
     0
 71
     3
 72
     8
 73
     4
 74
     0
 42
0.0000000001
 43
0.0000000001
 40
0.0
 40
0.0
 40
0.0
 40
0.0
 40
1.0
 40
1.0
 40
1.0
 40
1.0
 10
73.87660000000001
 20
17.870000000000001
 30
0.0
 10
73.87660000000001
 20
17.870000000000001
 30
0.0
 10
76.7654
 20
17.870000000000001
 30
0.0
 10
76.7654
 20
17.870000000000001
 30
0.0
  0
SPLINE
  5
87
100
AcDbEntity
  8
Ebene 1
370
    40
 62
     0
100
AcDbSpline
210
0.0
220
0.0
230
1.0
 70
     0
 71
     3
 72
     8
 73
     4
 74
     0
 42
0.0000000001
 43
0.0000000001
 40
0.0
 40
0.0
 40
0.0
 40
0.0
 40
1.0
 40
1.0
 40
1.0
 40
1.0
 10
76.7654
 20
17.870000000000001
 30
0.0
 10
76.7654
 20
17.870000000000001
 30
0.0
 10
76.7654
 20
14.981200000000001
 30
0.0
 10
76.7654
 20
14.981200000000001
 30
0.0
  0
SPLINE
  5
88
100
AcDbEntity
  8
Ebene 1
370
    40
 62
     0
100
AcDbSpline
210
0.0
220
0.0
230
1.0
 70
     0
 71
     3
 72
     8
 73
     4
 74
     0
 42
0.0000000001
 43
0.0000000001
 40
0.0
 40
0.0
 40
0.0
 40
0.0
 40
1.0
 40
1.0
 40
1.0
 40
1.0
 10
73.87660000000001
 20
17.870000000000001
 30
0.0
 10
73.87660000000001
 20
17.870000000000001
 30
0.0
 10
73.87660000000001
 20
14.981200000000001
 30
0.0
 10
73.87660000000001
 20
14.981200000000001
 30
0.0
  0
SPLINE
  5
89
100
AcDbEntity
  8
Ebene 1
370
    40
 62
     0
100
AcDbSpline
210
0.0
220
0.0
230
1.0
 70
     0
 71
     3
 72
     8
 73
     4
 74
     0
 42
0.0000000001
 43
0.0000000001
 40
0.0
 40
0.0
 40
0.0
 40
0.0
 40
1.0
 40
1.0
 40
1.0
 40
1.0
 10
73.87660000000001
 20
14.981200000000001
 30
0.0
 10
73.87660000000001
 20
14.981200000000001
 30
0.0
 10
76.7654
 20
14.981200000000001
 30
0.0
 10
76.7654
 20
14.981200000000001
 30
0.0
  0
SPLINE
  5
8A
100
AcDbEntity
  8
Ebene 1
370
    40
 62
     0
100
AcDbSpline
210
0.0
220
0.0
230
1.0
 70
     0
 71
     3
 72
     8
 73
     4
 74
     0
 42
0.0000000001
 43
0.0000000001
 40
0.0
 40
0.0
 40
0.0
 40
0.0
 40
1.0
 40
1.0
 40
1.0
 40
1.0
 10
69.415599999999998
 20
17.870000000000001
 30
0.0
 10
69.415599999999998
 20
17.870000000000001
 30
0.0
 10
72.304400000000001
 20
17.870000000000001
 30
0.0
 10
72.304400000000001
 20
17.870000000000001
 30
0.0
  0
SPLINE
  5
8B
100
AcDbEntity
  8
Ebene 1
370
    40
 62
     0
100
AcDbSpline
210
0.0
220
0.0
230
1.0
 70
     0
 71
     3
 72
     8
 73
     4
 74
     0
 42
0.0000000001
 43
0.0000000001
 40
0.0
 40
0.0
 40
0.0
 40
0.0
 40
1.0
 40
1.0
 40
1.0
 40
1.0
 10
56.052199999999999
 20
-2.8431000000000002
 30
0.0
 10
56.052199999999999
 20
-2.8431000000000002
 30
0.0
 10
56.052199999999999
 20
0.1047
 30
0.0
 10
56.052199999999999
 20
0.1047
 30
0.0
  0
SPLINE
  5
8C
100
AcDbEntity
  8
Ebene 1
370
    40
 62
     0
100
AcDbSpline
210
0.0
220
0.0
230
1.0
 70
     0
 71
     3
 72
     8
 73
     4
 74
     0
 42
0.0000000001
 43
0.0000000001
 40
0.0
 40
0.0
 40
0.0
 40
0.0
 40
1.0
 40
1.0
 40
1.0
 40
1.0
 10
58.941000000000003
 20
-2.8431000000000002
 30
0.0
 10
58.941000000000003
 20
-2.8431000000000002
 30
0.0
 10
58.941000000000003
 20
0.1047
 30
0.0
 10
58.941000000000003
 20
0.1047
 30
0.0
  0
SPLINE
  5
8D
100
AcDbEntity
  8
Ebene 1
370
    40
 62
     0
100
AcDbSpline
210
0.0
220
0.0
230
1.0
 70
     0
 71
     3
 72
     8
 73
     4
 74
     0
 42
0.0000000001
 43
0.0000000001
 40
0.0
 40
0.0
 40
0.0
 40
0.0
 40
1.0
 40
1.0
 40
1.0
 40
1.0
 10
56.052199999999999
 20
0.1047
 30
0.0
 10
56.052199999999999
 20
0.1047
 30
0.0
 10
58.941000000000003
 20
0.1047
 30
0.0
 10
58.941000000000003
 20
0.1047
 30
0.0
  0
SPLINE
  5
8E
100
AcDbEntity
  8
Ebene 1
370
    40
 62
     0
100
AcDbSpline
210
0.0
220
0.0
230
1.0
 70
     0
 71
     3
 72
     8
 73
     4
 74
     0
 42
0.0000000001
 43
0.0000000001
 40
0.0
 40
0.0
 40
0.0
 40
0.0
 40
1.0
 40
1.0
 40
1.0
 40
1.0
 10
73.87660000000001
 20
-2.8431000000000002
 30
0.0
 10
73.87660000000001
 20
-2.8431000000000002
 30
0.0
 10
76.7654
 20
-2.8431000000000002
 30
0.0
 10
76.7654
 20
-2.8431000000000002
 30
0.0
  0
SPLINE
  5
8F
100
AcDbEntity
  8
Ebene 1
370
    40
 62
     0
100
AcDbSpline
210
0.0
220
0.0
230
1.0
 70
     0
 71
     3
 72
     8
 73
     4
 74
     0
 42
0.0000000001
 43
0.0000000001
 40
0.0
 40
0.0
 40
0.0
 40
0.0
 40
1.0
 40
1.0
 40
1.0
 40
1.0
 10
76.7654
 20
-2.8431000000000002
 30
0.0
 10
76.7654
 20
-2.8431000000000002
 30
0.0
 10
76.7654
 20
0.1047
 30
0.0
 10
76.7654
 20
0.1047
 30
0.0
  0
SPLINE
  5
90
100
AcDbEntity
  8
Ebene 1
370
    40
 62
     0
100
AcDbSpline
210
0.0
220
0.0
230
1.0
 70
     0
 71
     3
 72
     8
 73
     4
 74
     0
 42
0.0000000001
 43
0.0000000001
 40
0.0
 40
0.0
 40
0.0
 40
0.0
 40
1.0
 40
1.0
 40
1.0
 40
1.0
 10
73.87660000000001
 20
-2.8431000000000002
 30
0.0
 10
73.87660000000001
 20
-2.8431000000000002
 30
0.0
 10
73.87660000000001
 20
0.1047
 30
0.0
 10
73.87660000000001
 20
0.1047
 30
0.0
  0
SPLINE
  5
91
100
AcDbEntity
  8
Ebene 1
370
    40
 62
     0
100
AcDbSpline
210
0.0
220
0.0
230
1.0
 70
     0
 71
     3
 72
     8
 73
     4
 74
     0
 42
0.0000000001
 43
0.0000000001
 40
0.0
 40
0.0
 40
0.0
 40
0.0
 40
1.0
 40
1.0
 40
1.0
 40
1.0
 10
73.87660000000001
 20
0.1047
 30
0.0
 10
73.87660000000001
 20
0.1047
 30
0.0
 10
76.7654
 20
0.1047
 30
0.0
 10
76.7654
 20
0.1047
 30
0.0
  0
SPLINE
  5
92
100
AcDbEntity
  8
Ebene 1
370
    40
 62
     0
100
AcDbSpline
210
0.0
220
0.0
230
1.0
 70
     0
 71
     3
 72
     8
 73
     4
 74
     0
 42
0.0000000001
 43
0.0000000001
 40
0.0
 40
0.0
 40
0.0
 40
0.0
 40
1.0
 40
1.0
 40
1.0
 40
1.0
 10
69.415599999999998
 20
-2.8431000000000002
 30
0.0
 10
69.415599999999998
 20
-2.8431000000000002
 30
0.0
 10
72.304400000000001
 20
-2.8431000000000002
 30
0.0
 10
72.304400000000001
 20
-2.8431000000000002
 30
0.0
  0
SPLINE
  5
93
100
AcDbEntity
  8
Ebene 1
370
    40
 62
     0
100
AcDbSpline
210
0.0
220
0.0
230
1.0
 70
     0
 71
     3
 72
     8
 73
     4
 74
     0
 42
0.0000000001
 43
0.0000000001
 40
0.0
 40
0.0
 40
0.0
 40
0.0
 40
1.0
 40
1.0
 40
1.0
 40
1.0
 10
72.304400000000001
 20
0.1047
 30
0.0
 10
72.304400000000001
 20
0.1047
 30
0.0
 10
72.304400000000001
 20
-2.8431000000000002
 30
0.0
 10
72.304400000000001
 20
-2.8431000000000002
 30
0.0
  0
SPLINE
  5
94
100
AcDbEntity
  8
Ebene 1
370
    40
 62
     0
100
AcDbSpline
210
0.0
220
0.0
230
1.0
 70
     0
 71
     3
 72
     8
 73
     4
 74
     0
 42
0.0000000001
 43
0.0000000001
 40
0.0
 40
0.0
 40
0.0
 40
0.0
 40
1.0
 40
1.0
 40
1.0
 40
1.0
 10
69.415599999999998
 20
0.1047
 30
0.0
 10
69.415599999999998
 20
0.1047
 30
0.0
 10
69.415599999999998
 20
-2.8431000000000002
 30
0.0
 10
69.415599999999998
 20
-2.8431000000000002
 30
0.0
  0
SPLINE
  5
95
100
AcDbEntity
  8
Ebene 1
370
    40
 62
     0
100
AcDbSpline
210
0.0
220
0.0
230
1.0
 70
     0
 71
     3
 72
     8
 73
     4
 74
     0
 42
0.0000000001
 43
0.0000000001
 40
0.0
 40
0.0
 40
0.0
 40
0.0
 40
1.0
 40
1.0
 40
1.0
 40
1.0
 10
69.415599999999998
 20
0.1047
 30
0.0
 10
69.415599999999998
 20
0.1047
 30
0.0
 10
72.304400000000001
 20
0.1047
 30
0.0
 10
72.304400000000001
 20
0.1047
 30
0.0
  0
SPLINE
  5
96
100
AcDbEntity
  8
Ebene 1
370
    40
 62
     0
100
AcDbSpline
210
0.0
220
0.0
230
1.0
 70
     0
 71
     3
 72
     8
 73
     4
 74
     0
 42
0.0000000001
 43
0.0000000001
 40
0.0
 40
0.0
 40
0.0
 40
0.0
 40
1.0
 40
1.0
 40
1.0
 40
1.0
 10
64.974199999999996
 20
-2.8431000000000002
 30
0.0
 10
64.974199999999996
 20
-2.8431000000000002
 30
0.0
 10
67.843400000000003
 20
-2.8431000000000002
 30
0.0
 10
67.843400000000003
 20
-2.8431000000000002
 30
0.0
  0
SPLINE
  5
97
100
AcDbEntity
  8
Ebene 1
370
    40
 62
     0
100
AcDbSpline
210
0.0
220
0.0
230
1.0
 70
     0
 71
     3
 72
     8
 73
     4
 74
     0
 42
0.0000000001
 43
0.0000000001
 40
0.0
 40
0.0
 40
0.0
 40
0.0
 40
1.0
 40
1.0
 40
1.0
 40
1.0
 10
67.843400000000003
 20
0.1047
 30
0.0
 10
67.843400000000003
 20
0.1047
 30
0.0
 10
67.843400000000003
 20
-2.8431000000000002
 30
0.0
 10
67.843400000000003
 20
-2.8431000000000002
 30
0.0
  0
SPLINE
  5
98
100
AcDbEntity
  8
Ebene 1
370
    40
 62
     0
100
AcDbSpline
210
0.0
220
0.0
230
1.0
 70
     0
 71
     3
 72
     8
 73
     4
 74
     0
 42
0.0000000001
 43
0.0000000001
 40
0.0
 40
0.0
 40
0.0
 40
0.0
 40
1.0
 40
1.0
 40
1.0
 40
1.0
 10
64.974199999999996
 20
0.1047
 30
0.0
 10
64.974199999999996
 20
0.1047
 30
0.0
 10
64.974199999999996
 20
-2.8431000000000002
 30
0.0
 10
64.974199999999996
 20
-2.8431000000000002
 30
0.0
  0
SPLINE
  5
99
100
AcDbEntity
  8
Ebene 1
370
    40
 62
     0
100
AcDbSpline
210
0.0
220
0.0
230
1.0
 70
     0
 71
     3
 72
     8
 73
     4
 74
     0
 42
0.0000000001
 43
0.0000000001
 40
0.0
 40
0.0
 40
0.0
 40
0.0
 40
1.0
 40
1.0
 40
1.0
 40
1.0
 10
64.974199999999996
 20
0.1047
 30
0.0
 10
64.974199999999996
 20
0.1047
 30
0.0
 10
67.843400000000003
 20
0.1047
 30
0.0
 10
67.843400000000003
 20
0.1047
 30
0.0
  0
SPLINE
  5
9A
100
AcDbEntity
  8
Ebene 1
370
    40
 62
     0
100
AcDbSpline
210
0.0
220
0.0
230
1.0
 70
     0
 71
     3
 72
     8
 73
     4
 74
     0
 42
0.0000000001
 43
0.0000000001
 40
0.0
 40
0.0
 40
0.0
 40
0.0
 40
1.0
 40
1.0
 40
1.0
 40
1.0
 10
60.513200000000005
 20
-2.8431000000000002
 30
0.0
 10
60.513200000000005
 20
-2.8431000000000002
 30
0.0
 10
63.402000000000001
 20
-2.8431000000000002
 30
0.0
 10
63.402000000000001
 20
-2.8431000000000002
 30
0.0
  0
SPLINE
  5
9B
100
AcDbEntity
  8
Ebene 1
370
    40
 62
     0
100
AcDbSpline
210
0.0
220
0.0
230
1.0
 70
     0
 71
     3
 72
     8
 73
     4
 74
     0
 42
0.0000000001
 43
0.0000000001
 40
0.0
 40
0.0
 40
0.0
 40
0.0
 40
1.0
 40
1.0
 40
1.0
 40
1.0
 10
72.304400000000001
 20
-4.3367000000000004
 30
0.0
 10
72.304400000000001
 20
-4.3367000000000004
 30
0.0
 10
72.304400000000001
 20
-7.2845000000000004
 30
0.0
 10
72.304400000000001
 20
-7.2845000000000004
 30
0.0
  0
SPLINE
  5
9C
100
AcDbEntity
  8
Ebene 1
370
    40
 62
     0
100
AcDbSpline
210
0.0
220
0.0
230
1.0
 70
     0
 71
     3
 72
     8
 73
     4
 74
     0
 42
0.0000000001
 43
0.0000000001
 40
0.0
 40
0.0
 40
0.0
 40
0.0
 40
1.0
 40
1.0
 40
1.0
 40
1.0
 10
69.415599999999998
 20
-4.3367000000000004
 30
0.0
 10
69.415599999999998
 20
-4.3367000000000004
 30
0.0
 10
69.415599999999998
 20
-7.2845000000000004
 30
0.0
 10
69.415599999999998
 20
-7.2845000000000004
 30
0.0
  0
SPLINE
  5
9D
100
AcDbEntity
  8
Ebene 1
370
    40
 62
     0
100
AcDbSpline
210
0.0
220
0.0
230
1.0
 70
     0
 71
     3
 72
     8
 73
     4
 74
     0
 42
0.0000000001
 43
0.0000000001
 40
0.0
 40
0.0
 40
0.0
 40
0.0
 40
1.0
 40
1.0
 40
1.0
 40
1.0
 10
69.415599999999998
 20
-4.3367000000000004
 30
0.0
 10
69.415599999999998
 20
-4.3367000000000004
 30
0.0
 10
72.304400000000001
 20
-4.3367000000000004
 30
0.0
 10
72.304400000000001
 20
-4.3367000000000004
 30
0.0
  0
SPLINE
  5
9E
100
AcDbEntity
  8
Ebene 1
370
    40
 62
     0
100
AcDbSpline
210
0.0
220
0.0
230
1.0
 70
     0
 71
     3
 72
     8
 73
     4
 74
     0
 42
0.0000000001
 43
0.0000000001
 40
0.0
 40
0.0
 40
0.0
 40
0.0
 40
1.0
 40
1.0
 40
1.0
 40
1.0
 10
64.974199999999996
 20
-7.2845000000000004
 30
0.0
 10
64.974199999999996
 20
-7.2845000000000004
 30
0.0
 10
67.843400000000003
 20
-7.2845000000000004
 30
0.0
 10
67.843400000000003
 20
-7.2845000000000004
 30
0.0
  0
SPLINE
  5
9F
100
AcDbEntity
  8
Ebene 1
370
    40
 62
     0
100
AcDbSpline
210
0.0
220
0.0
230
1.0
 70
     0
 71
     3
 72
     8
 73
     4
 74
     0
 42
0.0000000001
 43
0.0000000001
 40
0.0
 40
0.0
 40
0.0
 40
0.0
 40
1.0
 40
1.0
 40
1.0
 40
1.0
 10
67.843400000000003
 20
-4.3367000000000004
 30
0.0
 10
67.843400000000003
 20
-4.3367000000000004
 30
0.0
 10
67.843400000000003
 20
-7.2845000000000004
 30
0.0
 10
67.843400000000003
 20
-7.2845000000000004
 30
0.0
  0
SPLINE
  5
A0
100
AcDbEntity
  8
Ebene 1
370
    40
 62
     0
100
AcDbSpline
210
0.0
220
0.0
230
1.0
 70
     0
 71
     3
 72
     8
 73
     4
 74
     0
 42
0.0000000001
 43
0.0000000001
 40
0.0
 40
0.0
 40
0.0
 40
0.0
 40
1.0
 40
1.0
 40
1.0
 40
1.0
 10
64.974199999999996
 20
-4.3367000000000004
 30
0.0
 10
64.974199999999996
 20
-4.3367000000000004
 30
0.0
 10
64.974199999999996
 20
-7.2845000000000004
 30
0.0
 10
64.974199999999996
 20
-7.2845000000000004
 30
0.0
  0
SPLINE
  5
A1
100
AcDbEntity
  8
Ebene 1
370
    40
 62
     0
100
AcDbSpline
210
0.0
220
0.0
230
1.0
 70
     0
 71
     3
 72
     8
 73
     4
 74
     0
 42
0.0000000001
 43
0.0000000001
 40
0.0
 40
0.0
 40
0.0
 40
0.0
 40
1.0
 40
1.0
 40
1.0
 40
1.0
 10
64.974199999999996
 20
-4.3367000000000004
 30
0.0
 10
64.974199999999996
 20
-4.3367000000000004
 30
0.0
 10
67.843400000000003
 20
-4.3367000000000004
 30
0.0
 10
67.843400000000003
 20
-4.3367000000000004
 30
0.0
  0
SPLINE
  5
A2
100
AcDbEntity
  8
Ebene 1
370
    40
 62
     0
100
AcDbSpline
210
0.0
220
0.0
230
1.0
 70
     0
 71
     3
 72
     8
 73
     4
 74
     0
 42
0.0000000001
 43
0.0000000001
 40
0.0
 40
0.0
 40
0.0
 40
0.0
 40
1.0
 40
1.0
 40
1.0
 40
1.0
 10
60.513200000000005
 20
-7.2845000000000004
 30
0.0
 10
60.513200000000005
 20
-7.2845000000000004
 30
0.0
 10
63.402000000000001
 20
-7.2845000000000004
 30
0.0
 10
63.402000000000001
 20
-7.2845000000000004
 30
0.0
  0
SPLINE
  5
A3
100
AcDbEntity
  8
Ebene 1
370
    40
 62
     0
100
AcDbSpline
210
0.0
220
0.0
230
1.0
 70
     0
 71
     3
 72
     8
 73
     4
 74
     0
 42
0.0000000001
 43
0.0000000001
 40
0.0
 40
0.0
 40
0.0
 40
0.0
 40
1.0
 40
1.0
 40
1.0
 40
1.0
 10
60.513200000000005
 20
-7.2845000000000004
 30
0.0
 10
60.513200000000005
 20
-7.2845000000000004
 30
0.0
 10
60.513200000000005
 20
-4.3367000000000004
 30
0.0
 10
60.513200000000005
 20
-4.3367000000000004
 30
0.0
  0
SPLINE
  5
A4
100
AcDbEntity
  8
Ebene 1
370
    40
 62
     0
100
AcDbSpline
210
0.0
220
0.0
230
1.0
 70
     0
 71
     3
 72
     8
 73
     4
 74
     0
 42
0.0000000001
 43
0.0000000001
 40
0.0
 40
0.0
 40
0.0
 40
0.0
 40
1.0
 40
1.0
 40
1.0
 40
1.0
 10
63.402000000000001
 20
-7.2845000000000004
 30
0.0
 10
63.402000000000001
 20
-7.2845000000000004
 30
0.0
 10
63.402000000000001
 20
-4.3367000000000004
 30
0.0
 10
63.402000000000001
 20
-4.3367000000000004
 30
0.0
  0
SPLINE
  5
A5
100
AcDbEntity
  8
Ebene 1
370
    40
 62
     0
100
AcDbSpline
210
0.0
220
0.0
230
1.0
 70
     0
 71
     3
 72
     8
 73
     4
 74
     0
 42
0.0000000001
 43
0.0000000001
 40
0.0
 40
0.0
 40
0.0
 40
0.0
 40
1.0
 40
1.0
 40
1.0
 40
1.0
 10
60.513200000000005
 20
-4.3367000000000004
 30
0.0
 10
60.513200000000005
 20
-4.3367000000000004
 30
0.0
 10
63.402000000000001
 20
-4.3367000000000004
 30
0.0
 10
63.402000000000001
 20
-4.3367000000000004
 30
0.0
  0
SPLINE
  5
A6
100
AcDbEntity
  8
Ebene 1
370
    40
 62
     0
100
AcDbSpline
210
0.0
220
0.0
230
1.0
 70
     0
 71
     3
 72
     8
 73
     4
 74
     0
 42
0.0000000001
 43
0.0000000001
 40
0.0
 40
0.0
 40
0.0
 40
0.0
 40
1.0
 40
1.0
 40
1.0
 40
1.0
 10
51.610900000000001
 20
-2.8431000000000002
 30
0.0
 10
51.610900000000001
 20
-2.8431000000000002
 30
0.0
 10
54.480000000000004
 20
-2.8431000000000002
 30
0.0
 10
54.480000000000004
 20
-2.8431000000000002
 30
0.0
  0
SPLINE
  5
A7
100
AcDbEntity
  8
Ebene 1
370
    40
 62
     0
100
AcDbSpline
210
0.0
220
0.0
230
1.0
 70
     0
 71
     3
 72
     8
 73
     4
 74
     0
 42
0.0000000001
 43
0.0000000001
 40
0.0
 40
0.0
 40
0.0
 40
0.0
 40
1.0
 40
1.0
 40
1.0
 40
1.0
 10
51.610900000000001
 20
-2.8431000000000002
 30
0.0
 10
51.610900000000001
 20
-2.8431000000000002
 30
0.0
 10
51.610900000000001
 20
0.1047
 30
0.0
 10
51.610900000000001
 20
0.1047
 30
0.0
  0
SPLINE
  5
A8
100
AcDbEntity
  8
Ebene 1
370
    40
 62
     0
100
AcDbSpline
210
0.0
220
0.0
230
1.0
 70
     0
 71
     3
 72
     8
 73
     4
 74
     0
 42
0.0000000001
 43
0.0000000001
 40
0.0
 40
0.0
 40
0.0
 40
0.0
 40
1.0
 40
1.0
 40
1.0
 40
1.0
 10
54.480000000000004
 20
-2.8431000000000002
 30
0.0
 10
54.480000000000004
 20
-2.8431000000000002
 30
0.0
 10
54.480000000000004
 20
0.1047
 30
0.0
 10
54.480000000000004
 20
0.1047
 30
0.0
  0
SPLINE
  5
A9
100
AcDbEntity
  8
Ebene 1
370
    40
 62
     0
100
AcDbSpline
210
0.0
220
0.0
230
1.0
 70
     0
 71
     3
 72
     8
 73
     4
 74
     0
 42
0.0000000001
 43
0.0000000001
 40
0.0
 40
0.0
 40
0.0
 40
0.0
 40
1.0
 40
1.0
 40
1.0
 40
1.0
 10
51.610900000000001
 20
0.1047
 30
0.0
 10
51.610900000000001
 20
0.1047
 30
0.0
 10
54.480000000000004
 20
0.1047
 30
0.0
 10
54.480000000000004
 20
0.1047
 30
0.0
  0
SPLINE
  5
AA
100
AcDbEntity
  8
Ebene 1
370
    40
 62
     0
100
AcDbSpline
210
0.0
220
0.0
230
1.0
 70
     0
 71
     3
 72
     8
 73
     4
 74
     0
 42
0.0000000001
 43
0.0000000001
 40
0.0
 40
0.0
 40
0.0
 40
0.0
 40
1.0
 40
1.0
 40
1.0
 40
1.0
 10
56.052199999999999
 20
-2.8431000000000002
 30
0.0
 10
56.052199999999999
 20
-2.8431000000000002
 30
0.0
 10
58.941000000000003
 20
-2.8431000000000002
 30
0.0
 10
58.941000000000003
 20
-2.8431000000000002
 30
0.0
  0
SPLINE
  5
AB
100
AcDbEntity
  8
Ebene 1
370
    40
 62
     0
100
AcDbSpline
210
0.0
220
0.0
230
1.0
 70
     0
 71
     3
 72
     8
 73
     4
 74
     0
 42
0.0000000001
 43
0.0000000001
 40
0.0
 40
0.0
 40
0.0
 40
0.0
 40
1.0
 40
1.0
 40
1.0
 40
1.0
 10
60.513200000000005
 20
22.311400000000003
 30
0.0
 10
60.513200000000005
 20
22.311400000000003
 30
0.0
 10
60.513200000000005
 20
19.4422
 30
0.0
 10
60.513200000000005
 20
19.4422
 30
0.0
  0
SPLINE
  5
AC
100
AcDbEntity
  8
Ebene 1
370
    40
 62
     0
100
AcDbSpline
210
0.0
220
0.0
230
1.0
 70
     0
 71
     3
 72
     8
 73
     4
 74
     0
 42
0.0000000001
 43
0.0000000001
 40
0.0
 40
0.0
 40
0.0
 40
0.0
 40
1.0
 40
1.0
 40
1.0
 40
1.0
 10
63.402000000000001
 20
22.311400000000003
 30
0.0
 10
63.402000000000001
 20
22.311400000000003
 30
0.0
 10
63.402000000000001
 20
19.4422
 30
0.0
 10
63.402000000000001
 20
19.4422
 30
0.0
  0
SPLINE
  5
AD
100
AcDbEntity
  8
Ebene 1
370
    40
 62
     0
100
AcDbSpline
210
0.0
220
0.0
230
1.0
 70
     0
 71
     3
 72
     8
 73
     4
 74
     0
 42
0.0000000001
 43
0.0000000001
 40
0.0
 40
0.0
 40
0.0
 40
0.0
 40
1.0
 40
1.0
 40
1.0
 40
1.0
 10
60.513200000000005
 20
19.4422
 30
0.0
 10
60.513200000000005
 20
19.4422
 30
0.0
 10
63.402000000000001
 20
19.4422
 30
0.0
 10
63.402000000000001
 20
19.4422
 30
0.0
  0
SPLINE
  5
AE
100
AcDbEntity
  8
Ebene 1
370
    40
 62
     0
100
AcDbSpline
210
0.0
220
0.0
230
1.0
 70
     0
 71
     3
 72
     8
 73
     4
 74
     0
 42
0.0000000001
 43
0.0000000001
 40
0.0
 40
0.0
 40
0.0
 40
0.0
 40
1.0
 40
1.0
 40
1.0
 40
1.0
 10
51.610900000000001
 20
-7.2845000000000004
 30
0.0
 10
51.610900000000001
 20
-7.2845000000000004
 30
0.0
 10
54.480000000000004
 20
-7.2845000000000004
 30
0.0
 10
54.480000000000004
 20
-7.2845000000000004
 30
0.0
  0
SPLINE
  5
AF
100
AcDbEntity
  8
Ebene 1
370
    40
 62
     0
100
AcDbSpline
210
0.0
220
0.0
230
1.0
 70
     0
 71
     3
 72
     8
 73
     4
 74
     0
 42
0.0000000001
 43
0.0000000001
 40
0.0
 40
0.0
 40
0.0
 40
0.0
 40
1.0
 40
1.0
 40
1.0
 40
1.0
 10
51.610900000000001
 20
-7.2845000000000004
 30
0.0
 10
51.610900000000001
 20
-7.2845000000000004
 30
0.0
 10
51.610900000000001
 20
-4.3367000000000004
 30
0.0
 10
51.610900000000001
 20
-4.3367000000000004
 30
0.0
  0
SPLINE
  5
B0
100
AcDbEntity
  8
Ebene 1
370
    40
 62
     0
100
AcDbSpline
210
0.0
220
0.0
230
1.0
 70
     0
 71
     3
 72
     8
 73
     4
 74
     0
 42
0.0000000001
 43
0.0000000001
 40
0.0
 40
0.0
 40
0.0
 40
0.0
 40
1.0
 40
1.0
 40
1.0
 40
1.0
 10
54.480000000000004
 20
-7.2845000000000004
 30
0.0
 10
54.480000000000004
 20
-7.2845000000000004
 30
0.0
 10
54.480000000000004
 20
-4.3367000000000004
 30
0.0
 10
54.480000000000004
 20
-4.3367000000000004
 30
0.0
  0
SPLINE
  5
B1
100
AcDbEntity
  8
Ebene 1
370
    40
 62
     0
100
AcDbSpline
210
0.0
220
0.0
230
1.0
 70
     0
 71
     3
 72
     8
 73
     4
 74
     0
 42
0.0000000001
 43
0.0000000001
 40
0.0
 40
0.0
 40
0.0
 40
0.0
 40
1.0
 40
1.0
 40
1.0
 40
1.0
 10
51.610900000000001
 20
-4.3367000000000004
 30
0.0
 10
51.610900000000001
 20
-4.3367000000000004
 30
0.0
 10
54.480000000000004
 20
-4.3367000000000004
 30
0.0
 10
54.480000000000004
 20
-4.3367000000000004
 30
0.0
  0
SPLINE
  5
B2
100
AcDbEntity
  8
Ebene 1
370
    40
 62
     0
100
AcDbSpline
210
0.0
220
0.0
230
1.0
 70
     0
 71
     3
 72
     8
 73
     4
 74
     0
 42
0.0000000001
 43
0.0000000001
 40
0.0
 40
0.0
 40
0.0
 40
0.0
 40
1.0
 40
1.0
 40
1.0
 40
1.0
 10
56.052199999999999
 20
-7.2845000000000004
 30
0.0
 10
56.052199999999999
 20
-7.2845000000000004
 30
0.0
 10
58.941000000000003
 20
-7.2845000000000004
 30
0.0
 10
58.941000000000003
 20
-7.2845000000000004
 30
0.0
  0
SPLINE
  5
B3
100
AcDbEntity
  8
Ebene 1
370
    40
 62
     0
100
AcDbSpline
210
0.0
220
0.0
230
1.0
 70
     0
 71
     3
 72
     8
 73
     4
 74
     0
 42
0.0000000001
 43
0.0000000001
 40
0.0
 40
0.0
 40
0.0
 40
0.0
 40
1.0
 40
1.0
 40
1.0
 40
1.0
 10
56.052199999999999
 20
-7.2845000000000004
 30
0.0
 10
56.052199999999999
 20
-7.2845000000000004
 30
0.0
 10
56.052199999999999
 20
-4.3367000000000004
 30
0.0
 10
56.052199999999999
 20
-4.3367000000000004
 30
0.0
  0
SPLINE
  5
B4
100
AcDbEntity
  8
Ebene 1
370
    40
 62
     0
100
AcDbSpline
210
0.0
220
0.0
230
1.0
 70
     0
 71
     3
 72
     8
 73
     4
 74
     0
 42
0.0000000001
 43
0.0000000001
 40
0.0
 40
0.0
 40
0.0
 40
0.0
 40
1.0
 40
1.0
 40
1.0
 40
1.0
 10
58.941000000000003
 20
-7.2845000000000004
 30
0.0
 10
58.941000000000003
 20
-7.2845000000000004
 30
0.0
 10
58.941000000000003
 20
-4.3367000000000004
 30
0.0
 10
58.941000000000003
 20
-4.3367000000000004
 30
0.0
  0
SPLINE
  5
B5
100
AcDbEntity
  8
Ebene 1
370
    40
 62
     0
100
AcDbSpline
210
0.0
220
0.0
230
1.0
 70
     0
 71
     3
 72
     8
 73
     4
 74
     0
 42
0.0000000001
 43
0.0000000001
 40
0.0
 40
0.0
 40
0.0
 40
0.0
 40
1.0
 40
1.0
 40
1.0
 40
1.0
 10
56.052199999999999
 20
-4.3367000000000004
 30
0.0
 10
56.052199999999999
 20
-4.3367000000000004
 30
0.0
 10
58.941000000000003
 20
-4.3367000000000004
 30
0.0
 10
58.941000000000003
 20
-4.3367000000000004
 30
0.0
  0
SPLINE
  5
B6
100
AcDbEntity
  8
Ebene 1
370
    40
 62
     0
100
AcDbSpline
210
0.0
220
0.0
230
1.0
 70
     0
 71
     3
 72
     8
 73
     4
 74
     0
 42
0.0000000001
 43
0.0000000001
 40
0.0
 40
0.0
 40
0.0
 40
0.0
 40
1.0
 40
1.0
 40
1.0
 40
1.0
 10
73.87660000000001
 20
-7.2845000000000004
 30
0.0
 10
73.87660000000001
 20
-7.2845000000000004
 30
0.0
 10
76.7654
 20
-7.2845000000000004
 30
0.0
 10
76.7654
 20
-7.2845000000000004
 30
0.0
  0
SPLINE
  5
B7
100
AcDbEntity
  8
Ebene 1
370
    40
 62
     0
100
AcDbSpline
210
0.0
220
0.0
230
1.0
 70
     0
 71
     3
 72
     8
 73
     4
 74
     0
 42
0.0000000001
 43
0.0000000001
 40
0.0
 40
0.0
 40
0.0
 40
0.0
 40
1.0
 40
1.0
 40
1.0
 40
1.0
 10
76.7654
 20
-7.2845000000000004
 30
0.0
 10
76.7654
 20
-7.2845000000000004
 30
0.0
 10
76.7654
 20
-4.3367000000000004
 30
0.0
 10
76.7654
 20
-4.3367000000000004
 30
0.0
  0
SPLINE
  5
B8
100
AcDbEntity
  8
Ebene 1
370
    40
 62
     0
100
AcDbSpline
210
0.0
220
0.0
230
1.0
 70
     0
 71
     3
 72
     8
 73
     4
 74
     0
 42
0.0000000001
 43
0.0000000001
 40
0.0
 40
0.0
 40
0.0
 40
0.0
 40
1.0
 40
1.0
 40
1.0
 40
1.0
 10
73.87660000000001
 20
-7.2845000000000004
 30
0.0
 10
73.87660000000001
 20
-7.2845000000000004
 30
0.0
 10
73.87660000000001
 20
-4.3367000000000004
 30
0.0
 10
73.87660000000001
 20
-4.3367000000000004
 30
0.0
  0
SPLINE
  5
B9
100
AcDbEntity
  8
Ebene 1
370
    40
 62
     0
100
AcDbSpline
210
0.0
220
0.0
230
1.0
 70
     0
 71
     3
 72
     8
 73
     4
 74
     0
 42
0.0000000001
 43
0.0000000001
 40
0.0
 40
0.0
 40
0.0
 40
0.0
 40
1.0
 40
1.0
 40
1.0
 40
1.0
 10
73.87660000000001
 20
-4.3367000000000004
 30
0.0
 10
73.87660000000001
 20
-4.3367000000000004
 30
0.0
 10
76.7654
 20
-4.3367000000000004
 30
0.0
 10
76.7654
 20
-4.3367000000000004
 30
0.0
  0
SPLINE
  5
BA
100
AcDbEntity
  8
Ebene 1
370
    40
 62
     0
100
AcDbSpline
210
0.0
220
0.0
230
1.0
 70
     0
 71
     3
 72
     8
 73
     4
 74
     0
 42
0.0000000001
 43
0.0000000001
 40
0.0
 40
0.0
 40
0.0
 40
0.0
 40
1.0
 40
1.0
 40
1.0
 40
1.0
 10
69.415599999999998
 20
-7.2845000000000004
 30
0.0
 10
69.415599999999998
 20
-7.2845000000000004
 30
0.0
 10
72.304400000000001
 20
-7.2845000000000004
 30
0.0
 10
72.304400000000001
 20
-7.2845000000000004
 30
0.0
  0
SPLINE
  5
BB
100
AcDbEntity
  8
Ebene 1
370
    40
 62
     0
100
AcDbSpline
210
0.0
220
0.0
230
1.0
 70
     0
 71
     3
 72
     8
 73
     4
 74
     0
 42
0.0000000001
 43
0.0000000001
 40
0.0
 40
0.0
 40
0.0
 40
0.0
 40
1.0
 40
1.0
 40
1.0
 40
1.0
 10
56.052199999999999
 20
22.311400000000003
 30
0.0
 10
56.052199999999999
 20
22.311400000000003
 30
0.0
 10
56.052199999999999
 20
19.4422
 30
0.0
 10
56.052199999999999
 20
19.4422
 30
0.0
  0
SPLINE
  5
BC
100
AcDbEntity
  8
Ebene 1
370
    40
 62
     0
100
AcDbSpline
210
0.0
220
0.0
230
1.0
 70
     0
 71
     3
 72
     8
 73
     4
 74
     0
 42
0.0000000001
 43
0.0000000001
 40
0.0
 40
0.0
 40
0.0
 40
0.0
 40
1.0
 40
1.0
 40
1.0
 40
1.0
 10
58.941000000000003
 20
22.311400000000003
 30
0.0
 10
58.941000000000003
 20
22.311400000000003
 30
0.0
 10
58.941000000000003
 20
19.4422
 30
0.0
 10
58.941000000000003
 20
19.4422
 30
0.0
  0
SPLINE
  5
BD
100
AcDbEntity
  8
Ebene 1
370
    40
 62
     0
100
AcDbSpline
210
0.0
220
0.0
230
1.0
 70
     0
 71
     3
 72
     8
 73
     4
 74
     0
 42
0.0000000001
 43
0.0000000001
 40
0.0
 40
0.0
 40
0.0
 40
0.0
 40
1.0
 40
1.0
 40
1.0
 40
1.0
 10
56.052199999999999
 20
19.4422
 30
0.0
 10
56.052199999999999
 20
19.4422
 30
0.0
 10
58.941000000000003
 20
19.4422
 30
0.0
 10
58.941000000000003
 20
19.4422
 30
0.0
  0
SPLINE
  5
BE
100
AcDbEntity
  8
Ebene 1
370
    40
 62
     0
100
AcDbSpline
210
0.0
220
0.0
230
1.0
 70
     0
 71
     3
 72
     8
 73
     4
 74
     0
 42
0.0000000001
 43
0.0000000001
 40
0.0
 40
0.0
 40
0.0
 40
0.0
 40
1.0
 40
1.0
 40
1.0
 40
1.0
 10
73.87660000000001
 20
22.311400000000003
 30
0.0
 10
73.87660000000001
 20
22.311400000000003
 30
0.0
 10
76.7654
 20
22.311400000000003
 30
0.0
 10
76.7654
 20
22.311400000000003
 30
0.0
  0
SPLINE
  5
BF
100
AcDbEntity
  8
Ebene 1
370
    40
 62
     0
100
AcDbSpline
210
0.0
220
0.0
230
1.0
 70
     0
 71
     3
 72
     8
 73
     4
 74
     0
 42
0.0000000001
 43
0.0000000001
 40
0.0
 40
0.0
 40
0.0
 40
0.0
 40
1.0
 40
1.0
 40
1.0
 40
1.0
 10
76.7654
 20
22.311400000000003
 30
0.0
 10
76.7654
 20
22.311400000000003
 30
0.0
 10
76.7654
 20
19.4422
 30
0.0
 10
76.7654
 20
19.4422
 30
0.0
  0
SPLINE
  5
C0
100
AcDbEntity
  8
Ebene 1
370
    40
 62
     0
100
AcDbSpline
210
0.0
220
0.0
230
1.0
 70
     0
 71
     3
 72
     8
 73
     4
 74
     0
 42
0.0000000001
 43
0.0000000001
 40
0.0
 40
0.0
 40
0.0
 40
0.0
 40
1.0
 40
1.0
 40
1.0
 40
1.0
 10
73.87660000000001
 20
22.311400000000003
 30
0.0
 10
73.87660000000001
 20
22.311400000000003
 30
0.0
 10
73.87660000000001
 20
19.4422
 30
0.0
 10
73.87660000000001
 20
19.4422
 30
0.0
  0
SPLINE
  5
C1
100
AcDbEntity
  8
Ebene 1
370
    40
 62
     0
100
AcDbSpline
210
0.0
220
0.0
230
1.0
 70
     0
 71
     3
 72
     8
 73
     4
 74
     0
 42
0.0000000001
 43
0.0000000001
 40
0.0
 40
0.0
 40
0.0
 40
0.0
 40
1.0
 40
1.0
 40
1.0
 40
1.0
 10
73.87660000000001
 20
19.4422
 30
0.0
 10
73.87660000000001
 20
19.4422
 30
0.0
 10
76.7654
 20
19.4422
 30
0.0
 10
76.7654
 20
19.4422
 30
0.0
  0
SPLINE
  5
C2
100
AcDbEntity
  8
Ebene 1
370
    40
 62
     0
100
AcDbSpline
210
0.0
220
0.0
230
1.0
 70
     0
 71
     3
 72
     8
 73
     4
 74
     0
 42
0.0000000001
 43
0.0000000001
 40
0.0
 40
0.0
 40
0.0
 40
0.0
 40
1.0
 40
1.0
 40
1.0
 40
1.0
 10
69.415599999999998
 20
22.311400000000003
 30
0.0
 10
69.415599999999998
 20
22.311400000000003
 30
0.0
 10
72.304400000000001
 20
22.311400000000003
 30
0.0
 10
72.304400000000001
 20
22.311400000000003
 30
0.0
  0
SPLINE
  5
C3
100
AcDbEntity
  8
Ebene 1
370
    40
 62
     0
100
AcDbSpline
210
0.0
220
0.0
230
1.0
 70
     0
 71
     3
 72
     8
 73
     4
 74
     0
 42
0.0000000001
 43
0.0000000001
 40
0.0
 40
0.0
 40
0.0
 40
0.0
 40
1.0
 40
1.0
 40
1.0
 40
1.0
 10
72.304400000000001
 20
19.4422
 30
0.0
 10
72.304400000000001
 20
19.4422
 30
0.0
 10
72.304400000000001
 20
22.311400000000003
 30
0.0
 10
72.304400000000001
 20
22.311400000000003
 30
0.0
  0
SPLINE
  5
C4
100
AcDbEntity
  8
Ebene 1
370
    40
 62
     0
100
AcDbSpline
210
0.0
220
0.0
230
1.0
 70
     0
 71
     3
 72
     8
 73
     4
 74
     0
 42
0.0000000001
 43
0.0000000001
 40
0.0
 40
0.0
 40
0.0
 40
0.0
 40
1.0
 40
1.0
 40
1.0
 40
1.0
 10
69.415599999999998
 20
19.4422
 30
0.0
 10
69.415599999999998
 20
19.4422
 30
0.0
 10
69.415599999999998
 20
22.311400000000003
 30
0.0
 10
69.415599999999998
 20
22.311400000000003
 30
0.0
  0
SPLINE
  5
C5
100
AcDbEntity
  8
Ebene 1
370
    40
 62
     0
100
AcDbSpline
210
0.0
220
0.0
230
1.0
 70
     0
 71
     3
 72
     8
 73
     4
 74
     0
 42
0.0000000001
 43
0.0000000001
 40
0.0
 40
0.0
 40
0.0
 40
0.0
 40
1.0
 40
1.0
 40
1.0
 40
1.0
 10
69.415599999999998
 20
19.4422
 30
0.0
 10
69.415599999999998
 20
19.4422
 30
0.0
 10
72.304400000000001
 20
19.4422
 30
0.0
 10
72.304400000000001
 20
19.4422
 30
0.0
  0
SPLINE
  5
C6
100
AcDbEntity
  8
Ebene 1
370
    40
 62
     0
100
AcDbSpline
210
0.0
220
0.0
230
1.0
 70
     0
 71
     3
 72
     8
 73
     4
 74
     0
 42
0.0000000001
 43
0.0000000001
 40
0.0
 40
0.0
 40
0.0
 40
0.0
 40
1.0
 40
1.0
 40
1.0
 40
1.0
 10
64.974199999999996
 20
22.311400000000003
 30
0.0
 10
64.974199999999996
 20
22.311400000000003
 30
0.0
 10
67.843400000000003
 20
22.311400000000003
 30
0.0
 10
67.843400000000003
 20
22.311400000000003
 30
0.0
  0
SPLINE
  5
C7
100
AcDbEntity
  8
Ebene 1
370
    40
 62
     0
100
AcDbSpline
210
0.0
220
0.0
230
1.0
 70
     0
 71
     3
 72
     8
 73
     4
 74
     0
 42
0.0000000001
 43
0.0000000001
 40
0.0
 40
0.0
 40
0.0
 40
0.0
 40
1.0
 40
1.0
 40
1.0
 40
1.0
 10
67.843400000000003
 20
19.4422
 30
0.0
 10
67.843400000000003
 20
19.4422
 30
0.0
 10
67.843400000000003
 20
22.311400000000003
 30
0.0
 10
67.843400000000003
 20
22.311400000000003
 30
0.0
  0
SPLINE
  5
C8
100
AcDbEntity
  8
Ebene 1
370
    40
 62
     0
100
AcDbSpline
210
0.0
220
0.0
230
1.0
 70
     0
 71
     3
 72
     8
 73
     4
 74
     0
 42
0.0000000001
 43
0.0000000001
 40
0.0
 40
0.0
 40
0.0
 40
0.0
 40
1.0
 40
1.0
 40
1.0
 40
1.0
 10
64.974199999999996
 20
19.4422
 30
0.0
 10
64.974199999999996
 20
19.4422
 30
0.0
 10
64.974199999999996
 20
22.311400000000003
 30
0.0
 10
64.974199999999996
 20
22.311400000000003
 30
0.0
  0
SPLINE
  5
C9
100
AcDbEntity
  8
Ebene 1
370
    40
 62
     0
100
AcDbSpline
210
0.0
220
0.0
230
1.0
 70
     0
 71
     3
 72
     8
 73
     4
 74
     0
 42
0.0000000001
 43
0.0000000001
 40
0.0
 40
0.0
 40
0.0
 40
0.0
 40
1.0
 40
1.0
 40
1.0
 40
1.0
 10
64.974199999999996
 20
19.4422
 30
0.0
 10
64.974199999999996
 20
19.4422
 30
0.0
 10
67.843400000000003
 20
19.4422
 30
0.0
 10
67.843400000000003
 20
19.4422
 30
0.0
  0
SPLINE
  5
CA
100
AcDbEntity
  8
Ebene 1
370
    40
 62
     0
100
AcDbSpline
210
0.0
220
0.0
230
1.0
 70
     0
 71
     3
 72
     8
 73
     4
 74
     0
 42
0.0000000001
 43
0.0000000001
 40
0.0
 40
0.0
 40
0.0
 40
0.0
 40
1.0
 40
1.0
 40
1.0
 40
1.0
 10
60.513200000000005
 20
22.311400000000003
 30
0.0
 10
60.513200000000005
 20
22.311400000000003
 30
0.0
 10
63.402000000000001
 20
22.311400000000003
 30
0.0
 10
63.402000000000001
 20
22.311400000000003
 30
0.0
  0
SPLINE
  5
CB
100
AcDbEntity
  8
Ebene 1
370
    40
 62
     0
100
AcDbSpline
210
0.0
220
0.0
230
1.0
 70
     0
 71
     3
 72
     8
 73
     4
 74
     0
 42
0.0000000001
 43
0.0000000001
 40
0.0
 40
0.0
 40
0.0
 40
0.0
 40
1.0
 40
1.0
 40
1.0
 40
1.0
 10
72.304400000000001
 20
-8.7977000000000007
 30
0.0
 10
72.304400000000001
 20
-8.7977000000000007
 30
0.0
 10
72.304400000000001
 20
-11.7455
 30
0.0
 10
72.304400000000001
 20
-11.7455
 30
0.0
  0
SPLINE
  5
CC
100
AcDbEntity
  8
Ebene 1
370
    40
 62
     0
100
AcDbSpline
210
0.0
220
0.0
230
1.0
 70
     0
 71
     3
 72
     8
 73
     4
 74
     0
 42
0.0000000001
 43
0.0000000001
 40
0.0
 40
0.0
 40
0.0
 40
0.0
 40
1.0
 40
1.0
 40
1.0
 40
1.0
 10
69.415599999999998
 20
-8.7977000000000007
 30
0.0
 10
69.415599999999998
 20
-8.7977000000000007
 30
0.0
 10
69.415599999999998
 20
-11.7455
 30
0.0
 10
69.415599999999998
 20
-11.7455
 30
0.0
  0
SPLINE
  5
CD
100
AcDbEntity
  8
Ebene 1
370
    40
 62
     0
100
AcDbSpline
210
0.0
220
0.0
230
1.0
 70
     0
 71
     3
 72
     8
 73
     4
 74
     0
 42
0.0000000001
 43
0.0000000001
 40
0.0
 40
0.0
 40
0.0
 40
0.0
 40
1.0
 40
1.0
 40
1.0
 40
1.0
 10
69.415599999999998
 20
-8.7977000000000007
 30
0.0
 10
69.415599999999998
 20
-8.7977000000000007
 30
0.0
 10
72.304400000000001
 20
-8.7977000000000007
 30
0.0
 10
72.304400000000001
 20
-8.7977000000000007
 30
0.0
  0
SPLINE
  5
CE
100
AcDbEntity
  8
Ebene 1
370
    40
 62
     0
100
AcDbSpline
210
0.0
220
0.0
230
1.0
 70
     0
 71
     3
 72
     8
 73
     4
 74
     0
 42
0.0000000001
 43
0.0000000001
 40
0.0
 40
0.0
 40
0.0
 40
0.0
 40
1.0
 40
1.0
 40
1.0
 40
1.0
 10
64.974199999999996
 20
-11.7455
 30
0.0
 10
64.974199999999996
 20
-11.7455
 30
0.0
 10
67.843400000000003
 20
-11.7455
 30
0.0
 10
67.843400000000003
 20
-11.7455
 30
0.0
  0
SPLINE
  5
CF
100
AcDbEntity
  8
Ebene 1
370
    40
 62
     0
100
AcDbSpline
210
0.0
220
0.0
230
1.0
 70
     0
 71
     3
 72
     8
 73
     4
 74
     0
 42
0.0000000001
 43
0.0000000001
 40
0.0
 40
0.0
 40
0.0
 40
0.0
 40
1.0
 40
1.0
 40
1.0
 40
1.0
 10
67.843400000000003
 20
-8.7977000000000007
 30
0.0
 10
67.843400000000003
 20
-8.7977000000000007
 30
0.0
 10
67.843400000000003
 20
-11.7455
 30
0.0
 10
67.843400000000003
 20
-11.7455
 30
0.0
  0
SPLINE
  5
D0
100
AcDbEntity
  8
Ebene 1
370
    40
 62
     0
100
AcDbSpline
210
0.0
220
0.0
230
1.0
 70
     0
 71
     3
 72
     8
 73
     4
 74
     0
 42
0.0000000001
 43
0.0000000001
 40
0.0
 40
0.0
 40
0.0
 40
0.0
 40
1.0
 40
1.0
 40
1.0
 40
1.0
 10
64.974199999999996
 20
-8.7977000000000007
 30
0.0
 10
64.974199999999996
 20
-8.7977000000000007
 30
0.0
 10
64.974199999999996
 20
-11.7455
 30
0.0
 10
64.974199999999996
 20
-11.7455
 30
0.0
  0
SPLINE
  5
D1
100
AcDbEntity
  8
Ebene 1
370
    40
 62
     0
100
AcDbSpline
210
0.0
220
0.0
230
1.0
 70
     0
 71
     3
 72
     8
 73
     4
 74
     0
 42
0.0000000001
 43
0.0000000001
 40
0.0
 40
0.0
 40
0.0
 40
0.0
 40
1.0
 40
1.0
 40
1.0
 40
1.0
 10
64.974199999999996
 20
-8.7977000000000007
 30
0.0
 10
64.974199999999996
 20
-8.7977000000000007
 30
0.0
 10
67.843400000000003
 20
-8.7977000000000007
 30
0.0
 10
67.843400000000003
 20
-8.7977000000000007
 30
0.0
  0
SPLINE
  5
D2
100
AcDbEntity
  8
Ebene 1
370
    40
 62
     0
100
AcDbSpline
210
0.0
220
0.0
230
1.0
 70
     0
 71
     3
 72
     8
 73
     4
 74
     0
 42
0.0000000001
 43
0.0000000001
 40
0.0
 40
0.0
 40
0.0
 40
0.0
 40
1.0
 40
1.0
 40
1.0
 40
1.0
 10
60.513200000000005
 20
-11.7455
 30
0.0
 10
60.513200000000005
 20
-11.7455
 30
0.0
 10
63.402000000000001
 20
-11.7455
 30
0.0
 10
63.402000000000001
 20
-11.7455
 30
0.0
  0
SPLINE
  5
D3
100
AcDbEntity
  8
Ebene 1
370
    40
 62
     0
100
AcDbSpline
210
0.0
220
0.0
230
1.0
 70
     0
 71
     3
 72
     8
 73
     4
 74
     0
 42
0.0000000001
 43
0.0000000001
 40
0.0
 40
0.0
 40
0.0
 40
0.0
 40
1.0
 40
1.0
 40
1.0
 40
1.0
 10
60.513200000000005
 20
-11.7455
 30
0.0
 10
60.513200000000005
 20
-11.7455
 30
0.0
 10
60.513200000000005
 20
-8.7977000000000007
 30
0.0
 10
60.513200000000005
 20
-8.7977000000000007
 30
0.0
  0
SPLINE
  5
D4
100
AcDbEntity
  8
Ebene 1
370
    40
 62
     0
100
AcDbSpline
210
0.0
220
0.0
230
1.0
 70
     0
 71
     3
 72
     8
 73
     4
 74
     0
 42
0.0000000001
 43
0.0000000001
 40
0.0
 40
0.0
 40
0.0
 40
0.0
 40
1.0
 40
1.0
 40
1.0
 40
1.0
 10
63.402000000000001
 20
-11.7455
 30
0.0
 10
63.402000000000001
 20
-11.7455
 30
0.0
 10
63.402000000000001
 20
-8.7977000000000007
 30
0.0
 10
63.402000000000001
 20
-8.7977000000000007
 30
0.0
  0
SPLINE
  5
D5
100
AcDbEntity
  8
Ebene 1
370
    40
 62
     0
100
AcDbSpline
210
0.0
220
0.0
230
1.0
 70
     0
 71
     3
 72
     8
 73
     4
 74
     0
 42
0.0000000001
 43
0.0000000001
 40
0.0
 40
0.0
 40
0.0
 40
0.0
 40
1.0
 40
1.0
 40
1.0
 40
1.0
 10
60.513200000000005
 20
-8.7977000000000007
 30
0.0
 10
60.513200000000005
 20
-8.7977000000000007
 30
0.0
 10
63.402000000000001
 20
-8.7977000000000007
 30
0.0
 10
63.402000000000001
 20
-8.7977000000000007
 30
0.0
  0
SPLINE
  5
D6
100
AcDbEntity
  8
Ebene 1
370
    40
 62
     0
100
AcDbSpline
210
0.0
220
0.0
230
1.0
 70
     0
 71
     3
 72
     8
 73
     4
 74
     0
 42
0.0000000001
 43
0.0000000001
 40
0.0
 40
0.0
 40
0.0
 40
0.0
 40
1.0
 40
1.0
 40
1.0
 40
1.0
 10
51.610900000000001
 20
22.311400000000003
 30
0.0
 10
51.610900000000001
 20
22.311400000000003
 30
0.0
 10
54.480000000000004
 20
22.311400000000003
 30
0.0
 10
54.480000000000004
 20
22.311400000000003
 30
0.0
  0
SPLINE
  5
D7
100
AcDbEntity
  8
Ebene 1
370
    40
 62
     0
100
AcDbSpline
210
0.0
220
0.0
230
1.0
 70
     0
 71
     3
 72
     8
 73
     4
 74
     0
 42
0.0000000001
 43
0.0000000001
 40
0.0
 40
0.0
 40
0.0
 40
0.0
 40
1.0
 40
1.0
 40
1.0
 40
1.0
 10
51.610900000000001
 20
22.311400000000003
 30
0.0
 10
51.610900000000001
 20
22.311400000000003
 30
0.0
 10
51.610900000000001
 20
19.4422
 30
0.0
 10
51.610900000000001
 20
19.4422
 30
0.0
  0
SPLINE
  5
D8
100
AcDbEntity
  8
Ebene 1
370
    40
 62
     0
100
AcDbSpline
210
0.0
220
0.0
230
1.0
 70
     0
 71
     3
 72
     8
 73
     4
 74
     0
 42
0.0000000001
 43
0.0000000001
 40
0.0
 40
0.0
 40
0.0
 40
0.0
 40
1.0
 40
1.0
 40
1.0
 40
1.0
 10
54.480000000000004
 20
22.311400000000003
 30
0.0
 10
54.480000000000004
 20
22.311400000000003
 30
0.0
 10
54.480000000000004
 20
19.4422
 30
0.0
 10
54.480000000000004
 20
19.4422
 30
0.0
  0
SPLINE
  5
D9
100
AcDbEntity
  8
Ebene 1
370
    40
 62
     0
100
AcDbSpline
210
0.0
220
0.0
230
1.0
 70
     0
 71
     3
 72
     8
 73
     4
 74
     0
 42
0.0000000001
 43
0.0000000001
 40
0.0
 40
0.0
 40
0.0
 40
0.0
 40
1.0
 40
1.0
 40
1.0
 40
1.0
 10
51.610900000000001
 20
19.4422
 30
0.0
 10
51.610900000000001
 20
19.4422
 30
0.0
 10
54.480000000000004
 20
19.4422
 30
0.0
 10
54.480000000000004
 20
19.4422
 30
0.0
  0
SPLINE
  5
DA
100
AcDbEntity
  8
Ebene 1
370
    40
 62
     0
100
AcDbSpline
210
0.0
220
0.0
230
1.0
 70
     0
 71
     3
 72
     8
 73
     4
 74
     0
 42
0.0000000001
 43
0.0000000001
 40
0.0
 40
0.0
 40
0.0
 40
0.0
 40
1.0
 40
1.0
 40
1.0
 40
1.0
 10
56.052199999999999
 20
22.311400000000003
 30
0.0
 10
56.052199999999999
 20
22.311400000000003
 30
0.0
 10
58.941000000000003
 20
22.311400000000003
 30
0.0
 10
58.941000000000003
 20
22.311400000000003
 30
0.0
  0
SPLINE
  5
DB
100
AcDbEntity
  8
Ebene 1
370
    40
 62
     0
100
AcDbSpline
210
0.0
220
0.0
230
1.0
 70
     0
 71
     3
 72
     8
 73
     4
 74
     0
 42
0.0000000001
 43
0.0000000001
 40
0.0
 40
0.0
 40
0.0
 40
0.0
 40
1.0
 40
1.0
 40
1.0
 40
1.0
 10
56.052199999999999
 20
-11.7455
 30
0.0
 10
56.052199999999999
 20
-11.7455
 30
0.0
 10
58.941000000000003
 20
-11.7455
 30
0.0
 10
58.941000000000003
 20
-11.7455
 30
0.0
  0
SPLINE
  5
DC
100
AcDbEntity
  8
Ebene 1
370
    40
 62
     0
100
AcDbSpline
210
0.0
220
0.0
230
1.0
 70
     0
 71
     3
 72
     8
 73
     4
 74
     0
 42
0.0000000001
 43
0.0000000001
 40
0.0
 40
0.0
 40
0.0
 40
0.0
 40
1.0
 40
1.0
 40
1.0
 40
1.0
 10
56.052199999999999
 20
-11.7455
 30
0.0
 10
56.052199999999999
 20
-11.7455
 30
0.0
 10
56.052199999999999
 20
-8.7977000000000007
 30
0.0
 10
56.052199999999999
 20
-8.7977000000000007
 30
0.0
  0
SPLINE
  5
DD
100
AcDbEntity
  8
Ebene 1
370
    40
 62
     0
100
AcDbSpline
210
0.0
220
0.0
230
1.0
 70
     0
 71
     3
 72
     8
 73
     4
 74
     0
 42
0.0000000001
 43
0.0000000001
 40
0.0
 40
0.0
 40
0.0
 40
0.0
 40
1.0
 40
1.0
 40
1.0
 40
1.0
 10
81.206699999999998
 20
8.9480000000000004
 30
0.0
 10
81.206699999999998
 20
8.9480000000000004
 30
0.0
 10
81.206699999999998
 20
6.0789
 30
0.0
 10
81.206699999999998
 20
6.0789
 30
0.0
  0
SPLINE
  5
DE
100
AcDbEntity
  8
Ebene 1
370
    40
 62
     0
100
AcDbSpline
210
0.0
220
0.0
230
1.0
 70
     0
 71
     3
 72
     8
 73
     4
 74
     0
 42
0.0000000001
 43
0.0000000001
 40
0.0
 40
0.0
 40
0.0
 40
0.0
 40
1.0
 40
1.0
 40
1.0
 40
1.0
 10
78.337500000000006
 20
8.9480000000000004
 30
0.0
 10
78.337500000000006
 20
8.9480000000000004
 30
0.0
 10
78.337500000000006
 20
6.0789
 30
0.0
 10
78.337500000000006
 20
6.0789
 30
0.0
  0
SPLINE
  5
DF
100
AcDbEntity
  8
Ebene 1
370
    40
 62
     0
100
AcDbSpline
210
0.0
220
0.0
230
1.0
 70
     0
 71
     3
 72
     8
 73
     4
 74
     0
 42
0.0000000001
 43
0.0000000001
 40
0.0
 40
0.0
 40
0.0
 40
0.0
 40
1.0
 40
1.0
 40
1.0
 40
1.0
 10
78.337500000000006
 20
6.0789
 30
0.0
 10
78.337500000000006
 20
6.0789
 30
0.0
 10
81.206699999999998
 20
6.0789
 30
0.0
 10
81.206699999999998
 20
6.0789
 30
0.0
  0
SPLINE
  5
E0
100
AcDbEntity
  8
Ebene 1
370
    40
 62
     0
100
AcDbSpline
210
0.0
220
0.0
230
1.0
 70
     0
 71
     3
 72
     8
 73
     4
 74
     0
 42
0.0000000001
 43
0.0000000001
 40
0.0
 40
0.0
 40
0.0
 40
0.0
 40
1.0
 40
1.0
 40
1.0
 40
1.0
 10
51.610900000000001
 20
-11.7455
 30
0.0
 10
51.610900000000001
 20
-11.7455
 30
0.0
 10
54.480000000000004
 20
-11.7455
 30
0.0
 10
54.480000000000004
 20
-11.7455
 30
0.0
  0
SPLINE
  5
E1
100
AcDbEntity
  8
Ebene 1
370
    40
 62
     0
100
AcDbSpline
210
0.0
220
0.0
230
1.0
 70
     0
 71
     3
 72
     8
 73
     4
 74
     0
 42
0.0000000001
 43
0.0000000001
 40
0.0
 40
0.0
 40
0.0
 40
0.0
 40
1.0
 40
1.0
 40
1.0
 40
1.0
 10
51.610900000000001
 20
-11.7455
 30
0.0
 10
51.610900000000001
 20
-11.7455
 30
0.0
 10
51.610900000000001
 20
-8.7977000000000007
 30
0.0
 10
51.610900000000001
 20
-8.7977000000000007
 30
0.0
  0
SPLINE
  5
E2
100
AcDbEntity
  8
Ebene 1
370
    40
 62
     0
100
AcDbSpline
210
0.0
220
0.0
230
1.0
 70
     0
 71
     3
 72
     8
 73
     4
 74
     0
 42
0.0000000001
 43
0.0000000001
 40
0.0
 40
0.0
 40
0.0
 40
0.0
 40
1.0
 40
1.0
 40
1.0
 40
1.0
 10
54.480000000000004
 20
-11.7455
 30
0.0
 10
54.480000000000004
 20
-11.7455
 30
0.0
 10
54.480000000000004
 20
-8.7977000000000007
 30
0.0
 10
54.480000000000004
 20
-8.7977000000000007
 30
0.0
  0
SPLINE
  5
E3
100
AcDbEntity
  8
Ebene 1
370
    40
 62
     0
100
AcDbSpline
210
0.0
220
0.0
230
1.0
 70
     0
 71
     3
 72
     8
 73
     4
 74
     0
 42
0.0000000001
 43
0.0000000001
 40
0.0
 40
0.0
 40
0.0
 40
0.0
 40
1.0
 40
1.0
 40
1.0
 40
1.0
 10
51.610900000000001
 20
-8.7977000000000007
 30
0.0
 10
51.610900000000001
 20
-8.7977000000000007
 30
0.0
 10
54.480000000000004
 20
-8.7977000000000007
 30
0.0
 10
54.480000000000004
 20
-8.7977000000000007
 30
0.0
  0
SPLINE
  5
E4
100
AcDbEntity
  8
Ebene 1
370
    40
 62
     0
100
AcDbSpline
210
0.0
220
0.0
230
1.0
 70
     0
 71
     3
 72
     8
 73
     4
 74
     0
 42
0.0000000001
 43
0.0000000001
 40
0.0
 40
0.0
 40
0.0
 40
0.0
 40
1.0
 40
1.0
 40
1.0
 40
1.0
 10
58.941000000000003
 20
-11.7455
 30
0.0
 10
58.941000000000003
 20
-11.7455
 30
0.0
 10
58.941000000000003
 20
-8.7977000000000007
 30
0.0
 10
58.941000000000003
 20
-8.7977000000000007
 30
0.0
  0
SPLINE
  5
E5
100
AcDbEntity
  8
Ebene 1
370
    40
 62
     0
100
AcDbSpline
210
0.0
220
0.0
230
1.0
 70
     0
 71
     3
 72
     8
 73
     4
 74
     0
 42
0.0000000001
 43
0.0000000001
 40
0.0
 40
0.0
 40
0.0
 40
0.0
 40
1.0
 40
1.0
 40
1.0
 40
1.0
 10
56.052199999999999
 20
-8.7977000000000007
 30
0.0
 10
56.052199999999999
 20
-8.7977000000000007
 30
0.0
 10
58.941000000000003
 20
-8.7977000000000007
 30
0.0
 10
58.941000000000003
 20
-8.7977000000000007
 30
0.0
  0
SPLINE
  5
E6
100
AcDbEntity
  8
Ebene 1
370
    40
 62
     0
100
AcDbSpline
210
0.0
220
0.0
230
1.0
 70
     0
 71
     3
 72
     8
 73
     4
 74
     0
 42
0.0000000001
 43
0.0000000001
 40
0.0
 40
0.0
 40
0.0
 40
0.0
 40
1.0
 40
1.0
 40
1.0
 40
1.0
 10
73.87660000000001
 20
-11.7455
 30
0.0
 10
73.87660000000001
 20
-11.7455
 30
0.0
 10
76.7654
 20
-11.7455
 30
0.0
 10
76.7654
 20
-11.7455
 30
0.0
  0
SPLINE
  5
E7
100
AcDbEntity
  8
Ebene 1
370
    40
 62
     0
100
AcDbSpline
210
0.0
220
0.0
230
1.0
 70
     0
 71
     3
 72
     8
 73
     4
 74
     0
 42
0.0000000001
 43
0.0000000001
 40
0.0
 40
0.0
 40
0.0
 40
0.0
 40
1.0
 40
1.0
 40
1.0
 40
1.0
 10
76.7654
 20
-11.7455
 30
0.0
 10
76.7654
 20
-11.7455
 30
0.0
 10
76.7654
 20
-8.7977000000000007
 30
0.0
 10
76.7654
 20
-8.7977000000000007
 30
0.0
  0
SPLINE
  5
E8
100
AcDbEntity
  8
Ebene 1
370
    40
 62
     0
100
AcDbSpline
210
0.0
220
0.0
230
1.0
 70
     0
 71
     3
 72
     8
 73
     4
 74
     0
 42
0.0000000001
 43
0.0000000001
 40
0.0
 40
0.0
 40
0.0
 40
0.0
 40
1.0
 40
1.0
 40
1.0
 40
1.0
 10
73.87660000000001
 20
-11.7455
 30
0.0
 10
73.87660000000001
 20
-11.7455
 30
0.0
 10
73.87660000000001
 20
-8.7977000000000007
 30
0.0
 10
73.87660000000001
 20
-8.7977000000000007
 30
0.0
  0
SPLINE
  5
E9
100
AcDbEntity
  8
Ebene 1
370
    40
 62
     0
100
AcDbSpline
210
0.0
220
0.0
230
1.0
 70
     0
 71
     3
 72
     8
 73
     4
 74
     0
 42
0.0000000001
 43
0.0000000001
 40
0.0
 40
0.0
 40
0.0
 40
0.0
 40
1.0
 40
1.0
 40
1.0
 40
1.0
 10
73.87660000000001
 20
-8.7977000000000007
 30
0.0
 10
73.87660000000001
 20
-8.7977000000000007
 30
0.0
 10
76.7654
 20
-8.7977000000000007
 30
0.0
 10
76.7654
 20
-8.7977000000000007
 30
0.0
  0
SPLINE
  5
EA
100
AcDbEntity
  8
Ebene 1
370
    40
 62
     0
100
AcDbSpline
210
0.0
220
0.0
230
1.0
 70
     0
 71
     3
 72
     8
 73
     4
 74
     0
 42
0.0000000001
 43
0.0000000001
 40
0.0
 40
0.0
 40
0.0
 40
0.0
 40
1.0
 40
1.0
 40
1.0
 40
1.0
 10
69.415599999999998
 20
-11.7455
 30
0.0
 10
69.415599999999998
 20
-11.7455
 30
0.0
 10
72.304400000000001
 20
-11.7455
 30
0.0
 10
72.304400000000001
 20
-11.7455
 30
0.0
  0
SPLINE
  5
EB
100
AcDbEntity
  8
Ebene 1
370
    40
 62
     0
100
AcDbSpline
210
0.0
220
0.0
230
1.0
 70
     0
 71
     3
 72
     8
 73
     4
 74
     0
 42
0.0000000001
 43
0.0000000001
 40
0.0
 40
0.0
 40
0.0
 40
0.0
 40
1.0
 40
1.0
 40
1.0
 40
1.0
 10
81.206699999999998
 20
-2.8431000000000002
 30
0.0
 10
81.206699999999998
 20
-2.8431000000000002
 30
0.0
 10
81.206699999999998
 20
0.1047
 30
0.0
 10
81.206699999999998
 20
0.1047
 30
0.0
  0
SPLINE
  5
EC
100
AcDbEntity
  8
Ebene 1
370
    40
 62
     0
100
AcDbSpline
210
0.0
220
0.0
230
1.0
 70
     0
 71
     3
 72
     8
 73
     4
 74
     0
 42
0.0000000001
 43
0.0000000001
 40
0.0
 40
0.0
 40
0.0
 40
0.0
 40
1.0
 40
1.0
 40
1.0
 40
1.0
 10
78.337500000000006
 20
-2.8431000000000002
 30
0.0
 10
78.337500000000006
 20
-2.8431000000000002
 30
0.0
 10
78.337500000000006
 20
0.1047
 30
0.0
 10
78.337500000000006
 20
0.1047
 30
0.0
  0
SPLINE
  5
ED
100
AcDbEntity
  8
Ebene 1
370
    40
 62
     0
100
AcDbSpline
210
0.0
220
0.0
230
1.0
 70
     0
 71
     3
 72
     8
 73
     4
 74
     0
 42
0.0000000001
 43
0.0000000001
 40
0.0
 40
0.0
 40
0.0
 40
0.0
 40
1.0
 40
1.0
 40
1.0
 40
1.0
 10
78.337500000000006
 20
0.1047
 30
0.0
 10
78.337500000000006
 20
0.1047
 30
0.0
 10
81.206699999999998
 20
0.1047
 30
0.0
 10
81.206699999999998
 20
0.1047
 30
0.0
  0
SPLINE
  5
EE
100
AcDbEntity
  8
Ebene 1
370
    40
 62
     0
100
AcDbSpline
210
0.0
220
0.0
230
1.0
 70
     0
 71
     3
 72
     8
 73
     4
 74
     0
 42
0.0000000001
 43
0.0000000001
 40
0.0
 40
0.0
 40
0.0
 40
0.0
 40
1.0
 40
1.0
 40
1.0
 40
1.0
 10
78.337500000000006
 20
17.870000000000001
 30
0.0
 10
78.337500000000006
 20
17.870000000000001
 30
0.0
 10
81.206699999999998
 20
17.870000000000001
 30
0.0
 10
81.206699999999998
 20
17.870000000000001
 30
0.0
  0
SPLINE
  5
EF
100
AcDbEntity
  8
Ebene 1
370
    40
 62
     0
100
AcDbSpline
210
0.0
220
0.0
230
1.0
 70
     0
 71
     3
 72
     8
 73
     4
 74
     0
 42
0.0000000001
 43
0.0000000001
 40
0.0
 40
0.0
 40
0.0
 40
0.0
 40
1.0
 40
1.0
 40
1.0
 40
1.0
 10
81.206699999999998
 20
17.870000000000001
 30
0.0
 10
81.206699999999998
 20
17.870000000000001
 30
0.0
 10
81.206699999999998
 20
14.981200000000001
 30
0.0
 10
81.206699999999998
 20
14.981200000000001
 30
0.0
  0
SPLINE
  5
F0
100
AcDbEntity
  8
Ebene 1
370
    40
 62
     0
100
AcDbSpline
210
0.0
220
0.0
230
1.0
 70
     0
 71
     3
 72
     8
 73
     4
 74
     0
 42
0.0000000001
 43
0.0000000001
 40
0.0
 40
0.0
 40
0.0
 40
0.0
 40
1.0
 40
1.0
 40
1.0
 40
1.0
 10
78.337500000000006
 20
17.870000000000001
 30
0.0
 10
78.337500000000006
 20
17.870000000000001
 30
0.0
 10
78.337500000000006
 20
14.981200000000001
 30
0.0
 10
78.337500000000006
 20
14.981200000000001
 30
0.0
  0
SPLINE
  5
F1
100
AcDbEntity
  8
Ebene 1
370
    40
 62
     0
100
AcDbSpline
210
0.0
220
0.0
230
1.0
 70
     0
 71
     3
 72
     8
 73
     4
 74
     0
 42
0.0000000001
 43
0.0000000001
 40
0.0
 40
0.0
 40
0.0
 40
0.0
 40
1.0
 40
1.0
 40
1.0
 40
1.0
 10
78.337500000000006
 20
14.981200000000001
 30
0.0
 10
78.337500000000006
 20
14.981200000000001
 30
0.0
 10
81.206699999999998
 20
14.981200000000001
 30
0.0
 10
81.206699999999998
 20
14.981200000000001
 30
0.0
  0
SPLINE
  5
F2
100
AcDbEntity
  8
Ebene 1
370
    40
 62
     0
100
AcDbSpline
210
0.0
220
0.0
230
1.0
 70
     0
 71
     3
 72
     8
 73
     4
 74
     0
 42
0.0000000001
 43
0.0000000001
 40
0.0
 40
0.0
 40
0.0
 40
0.0
 40
1.0
 40
1.0
 40
1.0
 40
1.0
 10
78.337500000000006
 20
13.409000000000001
 30
0.0
 10
78.337500000000006
 20
13.409000000000001
 30
0.0
 10
81.206699999999998
 20
13.409000000000001
 30
0.0
 10
81.206699999999998
 20
13.409000000000001
 30
0.0
  0
SPLINE
  5
F3
100
AcDbEntity
  8
Ebene 1
370
    40
 62
     0
100
AcDbSpline
210
0.0
220
0.0
230
1.0
 70
     0
 71
     3
 72
     8
 73
     4
 74
     0
 42
0.0000000001
 43
0.0000000001
 40
0.0
 40
0.0
 40
0.0
 40
0.0
 40
1.0
 40
1.0
 40
1.0
 40
1.0
 10
81.206699999999998
 20
13.409000000000001
 30
0.0
 10
81.206699999999998
 20
13.409000000000001
 30
0.0
 10
81.206699999999998
 20
10.520200000000001
 30
0.0
 10
81.206699999999998
 20
10.520200000000001
 30
0.0
  0
SPLINE
  5
F4
100
AcDbEntity
  8
Ebene 1
370
    40
 62
     0
100
AcDbSpline
210
0.0
220
0.0
230
1.0
 70
     0
 71
     3
 72
     8
 73
     4
 74
     0
 42
0.0000000001
 43
0.0000000001
 40
0.0
 40
0.0
 40
0.0
 40
0.0
 40
1.0
 40
1.0
 40
1.0
 40
1.0
 10
78.337500000000006
 20
13.409000000000001
 30
0.0
 10
78.337500000000006
 20
13.409000000000001
 30
0.0
 10
78.337500000000006
 20
10.520200000000001
 30
0.0
 10
78.337500000000006
 20
10.520200000000001
 30
0.0
  0
SPLINE
  5
F5
100
AcDbEntity
  8
Ebene 1
370
    40
 62
     0
100
AcDbSpline
210
0.0
220
0.0
230
1.0
 70
     0
 71
     3
 72
     8
 73
     4
 74
     0
 42
0.0000000001
 43
0.0000000001
 40
0.0
 40
0.0
 40
0.0
 40
0.0
 40
1.0
 40
1.0
 40
1.0
 40
1.0
 10
78.337500000000006
 20
10.520200000000001
 30
0.0
 10
78.337500000000006
 20
10.520200000000001
 30
0.0
 10
81.206699999999998
 20
10.520200000000001
 30
0.0
 10
81.206699999999998
 20
10.520200000000001
 30
0.0
  0
SPLINE
  5
F6
100
AcDbEntity
  8
Ebene 1
370
    40
 62
     0
100
AcDbSpline
210
0.0
220
0.0
230
1.0
 70
     0
 71
     3
 72
     8
 73
     4
 74
     0
 42
0.0000000001
 43
0.0000000001
 40
0.0
 40
0.0
 40
0.0
 40
0.0
 40
1.0
 40
1.0
 40
1.0
 40
1.0
 10
78.337500000000006
 20
1.6179000000000001
 30
0.0
 10
78.337500000000006
 20
1.6179000000000001
 30
0.0
 10
81.206699999999998
 20
1.6179000000000001
 30
0.0
 10
81.206699999999998
 20
1.6179000000000001
 30
0.0
  0
SPLINE
  5
F7
100
AcDbEntity
  8
Ebene 1
370
    40
 62
     0
100
AcDbSpline
210
0.0
220
0.0
230
1.0
 70
     0
 71
     3
 72
     8
 73
     4
 74
     0
 42
0.0000000001
 43
0.0000000001
 40
0.0
 40
0.0
 40
0.0
 40
0.0
 40
1.0
 40
1.0
 40
1.0
 40
1.0
 10
81.206699999999998
 20
1.6179000000000001
 30
0.0
 10
81.206699999999998
 20
1.6179000000000001
 30
0.0
 10
81.206699999999998
 20
4.5067000000000004
 30
0.0
 10
81.206699999999998
 20
4.5067000000000004
 30
0.0
  0
SPLINE
  5
F8
100
AcDbEntity
  8
Ebene 1
370
    40
 62
     0
100
AcDbSpline
210
0.0
220
0.0
230
1.0
 70
     0
 71
     3
 72
     8
 73
     4
 74
     0
 42
0.0000000001
 43
0.0000000001
 40
0.0
 40
0.0
 40
0.0
 40
0.0
 40
1.0
 40
1.0
 40
1.0
 40
1.0
 10
78.337500000000006
 20
1.6179000000000001
 30
0.0
 10
78.337500000000006
 20
1.6179000000000001
 30
0.0
 10
78.337500000000006
 20
4.5067000000000004
 30
0.0
 10
78.337500000000006
 20
4.5067000000000004
 30
0.0
  0
SPLINE
  5
F9
100
AcDbEntity
  8
Ebene 1
370
    40
 62
     0
100
AcDbSpline
210
0.0
220
0.0
230
1.0
 70
     0
 71
     3
 72
     8
 73
     4
 74
     0
 42
0.0000000001
 43
0.0000000001
 40
0.0
 40
0.0
 40
0.0
 40
0.0
 40
1.0
 40
1.0
 40
1.0
 40
1.0
 10
78.337500000000006
 20
4.5067000000000004
 30
0.0
 10
78.337500000000006
 20
4.5067000000000004
 30
0.0
 10
81.206699999999998
 20
4.5067000000000004
 30
0.0
 10
81.206699999999998
 20
4.5067000000000004
 30
0.0
  0
SPLINE
  5
FA
100
AcDbEntity
  8
Ebene 1
370
    40
 62
     0
100
AcDbSpline
210
0.0
220
0.0
230
1.0
 70
     0
 71
     3
 72
     8
 73
     4
 74
     0
 42
0.0000000001
 43
0.0000000001
 40
0.0
 40
0.0
 40
0.0
 40
0.0
 40
1.0
 40
1.0
 40
1.0
 40
1.0
 10
78.337500000000006
 20
8.9480000000000004
 30
0.0
 10
78.337500000000006
 20
8.9480000000000004
 30
0.0
 10
81.206699999999998
 20
8.9480000000000004
 30
0.0
 10
81.206699999999998
 20
8.9480000000000004
 30
0.0
  0
SPLINE
  5
FB
100
AcDbEntity
  8
Ebene 1
370
    40
 62
     0
100
AcDbSpline
210
0.0
220
0.0
230
1.0
 70
     0
 71
     3
 72
     8
 73
     4
 74
     0
 42
0.0000000001
 43
0.0000000001
 40
0.0
 40
0.0
 40
0.0
 40
0.0
 40
1.0
 40
1.0
 40
1.0
 40
1.0
 10
47.149900000000002
 20
8.9480000000000004
 30
0.0
 10
47.149900000000002
 20
8.9480000000000004
 30
0.0
 10
47.149900000000002
 20
6.0789
 30
0.0
 10
47.149900000000002
 20
6.0789
 30
0.0
  0
SPLINE
  5
FC
100
AcDbEntity
  8
Ebene 1
370
    40
 62
     0
100
AcDbSpline
210
0.0
220
0.0
230
1.0
 70
     0
 71
     3
 72
     8
 73
     4
 74
     0
 42
0.0000000001
 43
0.0000000001
 40
0.0
 40
0.0
 40
0.0
 40
0.0
 40
1.0
 40
1.0
 40
1.0
 40
1.0
 10
50.097700000000003
 20
8.9480000000000004
 30
0.0
 10
50.097700000000003
 20
8.9480000000000004
 30
0.0
 10
50.097700000000003
 20
6.0789
 30
0.0
 10
50.097700000000003
 20
6.0789
 30
0.0
  0
SPLINE
  5
FD
100
AcDbEntity
  8
Ebene 1
370
    40
 62
     0
100
AcDbSpline
210
0.0
220
0.0
230
1.0
 70
     0
 71
     3
 72
     8
 73
     4
 74
     0
 42
0.0000000001
 43
0.0000000001
 40
0.0
 40
0.0
 40
0.0
 40
0.0
 40
1.0
 40
1.0
 40
1.0
 40
1.0
 10
47.149900000000002
 20
6.0789
 30
0.0
 10
47.149900000000002
 20
6.0789
 30
0.0
 10
50.097700000000003
 20
6.0789
 30
0.0
 10
50.097700000000003
 20
6.0789
 30
0.0
  0
SPLINE
  5
FE
100
AcDbEntity
  8
Ebene 1
370
    40
 62
     0
100
AcDbSpline
210
0.0
220
0.0
230
1.0
 70
     0
 71
     3
 72
     8
 73
     4
 74
     0
 42
0.0000000001
 43
0.0000000001
 40
0.0
 40
0.0
 40
0.0
 40
0.0
 40
1.0
 40
1.0
 40
1.0
 40
1.0
 10
78.337500000000006
 20
-11.7455
 30
0.0
 10
78.337500000000006
 20
-11.7455
 30
0.0
 10
81.206699999999998
 20
-11.7455
 30
0.0
 10
81.206699999999998
 20
-11.7455
 30
0.0
  0
SPLINE
  5
FF
100
AcDbEntity
  8
Ebene 1
370
    40
 62
     0
100
AcDbSpline
210
0.0
220
0.0
230
1.0
 70
     0
 71
     3
 72
     8
 73
     4
 74
     0
 42
0.0000000001
 43
0.0000000001
 40
0.0
 40
0.0
 40
0.0
 40
0.0
 40
1.0
 40
1.0
 40
1.0
 40
1.0
 10
81.206699999999998
 20
-11.7455
 30
0.0
 10
81.206699999999998
 20
-11.7455
 30
0.0
 10
81.206699999999998
 20
-8.7977000000000007
 30
0.0
 10
81.206699999999998
 20
-8.7977000000000007
 30
0.0
  0
SPLINE
  5
100
100
AcDbEntity
  8
Ebene 1
370
    40
 62
     0
100
AcDbSpline
210
0.0
220
0.0
230
1.0
 70
     0
 71
     3
 72
     8
 73
     4
 74
     0
 42
0.0000000001
 43
0.0000000001
 40
0.0
 40
0.0
 40
0.0
 40
0.0
 40
1.0
 40
1.0
 40
1.0
 40
1.0
 10
78.337500000000006
 20
-11.7455
 30
0.0
 10
78.337500000000006
 20
-11.7455
 30
0.0
 10
78.337500000000006
 20
-8.7977000000000007
 30
0.0
 10
78.337500000000006
 20
-8.7977000000000007
 30
0.0
  0
SPLINE
  5
101
100
AcDbEntity
  8
Ebene 1
370
    40
 62
     0
100
AcDbSpline
210
0.0
220
0.0
230
1.0
 70
     0
 71
     3
 72
     8
 73
     4
 74
     0
 42
0.0000000001
 43
0.0000000001
 40
0.0
 40
0.0
 40
0.0
 40
0.0
 40
1.0
 40
1.0
 40
1.0
 40
1.0
 10
78.337500000000006
 20
-8.7977000000000007
 30
0.0
 10
78.337500000000006
 20
-8.7977000000000007
 30
0.0
 10
81.206699999999998
 20
-8.7977000000000007
 30
0.0
 10
81.206699999999998
 20
-8.7977000000000007
 30
0.0
  0
SPLINE
  5
102
100
AcDbEntity
  8
Ebene 1
370
    40
 62
     0
100
AcDbSpline
210
0.0
220
0.0
230
1.0
 70
     0
 71
     3
 72
     8
 73
     4
 74
     0
 42
0.0000000001
 43
0.0000000001
 40
0.0
 40
0.0
 40
0.0
 40
0.0
 40
1.0
 40
1.0
 40
1.0
 40
1.0
 10
78.337500000000006
 20
22.311400000000003
 30
0.0
 10
78.337500000000006
 20
22.311400000000003
 30
0.0
 10
81.206699999999998
 20
22.311400000000003
 30
0.0
 10
81.206699999999998
 20
22.311400000000003
 30
0.0
  0
SPLINE
  5
103
100
AcDbEntity
  8
Ebene 1
370
    40
 62
     0
100
AcDbSpline
210
0.0
220
0.0
230
1.0
 70
     0
 71
     3
 72
     8
 73
     4
 74
     0
 42
0.0000000001
 43
0.0000000001
 40
0.0
 40
0.0
 40
0.0
 40
0.0
 40
1.0
 40
1.0
 40
1.0
 40
1.0
 10
81.206699999999998
 20
22.311400000000003
 30
0.0
 10
81.206699999999998
 20
22.311400000000003
 30
0.0
 10
81.206699999999998
 20
19.4422
 30
0.0
 10
81.206699999999998
 20
19.4422
 30
0.0
  0
SPLINE
  5
104
100
AcDbEntity
  8
Ebene 1
370
    40
 62
     0
100
AcDbSpline
210
0.0
220
0.0
230
1.0
 70
     0
 71
     3
 72
     8
 73
     4
 74
     0
 42
0.0000000001
 43
0.0000000001
 40
0.0
 40
0.0
 40
0.0
 40
0.0
 40
1.0
 40
1.0
 40
1.0
 40
1.0
 10
78.337500000000006
 20
22.311400000000003
 30
0.0
 10
78.337500000000006
 20
22.311400000000003
 30
0.0
 10
78.337500000000006
 20
19.4422
 30
0.0
 10
78.337500000000006
 20
19.4422
 30
0.0
  0
SPLINE
  5
105
100
AcDbEntity
  8
Ebene 1
370
    40
 62
     0
100
AcDbSpline
210
0.0
220
0.0
230
1.0
 70
     0
 71
     3
 72
     8
 73
     4
 74
     0
 42
0.0000000001
 43
0.0000000001
 40
0.0
 40
0.0
 40
0.0
 40
0.0
 40
1.0
 40
1.0
 40
1.0
 40
1.0
 10
78.337500000000006
 20
19.4422
 30
0.0
 10
78.337500000000006
 20
19.4422
 30
0.0
 10
81.206699999999998
 20
19.4422
 30
0.0
 10
81.206699999999998
 20
19.4422
 30
0.0
  0
SPLINE
  5
106
100
AcDbEntity
  8
Ebene 1
370
    40
 62
     0
100
AcDbSpline
210
0.0
220
0.0
230
1.0
 70
     0
 71
     3
 72
     8
 73
     4
 74
     0
 42
0.0000000001
 43
0.0000000001
 40
0.0
 40
0.0
 40
0.0
 40
0.0
 40
1.0
 40
1.0
 40
1.0
 40
1.0
 10
78.337500000000006
 20
-7.2845000000000004
 30
0.0
 10
78.337500000000006
 20
-7.2845000000000004
 30
0.0
 10
81.206699999999998
 20
-7.2845000000000004
 30
0.0
 10
81.206699999999998
 20
-7.2845000000000004
 30
0.0
  0
SPLINE
  5
107
100
AcDbEntity
  8
Ebene 1
370
    40
 62
     0
100
AcDbSpline
210
0.0
220
0.0
230
1.0
 70
     0
 71
     3
 72
     8
 73
     4
 74
     0
 42
0.0000000001
 43
0.0000000001
 40
0.0
 40
0.0
 40
0.0
 40
0.0
 40
1.0
 40
1.0
 40
1.0
 40
1.0
 10
81.206699999999998
 20
-7.2845000000000004
 30
0.0
 10
81.206699999999998
 20
-7.2845000000000004
 30
0.0
 10
81.206699999999998
 20
-4.3367000000000004
 30
0.0
 10
81.206699999999998
 20
-4.3367000000000004
 30
0.0
  0
SPLINE
  5
108
100
AcDbEntity
  8
Ebene 1
370
    40
 62
     0
100
AcDbSpline
210
0.0
220
0.0
230
1.0
 70
     0
 71
     3
 72
     8
 73
     4
 74
     0
 42
0.0000000001
 43
0.0000000001
 40
0.0
 40
0.0
 40
0.0
 40
0.0
 40
1.0
 40
1.0
 40
1.0
 40
1.0
 10
78.337500000000006
 20
-7.2845000000000004
 30
0.0
 10
78.337500000000006
 20
-7.2845000000000004
 30
0.0
 10
78.337500000000006
 20
-4.3367000000000004
 30
0.0
 10
78.337500000000006
 20
-4.3367000000000004
 30
0.0
  0
SPLINE
  5
109
100
AcDbEntity
  8
Ebene 1
370
    40
 62
     0
100
AcDbSpline
210
0.0
220
0.0
230
1.0
 70
     0
 71
     3
 72
     8
 73
     4
 74
     0
 42
0.0000000001
 43
0.0000000001
 40
0.0
 40
0.0
 40
0.0
 40
0.0
 40
1.0
 40
1.0
 40
1.0
 40
1.0
 10
78.337500000000006
 20
-4.3367000000000004
 30
0.0
 10
78.337500000000006
 20
-4.3367000000000004
 30
0.0
 10
81.206699999999998
 20
-4.3367000000000004
 30
0.0
 10
81.206699999999998
 20
-4.3367000000000004
 30
0.0
  0
SPLINE
  5
10A
100
AcDbEntity
  8
Ebene 1
370
    40
 62
     0
100
AcDbSpline
210
0.0
220
0.0
230
1.0
 70
     0
 71
     3
 72
     8
 73
     4
 74
     0
 42
0.0000000001
 43
0.0000000001
 40
0.0
 40
0.0
 40
0.0
 40
0.0
 40
1.0
 40
1.0
 40
1.0
 40
1.0
 10
78.337500000000006
 20
-2.8431000000000002
 30
0.0
 10
78.337500000000006
 20
-2.8431000000000002
 30
0.0
 10
81.206699999999998
 20
-2.8431000000000002
 30
0.0
 10
81.206699999999998
 20
-2.8431000000000002
 30
0.0
  0
SPLINE
  5
10B
100
AcDbEntity
  8
Ebene 1
370
    40
 62
     0
100
AcDbSpline
210
0.0
220
0.0
230
1.0
 70
     0
 71
     3
 72
     8
 73
     4
 74
     0
 42
0.0000000001
 43
0.0000000001
 40
0.0
 40
0.0
 40
0.0
 40
0.0
 40
1.0
 40
1.0
 40
1.0
 40
1.0
 10
47.149900000000002
 20
-2.8431000000000002
 30
0.0
 10
47.149900000000002
 20
-2.8431000000000002
 30
0.0
 10
47.149900000000002
 20
0.1047
 30
0.0
 10
47.149900000000002
 20
0.1047
 30
0.0
  0
SPLINE
  5
10C
100
AcDbEntity
  8
Ebene 1
370
    40
 62
     0
100
AcDbSpline
210
0.0
220
0.0
230
1.0
 70
     0
 71
     3
 72
     8
 73
     4
 74
     0
 42
0.0000000001
 43
0.0000000001
 40
0.0
 40
0.0
 40
0.0
 40
0.0
 40
1.0
 40
1.0
 40
1.0
 40
1.0
 10
50.097700000000003
 20
-2.8431000000000002
 30
0.0
 10
50.097700000000003
 20
-2.8431000000000002
 30
0.0
 10
50.097700000000003
 20
0.1047
 30
0.0
 10
50.097700000000003
 20
0.1047
 30
0.0
  0
SPLINE
  5
10D
100
AcDbEntity
  8
Ebene 1
370
    40
 62
     0
100
AcDbSpline
210
0.0
220
0.0
230
1.0
 70
     0
 71
     3
 72
     8
 73
     4
 74
     0
 42
0.0000000001
 43
0.0000000001
 40
0.0
 40
0.0
 40
0.0
 40
0.0
 40
1.0
 40
1.0
 40
1.0
 40
1.0
 10
47.149900000000002
 20
0.1047
 30
0.0
 10
47.149900000000002
 20
0.1047
 30
0.0
 10
50.097700000000003
 20
0.1047
 30
0.0
 10
50.097700000000003
 20
0.1047
 30
0.0
  0
SPLINE
  5
10E
100
AcDbEntity
  8
Ebene 1
370
    40
 62
     0
100
AcDbSpline
210
0.0
220
0.0
230
1.0
 70
     0
 71
     3
 72
     8
 73
     4
 74
     0
 42
0.0000000001
 43
0.0000000001
 40
0.0
 40
0.0
 40
0.0
 40
0.0
 40
1.0
 40
1.0
 40
1.0
 40
1.0
 10
47.149900000000002
 20
17.870000000000001
 30
0.0
 10
47.149900000000002
 20
17.870000000000001
 30
0.0
 10
50.097700000000003
 20
17.870000000000001
 30
0.0
 10
50.097700000000003
 20
17.870000000000001
 30
0.0
  0
SPLINE
  5
10F
100
AcDbEntity
  8
Ebene 1
370
    40
 62
     0
100
AcDbSpline
210
0.0
220
0.0
230
1.0
 70
     0
 71
     3
 72
     8
 73
     4
 74
     0
 42
0.0000000001
 43
0.0000000001
 40
0.0
 40
0.0
 40
0.0
 40
0.0
 40
1.0
 40
1.0
 40
1.0
 40
1.0
 10
47.149900000000002
 20
17.870000000000001
 30
0.0
 10
47.149900000000002
 20
17.870000000000001
 30
0.0
 10
47.149900000000002
 20
14.981200000000001
 30
0.0
 10
47.149900000000002
 20
14.981200000000001
 30
0.0
  0
SPLINE
  5
110
100
AcDbEntity
  8
Ebene 1
370
    40
 62
     0
100
AcDbSpline
210
0.0
220
0.0
230
1.0
 70
     0
 71
     3
 72
     8
 73
     4
 74
     0
 42
0.0000000001
 43
0.0000000001
 40
0.0
 40
0.0
 40
0.0
 40
0.0
 40
1.0
 40
1.0
 40
1.0
 40
1.0
 10
50.097700000000003
 20
17.870000000000001
 30
0.0
 10
50.097700000000003
 20
17.870000000000001
 30
0.0
 10
50.097700000000003
 20
14.981200000000001
 30
0.0
 10
50.097700000000003
 20
14.981200000000001
 30
0.0
  0
SPLINE
  5
111
100
AcDbEntity
  8
Ebene 1
370
    40
 62
     0
100
AcDbSpline
210
0.0
220
0.0
230
1.0
 70
     0
 71
     3
 72
     8
 73
     4
 74
     0
 42
0.0000000001
 43
0.0000000001
 40
0.0
 40
0.0
 40
0.0
 40
0.0
 40
1.0
 40
1.0
 40
1.0
 40
1.0
 10
47.149900000000002
 20
14.981200000000001
 30
0.0
 10
47.149900000000002
 20
14.981200000000001
 30
0.0
 10
50.097700000000003
 20
14.981200000000001
 30
0.0
 10
50.097700000000003
 20
14.981200000000001
 30
0.0
  0
SPLINE
  5
112
100
AcDbEntity
  8
Ebene 1
370
    40
 62
     0
100
AcDbSpline
210
0.0
220
0.0
230
1.0
 70
     0
 71
     3
 72
     8
 73
     4
 74
     0
 42
0.0000000001
 43
0.0000000001
 40
0.0
 40
0.0
 40
0.0
 40
0.0
 40
1.0
 40
1.0
 40
1.0
 40
1.0
 10
47.149900000000002
 20
13.409000000000001
 30
0.0
 10
47.149900000000002
 20
13.409000000000001
 30
0.0
 10
50.097700000000003
 20
13.409000000000001
 30
0.0
 10
50.097700000000003
 20
13.409000000000001
 30
0.0
  0
SPLINE
  5
113
100
AcDbEntity
  8
Ebene 1
370
    40
 62
     0
100
AcDbSpline
210
0.0
220
0.0
230
1.0
 70
     0
 71
     3
 72
     8
 73
     4
 74
     0
 42
0.0000000001
 43
0.0000000001
 40
0.0
 40
0.0
 40
0.0
 40
0.0
 40
1.0
 40
1.0
 40
1.0
 40
1.0
 10
47.149900000000002
 20
13.409000000000001
 30
0.0
 10
47.149900000000002
 20
13.409000000000001
 30
0.0
 10
47.149900000000002
 20
10.520200000000001
 30
0.0
 10
47.149900000000002
 20
10.520200000000001
 30
0.0
  0
SPLINE
  5
114
100
AcDbEntity
  8
Ebene 1
370
    40
 62
     0
100
AcDbSpline
210
0.0
220
0.0
230
1.0
 70
     0
 71
     3
 72
     8
 73
     4
 74
     0
 42
0.0000000001
 43
0.0000000001
 40
0.0
 40
0.0
 40
0.0
 40
0.0
 40
1.0
 40
1.0
 40
1.0
 40
1.0
 10
50.097700000000003
 20
13.409000000000001
 30
0.0
 10
50.097700000000003
 20
13.409000000000001
 30
0.0
 10
50.097700000000003
 20
10.520200000000001
 30
0.0
 10
50.097700000000003
 20
10.520200000000001
 30
0.0
  0
SPLINE
  5
115
100
AcDbEntity
  8
Ebene 1
370
    40
 62
     0
100
AcDbSpline
210
0.0
220
0.0
230
1.0
 70
     0
 71
     3
 72
     8
 73
     4
 74
     0
 42
0.0000000001
 43
0.0000000001
 40
0.0
 40
0.0
 40
0.0
 40
0.0
 40
1.0
 40
1.0
 40
1.0
 40
1.0
 10
47.149900000000002
 20
10.520200000000001
 30
0.0
 10
47.149900000000002
 20
10.520200000000001
 30
0.0
 10
50.097700000000003
 20
10.520200000000001
 30
0.0
 10
50.097700000000003
 20
10.520200000000001
 30
0.0
  0
SPLINE
  5
116
100
AcDbEntity
  8
Ebene 1
370
    40
 62
     0
100
AcDbSpline
210
0.0
220
0.0
230
1.0
 70
     0
 71
     3
 72
     8
 73
     4
 74
     0
 42
0.0000000001
 43
0.0000000001
 40
0.0
 40
0.0
 40
0.0
 40
0.0
 40
1.0
 40
1.0
 40
1.0
 40
1.0
 10
47.149900000000002
 20
1.6179000000000001
 30
0.0
 10
47.149900000000002
 20
1.6179000000000001
 30
0.0
 10
50.097700000000003
 20
1.6179000000000001
 30
0.0
 10
50.097700000000003
 20
1.6179000000000001
 30
0.0
  0
SPLINE
  5
117
100
AcDbEntity
  8
Ebene 1
370
    40
 62
     0
100
AcDbSpline
210
0.0
220
0.0
230
1.0
 70
     0
 71
     3
 72
     8
 73
     4
 74
     0
 42
0.0000000001
 43
0.0000000001
 40
0.0
 40
0.0
 40
0.0
 40
0.0
 40
1.0
 40
1.0
 40
1.0
 40
1.0
 10
47.149900000000002
 20
1.6179000000000001
 30
0.0
 10
47.149900000000002
 20
1.6179000000000001
 30
0.0
 10
47.149900000000002
 20
4.5067000000000004
 30
0.0
 10
47.149900000000002
 20
4.5067000000000004
 30
0.0
  0
SPLINE
  5
118
100
AcDbEntity
  8
Ebene 1
370
    40
 62
     0
100
AcDbSpline
210
0.0
220
0.0
230
1.0
 70
     0
 71
     3
 72
     8
 73
     4
 74
     0
 42
0.0000000001
 43
0.0000000001
 40
0.0
 40
0.0
 40
0.0
 40
0.0
 40
1.0
 40
1.0
 40
1.0
 40
1.0
 10
50.097700000000003
 20
1.6179000000000001
 30
0.0
 10
50.097700000000003
 20
1.6179000000000001
 30
0.0
 10
50.097700000000003
 20
4.5067000000000004
 30
0.0
 10
50.097700000000003
 20
4.5067000000000004
 30
0.0
  0
SPLINE
  5
119
100
AcDbEntity
  8
Ebene 1
370
    40
 62
     0
100
AcDbSpline
210
0.0
220
0.0
230
1.0
 70
     0
 71
     3
 72
     8
 73
     4
 74
     0
 42
0.0000000001
 43
0.0000000001
 40
0.0
 40
0.0
 40
0.0
 40
0.0
 40
1.0
 40
1.0
 40
1.0
 40
1.0
 10
47.149900000000002
 20
4.5067000000000004
 30
0.0
 10
47.149900000000002
 20
4.5067000000000004
 30
0.0
 10
50.097700000000003
 20
4.5067000000000004
 30
0.0
 10
50.097700000000003
 20
4.5067000000000004
 30
0.0
  0
SPLINE
  5
11A
100
AcDbEntity
  8
Ebene 1
370
    40
 62
     0
100
AcDbSpline
210
0.0
220
0.0
230
1.0
 70
     0
 71
     3
 72
     8
 73
     4
 74
     0
 42
0.0000000001
 43
0.0000000001
 40
0.0
 40
0.0
 40
0.0
 40
0.0
 40
1.0
 40
1.0
 40
1.0
 40
1.0
 10
47.149900000000002
 20
8.9480000000000004
 30
0.0
 10
47.149900000000002
 20
8.9480000000000004
 30
0.0
 10
50.097700000000003
 20
8.9480000000000004
 30
0.0
 10
50.097700000000003
 20
8.9480000000000004
 30
0.0
  0
SPLINE
  5
11B
100
AcDbEntity
  8
Ebene 1
370
    40
 62
     0
100
AcDbSpline
210
0.0
220
0.0
230
1.0
 70
     0
 71
     3
 72
     8
 73
     4
 74
     0
 42
0.0000000001
 43
0.0000000001
 40
0.0
 40
0.0
 40
0.0
 40
0.0
 40
1.0
 40
1.0
 40
1.0
 40
1.0
 10
47.149900000000002
 20
-11.7455
 30
0.0
 10
47.149900000000002
 20
-11.7455
 30
0.0
 10
50.097700000000003
 20
-11.7455
 30
0.0
 10
50.097700000000003
 20
-11.7455
 30
0.0
  0
SPLINE
  5
11C
100
AcDbEntity
  8
Ebene 1
370
    40
 62
     0
100
AcDbSpline
210
0.0
220
0.0
230
1.0
 70
     0
 71
     3
 72
     8
 73
     4
 74
     0
 42
0.0000000001
 43
0.0000000001
 40
0.0
 40
0.0
 40
0.0
 40
0.0
 40
1.0
 40
1.0
 40
1.0
 40
1.0
 10
47.149900000000002
 20
-11.7455
 30
0.0
 10
47.149900000000002
 20
-11.7455
 30
0.0
 10
47.149900000000002
 20
-8.7977000000000007
 30
0.0
 10
47.149900000000002
 20
-8.7977000000000007
 30
0.0
  0
SPLINE
  5
11D
100
AcDbEntity
  8
Ebene 1
370
    40
 62
     0
100
AcDbSpline
210
0.0
220
0.0
230
1.0
 70
     0
 71
     3
 72
     8
 73
     4
 74
     0
 42
0.0000000001
 43
0.0000000001
 40
0.0
 40
0.0
 40
0.0
 40
0.0
 40
1.0
 40
1.0
 40
1.0
 40
1.0
 10
50.097700000000003
 20
-11.7455
 30
0.0
 10
50.097700000000003
 20
-11.7455
 30
0.0
 10
50.097700000000003
 20
-8.7977000000000007
 30
0.0
 10
50.097700000000003
 20
-8.7977000000000007
 30
0.0
  0
SPLINE
  5
11E
100
AcDbEntity
  8
Ebene 1
370
    40
 62
     0
100
AcDbSpline
210
0.0
220
0.0
230
1.0
 70
     0
 71
     3
 72
     8
 73
     4
 74
     0
 42
0.0000000001
 43
0.0000000001
 40
0.0
 40
0.0
 40
0.0
 40
0.0
 40
1.0
 40
1.0
 40
1.0
 40
1.0
 10
47.149900000000002
 20
-8.7977000000000007
 30
0.0
 10
47.149900000000002
 20
-8.7977000000000007
 30
0.0
 10
50.097700000000003
 20
-8.7977000000000007
 30
0.0
 10
50.097700000000003
 20
-8.7977000000000007
 30
0.0
  0
SPLINE
  5
11F
100
AcDbEntity
  8
Ebene 1
370
    40
 62
     0
100
AcDbSpline
210
0.0
220
0.0
230
1.0
 70
     0
 71
     3
 72
     8
 73
     4
 74
     0
 42
0.0000000001
 43
0.0000000001
 40
0.0
 40
0.0
 40
0.0
 40
0.0
 40
1.0
 40
1.0
 40
1.0
 40
1.0
 10
47.149900000000002
 20
22.311400000000003
 30
0.0
 10
47.149900000000002
 20
22.311400000000003
 30
0.0
 10
50.097700000000003
 20
22.311400000000003
 30
0.0
 10
50.097700000000003
 20
22.311400000000003
 30
0.0
  0
SPLINE
  5
120
100
AcDbEntity
  8
Ebene 1
370
    40
 62
     0
100
AcDbSpline
210
0.0
220
0.0
230
1.0
 70
     0
 71
     3
 72
     8
 73
     4
 74
     0
 42
0.0000000001
 43
0.0000000001
 40
0.0
 40
0.0
 40
0.0
 40
0.0
 40
1.0
 40
1.0
 40
1.0
 40
1.0
 10
47.149900000000002
 20
22.311400000000003
 30
0.0
 10
47.149900000000002
 20
22.311400000000003
 30
0.0
 10
47.149900000000002
 20
19.4422
 30
0.0
 10
47.149900000000002
 20
19.4422
 30
0.0
  0
SPLINE
  5
121
100
AcDbEntity
  8
Ebene 1
370
    40
 62
     0
100
AcDbSpline
210
0.0
220
0.0
230
1.0
 70
     0
 71
     3
 72
     8
 73
     4
 74
     0
 42
0.0000000001
 43
0.0000000001
 40
0.0
 40
0.0
 40
0.0
 40
0.0
 40
1.0
 40
1.0
 40
1.0
 40
1.0
 10
50.097700000000003
 20
22.311400000000003
 30
0.0
 10
50.097700000000003
 20
22.311400000000003
 30
0.0
 10
50.097700000000003
 20
19.4422
 30
0.0
 10
50.097700000000003
 20
19.4422
 30
0.0
  0
SPLINE
  5
122
100
AcDbEntity
  8
Ebene 1
370
    40
 62
     0
100
AcDbSpline
210
0.0
220
0.0
230
1.0
 70
     0
 71
     3
 72
     8
 73
     4
 74
     0
 42
0.0000000001
 43
0.0000000001
 40
0.0
 40
0.0
 40
0.0
 40
0.0
 40
1.0
 40
1.0
 40
1.0
 40
1.0
 10
47.149900000000002
 20
19.4422
 30
0.0
 10
47.149900000000002
 20
19.4422
 30
0.0
 10
50.097700000000003
 20
19.4422
 30
0.0
 10
50.097700000000003
 20
19.4422
 30
0.0
  0
SPLINE
  5
123
100
AcDbEntity
  8
Ebene 1
370
    40
 62
     0
100
AcDbSpline
210
0.0
220
0.0
230
1.0
 70
     0
 71
     3
 72
     8
 73
     4
 74
     0
 42
0.0000000001
 43
0.0000000001
 40
0.0
 40
0.0
 40
0.0
 40
0.0
 40
1.0
 40
1.0
 40
1.0
 40
1.0
 10
47.149900000000002
 20
-7.2845000000000004
 30
0.0
 10
47.149900000000002
 20
-7.2845000000000004
 30
0.0
 10
50.097700000000003
 20
-7.2845000000000004
 30
0.0
 10
50.097700000000003
 20
-7.2845000000000004
 30
0.0
  0
SPLINE
  5
124
100
AcDbEntity
  8
Ebene 1
370
    40
 62
     0
100
AcDbSpline
210
0.0
220
0.0
230
1.0
 70
     0
 71
     3
 72
     8
 73
     4
 74
     0
 42
0.0000000001
 43
0.0000000001
 40
0.0
 40
0.0
 40
0.0
 40
0.0
 40
1.0
 40
1.0
 40
1.0
 40
1.0
 10
47.149900000000002
 20
-7.2845000000000004
 30
0.0
 10
47.149900000000002
 20
-7.2845000000000004
 30
0.0
 10
47.149900000000002
 20
-4.3367000000000004
 30
0.0
 10
47.149900000000002
 20
-4.3367000000000004
 30
0.0
  0
SPLINE
  5
125
100
AcDbEntity
  8
Ebene 1
370
    40
 62
     0
100
AcDbSpline
210
0.0
220
0.0
230
1.0
 70
     0
 71
     3
 72
     8
 73
     4
 74
     0
 42
0.0000000001
 43
0.0000000001
 40
0.0
 40
0.0
 40
0.0
 40
0.0
 40
1.0
 40
1.0
 40
1.0
 40
1.0
 10
50.097700000000003
 20
-7.2845000000000004
 30
0.0
 10
50.097700000000003
 20
-7.2845000000000004
 30
0.0
 10
50.097700000000003
 20
-4.3367000000000004
 30
0.0
 10
50.097700000000003
 20
-4.3367000000000004
 30
0.0
  0
SPLINE
  5
126
100
AcDbEntity
  8
Ebene 1
370
    40
 62
     0
100
AcDbSpline
210
0.0
220
0.0
230
1.0
 70
     0
 71
     3
 72
     8
 73
     4
 74
     0
 42
0.0000000001
 43
0.0000000001
 40
0.0
 40
0.0
 40
0.0
 40
0.0
 40
1.0
 40
1.0
 40
1.0
 40
1.0
 10
47.149900000000002
 20
-4.3367000000000004
 30
0.0
 10
47.149900000000002
 20
-4.3367000000000004
 30
0.0
 10
50.097700000000003
 20
-4.3367000000000004
 30
0.0
 10
50.097700000000003
 20
-4.3367000000000004
 30
0.0
  0
SPLINE
  5
127
100
AcDbEntity
  8
Ebene 1
370
    40
 62
     0
100
AcDbSpline
210
0.0
220
0.0
230
1.0
 70
     0
 71
     3
 72
     8
 73
     4
 74
     0
 42
0.0000000001
 43
0.0000000001
 40
0.0
 40
0.0
 40
0.0
 40
0.0
 40
1.0
 40
1.0
 40
1.0
 40
1.0
 10
47.149900000000002
 20
-2.8431000000000002
 30
0.0
 10
47.149900000000002
 20
-2.8431000000000002
 30
0.0
 10
50.097700000000003
 20
-2.8431000000000002
 30
0.0
 10
50.097700000000003
 20
-2.8431000000000002
 30
0.0
  0
SPLINE
  5
128
100
AcDbEntity
  8
Ebene 1
370
    20
 62
     0
100
AcDbSpline
210
0.0
220
0.0
230
1.0
 70
     0
 71
     3
 72
     8
 73
     4
 74
     0
 42
0.0000000001
 43
0.0000000001
 40
0.0
 40
0.0
 40
0.0
 40
0.0
 40
1.0
 40
1.0
 40
1.0
 40
1.0
 10
59.589600000000004
 20
-13.769600000000001
 30
0.0
 10
59.589600000000004
 20
-13.769600000000001
 30
0.0
 10
59.864700000000006
 20
-13.710700000000001
 30
0.0
 10
59.864700000000006
 20
-13.710700000000001
 30
0.0
  0
SPLINE
  5
129
100
AcDbEntity
  8
Ebene 1
370
    20
 62
     0
100
AcDbSpline
210
0.0
220
0.0
230
1.0
 70
     0
 71
     3
 72
     8
 73
     4
 74
     0
 42
0.0000000001
 43
0.0000000001
 40
0.0
 40
0.0
 40
0.0
 40
0.0
 40
1.0
 40
1.0
 40
1.0
 40
1.0
 10
59.334099999999999
 20
-13.966100000000001
 30
0.0
 10
59.334099999999999
 20
-13.966100000000001
 30
0.0
 10
59.334099999999999
 20
-13.966100000000001
 30
0.0
 10
59.334099999999999
 20
-13.966100000000001
 30
0.0
  0
SPLINE
  5
12A
100
AcDbEntity
  8
Ebene 1
370
    20
 62
     0
100
AcDbSpline
210
0.0
220
0.0
230
1.0
 70
     0
 71
     3
 72
     8
 73
     4
 74
     0
 42
0.0000000001
 43
0.0000000001
 40
0.0
 40
0.0
 40
0.0
 40
0.0
 40
1.0
 40
1.0
 40
1.0
 40
1.0
 10
59.471700000000006
 20
-13.769600000000001
 30
0.0
 10
59.471700000000006
 20
-13.769600000000001
 30
0.0
 10
59.786100000000005
 20
-13.6517
 30
0.0
 10
59.786100000000005
 20
-13.6517
 30
0.0
  0
SPLINE
  5
12B
100
AcDbEntity
  8
Ebene 1
370
    20
 62
     0
100
AcDbSpline
210
0.0
220
0.0
230
1.0
 70
     0
 71
     3
 72
     8
 73
     4
 74
     0
 42
0.0000000001
 43
0.0000000001
 40
0.0
 40
0.0
 40
0.0
 40
0.0
 40
1.0
 40
1.0
 40
1.0
 40
1.0
 10
59.393000000000001
 20
-13.710700000000001
 30
0.0
 10
59.393000000000001
 20
-13.710700000000001
 30
0.0
 10
59.786100000000005
 20
-13.5731
 30
0.0
 10
59.786100000000005
 20
-13.5731
 30
0.0
  0
SPLINE
  5
12C
100
AcDbEntity
  8
Ebene 1
370
    20
 62
     0
100
AcDbSpline
210
0.0
220
0.0
230
1.0
 70
     0
 71
     3
 72
     8
 73
     4
 74
     0
 42
0.0000000001
 43
0.0000000001
 40
0.0
 40
0.0
 40
0.0
 40
0.0
 40
1.0
 40
1.0
 40
1.0
 40
1.0
 10
59.7271
 20
-14.162600000000001
 30
0.0
 10
59.7271
 20
-14.162600000000001
 30
0.0
 10
59.7271
 20
-14.162600000000001
 30
0.0
 10
59.7271
 20
-14.162600000000001
 30
0.0
  0
SPLINE
  5
12D
100
AcDbEntity
  8
Ebene 1
370
    20
 62
     0
100
AcDbSpline
210
0.0
220
0.0
230
1.0
 70
     0
 71
     3
 72
     8
 73
     4
 74
     0
 42
0.0000000001
 43
0.0000000001
 40
0.0
 40
0.0
 40
0.0
 40
0.0
 40
1.0
 40
1.0
 40
1.0
 40
1.0
 10
59.334099999999999
 20
-13.966100000000001
 30
0.0
 10
59.334099999999999
 20
-13.966100000000001
 30
0.0
 10
59.334099999999999
 20
-13.966100000000001
 30
0.0
 10
59.334099999999999
 20
-13.966100000000001
 30
0.0
  0
SPLINE
  5
12E
100
AcDbEntity
  8
Ebene 1
370
    20
 62
     0
100
AcDbSpline
210
0.0
220
0.0
230
1.0
 70
     0
 71
     3
 72
     8
 73
     4
 74
     0
 42
0.0000000001
 43
0.0000000001
 40
0.0
 40
0.0
 40
0.0
 40
0.0
 40
1.0
 40
1.0
 40
1.0
 40
1.0
 10
59.5306
 20
-14.044700000000001
 30
0.0
 10
59.5306
 20
-14.044700000000001
 30
0.0
 10
59.5306
 20
-14.044700000000001
 30
0.0
 10
59.5306
 20
-14.044700000000001
 30
0.0
  0
SPLINE
  5
12F
100
AcDbEntity
  8
Ebene 1
370
    20
 62
     0
100
AcDbSpline
210
0.0
220
0.0
230
1.0
 70
     0
 71
     3
 72
     8
 73
     4
 74
     0
 42
0.0000000001
 43
0.0000000001
 40
0.0
 40
0.0
 40
0.0
 40
0.0
 40
1.0
 40
1.0
 40
1.0
 40
1.0
 10
59.7271
 20
-14.162600000000001
 30
0.0
 10
59.7271
 20
-14.162600000000001
 30
0.0
 10
59.7271
 20
-14.162600000000001
 30
0.0
 10
59.7271
 20
-14.162600000000001
 30
0.0
  0
SPLINE
  5
130
100
AcDbEntity
  8
Ebene 1
370
    20
 62
     0
100
AcDbSpline
210
0.0
220
0.0
230
1.0
 70
     0
 71
     3
 72
     8
 73
     4
 74
     0
 42
0.0000000001
 43
0.0000000001
 40
0.0
 40
0.0
 40
0.0
 40
0.0
 40
1.0
 40
1.0
 40
1.0
 40
1.0
 10
59.5306
 20
-14.044700000000001
 30
0.0
 10
59.5306
 20
-14.044700000000001
 30
0.0
 10
59.5306
 20
-14.044700000000001
 30
0.0
 10
59.5306
 20
-14.044700000000001
 30
0.0
  0
SPLINE
  5
131
100
AcDbEntity
  8
Ebene 1
370
    20
 62
     0
100
AcDbSpline
210
0.0
220
0.0
230
1.0
 70
     0
 71
     3
 72
     8
 73
     4
 74
     0
 42
0.0000000001
 43
0.0000000001
 40
0.0
 40
0.0
 40
0.0
 40
0.0
 40
1.0
 40
1.0
 40
1.0
 40
1.0
 10
59.864700000000006
 20
-13.907200000000001
 30
0.0
 10
59.864700000000006
 20
-13.907200000000001
 30
0.0
 10
59.864700000000006
 20
-13.907200000000001
 30
0.0
 10
59.864700000000006
 20
-13.907200000000001
 30
0.0
  0
SPLINE
  5
132
100
AcDbEntity
  8
Ebene 1
370
    20
 62
     0
100
AcDbSpline
210
0.0
220
0.0
230
1.0
 70
     0
 71
     3
 72
     8
 73
     4
 74
     0
 42
0.0000000001
 43
0.0000000001
 40
0.0
 40
0.0
 40
0.0
 40
0.0
 40
1.0
 40
1.0
 40
1.0
 40
1.0
 10
59.864700000000006
 20
-13.907200000000001
 30
0.0
 10
59.864700000000006
 20
-13.907200000000001
 30
0.0
 10
59.864700000000006
 20
-13.907200000000001
 30
0.0
 10
59.864700000000006
 20
-13.907200000000001
 30
0.0
  0
SPLINE
  5
133
100
AcDbEntity
  8
Ebene 1
370
    20
 62
     0
100
AcDbSpline
210
0.0
220
0.0
230
1.0
 70
     0
 71
     3
 72
     8
 73
     4
 74
     0
 42
0.0000000001
 43
0.0000000001
 40
0.0
 40
0.0
 40
0.0
 40
0.0
 40
1.0
 40
1.0
 40
1.0
 40
1.0
 10
59.668200000000006
 20
-13.8482
 30
0.0
 10
59.668200000000006
 20
-13.8482
 30
0.0
 10
59.668200000000006
 20
-13.8482
 30
0.0
 10
59.668200000000006
 20
-13.8482
 30
0.0
  0
SPLINE
  5
134
100
AcDbEntity
  8
Ebene 1
370
    20
 62
     0
100
AcDbSpline
210
0.0
220
0.0
230
1.0
 70
     0
 71
     3
 72
     8
 73
     4
 74
     0
 42
0.0000000001
 43
0.0000000001
 40
0.0
 40
0.0
 40
0.0
 40
0.0
 40
1.0
 40
1.0
 40
1.0
 40
1.0
 10
59.668200000000006
 20
-13.8482
 30
0.0
 10
59.668200000000006
 20
-13.8482
 30
0.0
 10
59.668200000000006
 20
-13.8482
 30
0.0
 10
59.668200000000006
 20
-13.8482
 30
0.0
  0
SPLINE
  5
135
100
AcDbEntity
  8
Ebene 1
370
    20
 62
     0
100
AcDbSpline
210
0.0
220
0.0
230
1.0
 70
     0
 71
     3
 72
     8
 73
     4
 74
     0
 42
0.0000000001
 43
0.0000000001
 40
0.0
 40
0.0
 40
0.0
 40
0.0
 40
1.0
 40
1.0
 40
1.0
 40
1.0
 10
59.393000000000001
 20
-13.769600000000001
 30
0.0
 10
59.393000000000001
 20
-13.769600000000001
 30
0.0
 10
59.393000000000001
 20
-13.769600000000001
 30
0.0
 10
59.393000000000001
 20
-13.769600000000001
 30
0.0
  0
SPLINE
  5
136
100
AcDbEntity
  8
Ebene 1
370
    20
 62
     0
100
AcDbSpline
210
0.0
220
0.0
230
1.0
 70
     0
 71
     3
 72
     8
 73
     4
 74
     0
 42
0.0000000001
 43
0.0000000001
 40
0.0
 40
0.0
 40
0.0
 40
0.0
 40
1.0
 40
1.0
 40
1.0
 40
1.0
 10
59.393000000000001
 20
-13.769600000000001
 30
0.0
 10
59.393000000000001
 20
-13.769600000000001
 30
0.0
 10
59.393000000000001
 20
-13.769600000000001
 30
0.0
 10
59.393000000000001
 20
-13.769600000000001
 30
0.0
  0
SPLINE
  5
137
100
AcDbEntity
  8
Ebene 1
370
    20
 62
     0
100
AcDbSpline
210
0.0
220
0.0
230
1.0
 70
     0
 71
     3
 72
     8
 73
     4
 74
     0
 42
0.0000000001
 43
0.0000000001
 40
0.0
 40
0.0
 40
0.0
 40
0.0
 40
1.0
 40
1.0
 40
1.0
 40
1.0
 10
59.334099999999999
 20
-13.966100000000001
 30
0.0
 10
59.334099999999999
 20
-13.966100000000001
 30
0.0
 10
59.471700000000006
 20
-14.3002
 30
0.0
 10
59.471700000000006
 20
-14.3002
 30
0.0
  0
SPLINE
  5
138
100
AcDbEntity
  8
Ebene 1
370
    20
 62
     0
100
AcDbSpline
210
0.0
220
0.0
230
1.0
 70
     0
 71
     3
 72
     8
 73
     4
 74
     0
 42
0.0000000001
 43
0.0000000001
 40
0.0
 40
0.0
 40
0.0
 40
0.0
 40
1.0
 40
1.0
 40
1.0
 40
1.0
 10
60.061199999999999
 20
-13.6517
 30
0.0
 10
60.061199999999999
 20
-13.6517
 30
0.0
 10
60.061199999999999
 20
-13.6517
 30
0.0
 10
60.061199999999999
 20
-13.6517
 30
0.0
  0
SPLINE
  5
139
100
AcDbEntity
  8
Ebene 1
370
    20
 62
     0
100
AcDbSpline
210
0.0
220
0.0
230
1.0
 70
     0
 71
     3
 72
     8
 73
     4
 74
     0
 42
0.0000000001
 43
0.0000000001
 40
0.0
 40
0.0
 40
0.0
 40
0.0
 40
1.0
 40
1.0
 40
1.0
 40
1.0
 10
60.061199999999999
 20
-13.6517
 30
0.0
 10
60.061199999999999
 20
-13.6517
 30
0.0
 10
60.061199999999999
 20
-13.6517
 30
0.0
 10
60.061199999999999
 20
-13.6517
 30
0.0
  0
SPLINE
  5
13A
100
AcDbEntity
  8
Ebene 1
370
    20
 62
     0
100
AcDbSpline
210
0.0
220
0.0
230
1.0
 70
     0
 71
     3
 72
     8
 73
     4
 74
     0
 42
0.0000000001
 43
0.0000000001
 40
0.0
 40
0.0
 40
0.0
 40
0.0
 40
1.0
 40
1.0
 40
1.0
 40
1.0
 10
59.393000000000001
 20
-13.907200000000001
 30
0.0
 10
59.393000000000001
 20
-13.907200000000001
 30
0.0
 10
59.5306
 20
-14.3002
 30
0.0
 10
59.5306
 20
-14.3002
 30
0.0
  0
SPLINE
  5
13B
100
AcDbEntity
  8
Ebene 1
370
    20
 62
     0
100
AcDbSpline
210
0.0
220
0.0
230
1.0
 70
     0
 71
     3
 72
     8
 73
     4
 74
     0
 42
0.0000000001
 43
0.0000000001
 40
0.0
 40
0.0
 40
0.0
 40
0.0
 40
1.0
 40
1.0
 40
1.0
 40
1.0
 10
60.179100000000005
 20
-13.514100000000001
 30
0.0
 10
60.179100000000005
 20
-13.514100000000001
 30
0.0
 10
60.179100000000005
 20
-13.514100000000001
 30
0.0
 10
60.179100000000005
 20
-13.514100000000001
 30
0.0
  0
SPLINE
  5
13C
100
AcDbEntity
  8
Ebene 1
370
    20
 62
     0
100
AcDbSpline
210
0.0
220
0.0
230
1.0
 70
     0
 71
     3
 72
     8
 73
     4
 74
     0
 42
0.0000000001
 43
0.0000000001
 40
0.0
 40
0.0
 40
0.0
 40
0.0
 40
1.0
 40
1.0
 40
1.0
 40
1.0
 10
60.179100000000005
 20
-13.514100000000001
 30
0.0
 10
60.179100000000005
 20
-13.514100000000001
 30
0.0
 10
60.179100000000005
 20
-13.514100000000001
 30
0.0
 10
60.179100000000005
 20
-13.514100000000001
 30
0.0
  0
SPLINE
  5
13D
100
AcDbEntity
  8
Ebene 1
370
    20
 62
     0
100
AcDbSpline
210
0.0
220
0.0
230
1.0
 70
     0
 71
     3
 72
     8
 73
     4
 74
     0
 42
0.0000000001
 43
0.0000000001
 40
0.0
 40
0.0
 40
0.0
 40
0.0
 40
1.0
 40
1.0
 40
1.0
 40
1.0
 10
59.5306
 20
-14.044700000000001
 30
0.0
 10
59.5306
 20
-14.044700000000001
 30
0.0
 10
59.589600000000004
 20
-14.3002
 30
0.0
 10
59.589600000000004
 20
-14.3002
 30
0.0
  0
SPLINE
  5
13E
100
AcDbEntity
  8
Ebene 1
370
    20
 62
     0
100
AcDbSpline
210
0.0
220
0.0
230
1.0
 70
     0
 71
     3
 72
     8
 73
     4
 74
     0
 42
0.0000000001
 43
0.0000000001
 40
0.0
 40
0.0
 40
0.0
 40
0.0
 40
1.0
 40
1.0
 40
1.0
 40
1.0
 10
59.9236
 20
-14.5557
 30
0.0
 10
59.9236
 20
-14.5557
 30
0.0
 10
59.9236
 20
-14.5557
 30
0.0
 10
59.9236
 20
-14.5557
 30
0.0
  0
SPLINE
  5
13F
100
AcDbEntity
  8
Ebene 1
370
    20
 62
     0
100
AcDbSpline
210
0.0
220
0.0
230
1.0
 70
     0
 71
     3
 72
     8
 73
     4
 74
     0
 42
0.0000000001
 43
0.0000000001
 40
0.0
 40
0.0
 40
0.0
 40
0.0
 40
1.0
 40
1.0
 40
1.0
 40
1.0
 10
59.589600000000004
 20
-14.044700000000001
 30
0.0
 10
59.589600000000004
 20
-14.044700000000001
 30
0.0
 10
59.668200000000006
 20
-14.241300000000001
 30
0.0
 10
59.668200000000006
 20
-14.241300000000001
 30
0.0
  0
SPLINE
  5
140
100
AcDbEntity
  8
Ebene 1
370
    20
 62
     0
100
AcDbSpline
210
0.0
220
0.0
230
1.0
 70
     0
 71
     3
 72
     8
 73
     4
 74
     0
 42
0.0000000001
 43
0.0000000001
 40
0.0
 40
0.0
 40
0.0
 40
0.0
 40
1.0
 40
1.0
 40
1.0
 40
1.0
 10
59.786100000000005
 20
-14.7522
 30
0.0
 10
59.786100000000005
 20
-14.7522
 30
0.0
 10
59.786100000000005
 20
-14.7522
 30
0.0
 10
59.786100000000005
 20
-14.7522
 30
0.0
  0
SPLINE
  5
141
100
AcDbEntity
  8
Ebene 1
370
    20
 62
     0
100
AcDbSpline
210
0.0
220
0.0
230
1.0
 70
     0
 71
     3
 72
     8
 73
     4
 74
     0
 42
0.0000000001
 43
0.0000000001
 40
0.0
 40
0.0
 40
0.0
 40
0.0
 40
1.0
 40
1.0
 40
1.0
 40
1.0
 10
59.786100000000005
 20
-14.7522
 30
0.0
 10
59.786100000000005
 20
-14.7522
 30
0.0
 10
59.786100000000005
 20
-14.7522
 30
0.0
 10
59.786100000000005
 20
-14.7522
 30
0.0
  0
SPLINE
  5
142
100
AcDbEntity
  8
Ebene 1
370
    20
 62
     0
100
AcDbSpline
210
0.0
220
0.0
230
1.0
 70
     0
 71
     3
 72
     8
 73
     4
 74
     0
 42
0.0000000001
 43
0.0000000001
 40
0.0
 40
0.0
 40
0.0
 40
0.0
 40
1.0
 40
1.0
 40
1.0
 40
1.0
 10
59.786100000000005
 20
-14.1037
 30
0.0
 10
59.786100000000005
 20
-14.1037
 30
0.0
 10
59.786100000000005
 20
-14.241300000000001
 30
0.0
 10
59.786100000000005
 20
-14.241300000000001
 30
0.0
  0
SPLINE
  5
143
100
AcDbEntity
  8
Ebene 1
370
    20
 62
     0
100
AcDbSpline
210
0.0
220
0.0
230
1.0
 70
     0
 71
     3
 72
     8
 73
     4
 74
     0
 42
0.0000000001
 43
0.0000000001
 40
0.0
 40
0.0
 40
0.0
 40
0.0
 40
1.0
 40
1.0
 40
1.0
 40
1.0
 10
59.668200000000006
 20
-14.162600000000001
 30
0.0
 10
59.668200000000006
 20
-14.162600000000001
 30
0.0
 10
59.7271
 20
-14.241300000000001
 30
0.0
 10
59.7271
 20
-14.241300000000001
 30
0.0
  0
SPLINE
  5
144
100
AcDbEntity
  8
Ebene 1
370
    20
 62
     0
100
AcDbSpline
210
0.0
220
0.0
230
1.0
 70
     0
 71
     3
 72
     8
 73
     4
 74
     0
 42
0.0000000001
 43
0.0000000001
 40
0.0
 40
0.0
 40
0.0
 40
0.0
 40
1.0
 40
1.0
 40
1.0
 40
1.0
 10
59.864700000000006
 20
-13.966100000000001
 30
0.0
 10
59.864700000000006
 20
-13.966100000000001
 30
0.0
 10
59.9236
 20
-13.907200000000001
 30
0.0
 10
59.9236
 20
-13.907200000000001
 30
0.0
  0
SPLINE
  5
145
100
AcDbEntity
  8
Ebene 1
370
    20
 62
     0
100
AcDbSpline
210
0.0
220
0.0
230
1.0
 70
     0
 71
     3
 72
     8
 73
     4
 74
     0
 42
0.0000000001
 43
0.0000000001
 40
0.0
 40
0.0
 40
0.0
 40
0.0
 40
1.0
 40
1.0
 40
1.0
 40
1.0
 10
59.786100000000005
 20
-13.907200000000001
 30
0.0
 10
59.786100000000005
 20
-13.907200000000001
 30
0.0
 10
59.864700000000006
 20
-13.8482
 30
0.0
 10
59.864700000000006
 20
-13.8482
 30
0.0
  0
SPLINE
  5
146
100
AcDbEntity
  8
Ebene 1
370
    20
 62
     0
100
AcDbSpline
210
0.0
220
0.0
230
1.0
 70
     0
 71
     3
 72
     8
 73
     4
 74
     0
 42
0.0000000001
 43
0.0000000001
 40
0.0
 40
0.0
 40
0.0
 40
0.0
 40
1.0
 40
1.0
 40
1.0
 40
1.0
 10
59.668200000000006
 20
-13.8482
 30
0.0
 10
59.668200000000006
 20
-13.8482
 30
0.0
 10
59.864700000000006
 20
-13.769600000000001
 30
0.0
 10
59.864700000000006
 20
-13.769600000000001
 30
0.0
  0
SPLINE
  5
147
100
AcDbEntity
  8
Ebene 1
370
    20
 62
     0
100
AcDbSpline
210
0.0
220
0.0
230
1.0
 70
     0
 71
     3
 72
     8
 73
     4
 74
     0
 42
0.0000000001
 43
0.0000000001
 40
0.0
 40
0.0
 40
0.0
 40
0.0
 40
1.0
 40
1.0
 40
1.0
 40
1.0
 10
59.7271
 20
-14.496700000000001
 30
0.0
 10
59.7271
 20
-14.496700000000001
 30
0.0
 10
59.7271
 20
-14.496700000000001
 30
0.0
 10
59.7271
 20
-14.496700000000001
 30
0.0
  0
SPLINE
  5
148
100
AcDbEntity
  8
Ebene 1
370
    20
 62
     0
100
AcDbSpline
210
0.0
220
0.0
230
1.0
 70
     0
 71
     3
 72
     8
 73
     4
 74
     0
 42
0.0000000001
 43
0.0000000001
 40
0.0
 40
0.0
 40
0.0
 40
0.0
 40
1.0
 40
1.0
 40
1.0
 40
1.0
 10
59.864700000000006
 20
-13.769600000000001
 30
0.0
 10
59.864700000000006
 20
-13.769600000000001
 30
0.0
 10
60.061199999999999
 20
-13.710700000000001
 30
0.0
 10
60.061199999999999
 20
-13.710700000000001
 30
0.0
  0
SPLINE
  5
149
100
AcDbEntity
  8
Ebene 1
370
    20
 62
     0
100
AcDbSpline
210
0.0
220
0.0
230
1.0
 70
     0
 71
     3
 72
     8
 73
     4
 74
     0
 42
0.0000000001
 43
0.0000000001
 40
0.0
 40
0.0
 40
0.0
 40
0.0
 40
1.0
 40
1.0
 40
1.0
 40
1.0
 10
59.864700000000006
 20
-13.710700000000001
 30
0.0
 10
59.864700000000006
 20
-13.710700000000001
 30
0.0
 10
60.061199999999999
 20
-13.6517
 30
0.0
 10
60.061199999999999
 20
-13.6517
 30
0.0
  0
SPLINE
  5
14A
100
AcDbEntity
  8
Ebene 1
370
    20
 62
     0
100
AcDbSpline
210
0.0
220
0.0
230
1.0
 70
     0
 71
     3
 72
     8
 73
     4
 74
     0
 42
0.0000000001
 43
0.0000000001
 40
0.0
 40
0.0
 40
0.0
 40
0.0
 40
1.0
 40
1.0
 40
1.0
 40
1.0
 10
59.786100000000005
 20
-13.6517
 30
0.0
 10
59.786100000000005
 20
-13.6517
 30
0.0
 10
60.179100000000005
 20
-13.514100000000001
 30
0.0
 10
60.179100000000005
 20
-13.514100000000001
 30
0.0
  0
SPLINE
  5
14B
100
AcDbEntity
  8
Ebene 1
370
    20
 62
     0
100
AcDbSpline
210
0.0
220
0.0
230
1.0
 70
     0
 71
     3
 72
     8
 73
     4
 74
     0
 42
0.0000000001
 43
0.0000000001
 40
0.0
 40
0.0
 40
0.0
 40
0.0
 40
1.0
 40
1.0
 40
1.0
 40
1.0
 10
59.786100000000005
 20
-13.5731
 30
0.0
 10
59.786100000000005
 20
-13.5731
 30
0.0
 10
60.179100000000005
 20
-13.455200000000001
 30
0.0
 10
60.179100000000005
 20
-13.455200000000001
 30
0.0
  0
SPLINE
  5
14C
100
AcDbEntity
  8
Ebene 1
370
    20
 62
     0
100
AcDbSpline
210
0.0
220
0.0
230
1.0
 70
     0
 71
     3
 72
     8
 73
     4
 74
     0
 42
0.0000000001
 43
0.0000000001
 40
0.0
 40
0.0
 40
0.0
 40
0.0
 40
1.0
 40
1.0
 40
1.0
 40
1.0
 10
59.786100000000005
 20
-14.7522
 30
0.0
 10
59.786100000000005
 20
-14.7522
 30
0.0
 10
60.179100000000005
 20
-14.634300000000001
 30
0.0
 10
60.179100000000005
 20
-14.634300000000001
 30
0.0
  0
SPLINE
  5
14D
100
AcDbEntity
  8
Ebene 1
370
    20
 62
     0
100
AcDbSpline
210
0.0
220
0.0
230
1.0
 70
     0
 71
     3
 72
     8
 73
     4
 74
     0
 42
0.0000000001
 43
0.0000000001
 40
0.0
 40
0.0
 40
0.0
 40
0.0
 40
1.0
 40
1.0
 40
1.0
 40
1.0
 10
59.982600000000005
 20
-14.359200000000001
 30
0.0
 10
59.982600000000005
 20
-14.359200000000001
 30
0.0
 10
59.982600000000005
 20
-14.359200000000001
 30
0.0
 10
59.982600000000005
 20
-14.359200000000001
 30
0.0
  0
SPLINE
  5
14E
100
AcDbEntity
  8
Ebene 1
370
    20
 62
     0
100
AcDbSpline
210
0.0
220
0.0
230
1.0
 70
     0
 71
     3
 72
     8
 73
     4
 74
     0
 42
0.0000000001
 43
0.0000000001
 40
0.0
 40
0.0
 40
0.0
 40
0.0
 40
1.0
 40
1.0
 40
1.0
 40
1.0
 10
59.982600000000005
 20
-14.359200000000001
 30
0.0
 10
59.982600000000005
 20
-14.359200000000001
 30
0.0
 10
59.982600000000005
 20
-14.359200000000001
 30
0.0
 10
59.982600000000005
 20
-14.359200000000001
 30
0.0
  0
SPLINE
  5
14F
100
AcDbEntity
  8
Ebene 1
370
    20
 62
     0
100
AcDbSpline
210
0.0
220
0.0
230
1.0
 70
     0
 71
     3
 72
     8
 73
     4
 74
     0
 42
0.0000000001
 43
0.0000000001
 40
0.0
 40
0.0
 40
0.0
 40
0.0
 40
1.0
 40
1.0
 40
1.0
 40
1.0
 10
59.786100000000005
 20
-14.8308
 30
0.0
 10
59.786100000000005
 20
-14.8308
 30
0.0
 10
60.179100000000005
 20
-14.693200000000001
 30
0.0
 10
60.179100000000005
 20
-14.693200000000001
 30
0.0
  0
SPLINE
  5
150
100
AcDbEntity
  8
Ebene 1
370
    20
 62
     0
100
AcDbSpline
210
0.0
220
0.0
230
1.0
 70
     0
 71
     3
 72
     8
 73
     4
 74
     0
 42
0.0000000001
 43
0.0000000001
 40
0.0
 40
0.0
 40
0.0
 40
0.0
 40
1.0
 40
1.0
 40
1.0
 40
1.0
 10
59.078600000000002
 20
-13.710700000000001
 30
0.0
 10
59.078600000000002
 20
-13.710700000000001
 30
0.0
 10
59.334099999999999
 20
-14.359200000000001
 30
0.0
 10
59.334099999999999
 20
-14.359200000000001
 30
0.0
  0
SPLINE
  5
151
100
AcDbEntity
  8
Ebene 1
370
    20
 62
     0
100
AcDbSpline
210
0.0
220
0.0
230
1.0
 70
     0
 71
     3
 72
     8
 73
     4
 74
     0
 42
0.0000000001
 43
0.0000000001
 40
0.0
 40
0.0
 40
0.0
 40
0.0
 40
1.0
 40
1.0
 40
1.0
 40
1.0
 10
59.9236
 20
-14.5557
 30
0.0
 10
59.9236
 20
-14.5557
 30
0.0
 10
59.9236
 20
-14.5557
 30
0.0
 10
59.9236
 20
-14.5557
 30
0.0
  0
SPLINE
  5
152
100
AcDbEntity
  8
Ebene 1
370
    20
 62
     0
100
AcDbSpline
210
0.0
220
0.0
230
1.0
 70
     0
 71
     3
 72
     8
 73
     4
 74
     0
 42
0.0000000001
 43
0.0000000001
 40
0.0
 40
0.0
 40
0.0
 40
0.0
 40
1.0
 40
1.0
 40
1.0
 40
1.0
 10
59.078600000000002
 20
-13.710700000000001
 30
0.0
 10
59.078600000000002
 20
-13.710700000000001
 30
0.0
 10
59.7271
 20
-13.455200000000001
 30
0.0
 10
59.7271
 20
-13.455200000000001
 30
0.0
  0
SPLINE
  5
153
100
AcDbEntity
  8
Ebene 1
370
    20
 62
     0
100
AcDbSpline
210
0.0
220
0.0
230
1.0
 70
     0
 71
     3
 72
     8
 73
     4
 74
     0
 42
0.0000000001
 43
0.0000000001
 40
0.0
 40
0.0
 40
0.0
 40
0.0
 40
1.0
 40
1.0
 40
1.0
 40
1.0
 10
59.137600000000006
 20
-13.710700000000001
 30
0.0
 10
59.137600000000006
 20
-13.710700000000001
 30
0.0
 10
59.393000000000001
 20
-14.359200000000001
 30
0.0
 10
59.393000000000001
 20
-14.359200000000001
 30
0.0
  0
SPLINE
  5
154
100
AcDbEntity
  8
Ebene 1
370
    20
 62
     0
100
AcDbSpline
210
0.0
220
0.0
230
1.0
 70
     0
 71
     3
 72
     8
 73
     4
 74
     0
 42
0.0000000001
 43
0.0000000001
 40
0.0
 40
0.0
 40
0.0
 40
0.0
 40
1.0
 40
1.0
 40
1.0
 40
1.0
 10
59.982600000000005
 20
-13.8482
 30
0.0
 10
59.982600000000005
 20
-13.8482
 30
0.0
 10
59.982600000000005
 20
-13.8482
 30
0.0
 10
59.982600000000005
 20
-13.8482
 30
0.0
  0
SPLINE
  5
155
100
AcDbEntity
  8
Ebene 1
370
    20
 62
     0
100
AcDbSpline
210
0.0
220
0.0
230
1.0
 70
     0
 71
     3
 72
     8
 73
     4
 74
     0
 42
0.0000000001
 43
0.0000000001
 40
0.0
 40
0.0
 40
0.0
 40
0.0
 40
1.0
 40
1.0
 40
1.0
 40
1.0
 10
59.982600000000005
 20
-13.8482
 30
0.0
 10
59.982600000000005
 20
-13.8482
 30
0.0
 10
59.982600000000005
 20
-13.8482
 30
0.0
 10
59.982600000000005
 20
-13.8482
 30
0.0
  0
SPLINE
  5
156
100
AcDbEntity
  8
Ebene 1
370
    20
 62
     0
100
AcDbSpline
210
0.0
220
0.0
230
1.0
 70
     0
 71
     3
 72
     8
 73
     4
 74
     0
 42
0.0000000001
 43
0.0000000001
 40
0.0
 40
0.0
 40
0.0
 40
0.0
 40
1.0
 40
1.0
 40
1.0
 40
1.0
 10
59.137600000000006
 20
-13.710700000000001
 30
0.0
 10
59.137600000000006
 20
-13.710700000000001
 30
0.0
 10
59.786100000000005
 20
-13.514100000000001
 30
0.0
 10
59.786100000000005
 20
-13.514100000000001
 30
0.0
  0
SPLINE
  5
157
100
AcDbEntity
  8
Ebene 1
370
    20
 62
     0
100
AcDbSpline
210
0.0
220
0.0
230
1.0
 70
     0
 71
     3
 72
     8
 73
     4
 74
     0
 42
0.0000000001
 43
0.0000000001
 40
0.0
 40
0.0
 40
0.0
 40
0.0
 40
1.0
 40
1.0
 40
1.0
 40
1.0
 10
59.5306
 20
-14.3002
 30
0.0
 10
59.5306
 20
-14.3002
 30
0.0
 10
59.668200000000006
 20
-14.693200000000001
 30
0.0
 10
59.668200000000006
 20
-14.693200000000001
 30
0.0
  0
SPLINE
  5
158
100
AcDbEntity
  8
Ebene 1
370
    20
 62
     0
100
AcDbSpline
210
0.0
220
0.0
230
1.0
 70
     0
 71
     3
 72
     8
 73
     4
 74
     0
 42
0.0000000001
 43
0.0000000001
 40
0.0
 40
0.0
 40
0.0
 40
0.0
 40
1.0
 40
1.0
 40
1.0
 40
1.0
 10
59.589600000000004
 20
-14.3002
 30
0.0
 10
59.589600000000004
 20
-14.3002
 30
0.0
 10
59.668200000000006
 20
-14.496700000000001
 30
0.0
 10
59.668200000000006
 20
-14.496700000000001
 30
0.0
  0
SPLINE
  5
159
100
AcDbEntity
  8
Ebene 1
370
    20
 62
     0
100
AcDbSpline
210
0.0
220
0.0
230
1.0
 70
     0
 71
     3
 72
     8
 73
     4
 74
     0
 42
0.0000000001
 43
0.0000000001
 40
0.0
 40
0.0
 40
0.0
 40
0.0
 40
1.0
 40
1.0
 40
1.0
 40
1.0
 10
59.668200000000006
 20
-14.241300000000001
 30
0.0
 10
59.668200000000006
 20
-14.241300000000001
 30
0.0
 10
59.7271
 20
-14.496700000000001
 30
0.0
 10
59.7271
 20
-14.496700000000001
 30
0.0
  0
SPLINE
  5
15A
100
AcDbEntity
  8
Ebene 1
370
    20
 62
     0
100
AcDbSpline
210
0.0
220
0.0
230
1.0
 70
     0
 71
     3
 72
     8
 73
     4
 74
     0
 42
0.0000000001
 43
0.0000000001
 40
0.0
 40
0.0
 40
0.0
 40
0.0
 40
1.0
 40
1.0
 40
1.0
 40
1.0
 10
59.786100000000005
 20
-14.241300000000001
 30
0.0
 10
59.786100000000005
 20
-14.241300000000001
 30
0.0
 10
59.786100000000005
 20
-14.3002
 30
0.0
 10
59.786100000000005
 20
-14.3002
 30
0.0
  0
SPLINE
  5
15B
100
AcDbEntity
  8
Ebene 1
370
    20
 62
     0
100
AcDbSpline
210
0.0
220
0.0
230
1.0
 70
     0
 71
     3
 72
     8
 73
     4
 74
     0
 42
0.0000000001
 43
0.0000000001
 40
0.0
 40
0.0
 40
0.0
 40
0.0
 40
1.0
 40
1.0
 40
1.0
 40
1.0
 10
59.7271
 20
-14.241300000000001
 30
0.0
 10
59.7271
 20
-14.241300000000001
 30
0.0
 10
59.7271
 20
-14.3002
 30
0.0
 10
59.7271
 20
-14.3002
 30
0.0
  0
SPLINE
  5
15C
100
AcDbEntity
  8
Ebene 1
370
    20
 62
     0
100
AcDbSpline
210
0.0
220
0.0
230
1.0
 70
     0
 71
     3
 72
     8
 73
     4
 74
     0
 42
0.0000000001
 43
0.0000000001
 40
0.0
 40
0.0
 40
0.0
 40
0.0
 40
1.0
 40
1.0
 40
1.0
 40
1.0
 10
59.982600000000005
 20
-14.359200000000001
 30
0.0
 10
59.982600000000005
 20
-14.359200000000001
 30
0.0
 10
60.061199999999999
 20
-14.359200000000001
 30
0.0
 10
60.061199999999999
 20
-14.359200000000001
 30
0.0
  0
SPLINE
  5
15D
100
AcDbEntity
  8
Ebene 1
370
    20
 62
     0
100
AcDbSpline
210
0.0
220
0.0
230
1.0
 70
     0
 71
     3
 72
     8
 73
     4
 74
     0
 42
0.0000000001
 43
0.0000000001
 40
0.0
 40
0.0
 40
0.0
 40
0.0
 40
1.0
 40
1.0
 40
1.0
 40
1.0
 10
59.589600000000004
 20
-14.693200000000001
 30
0.0
 10
59.589600000000004
 20
-14.693200000000001
 30
0.0
 10
59.589600000000004
 20
-14.693200000000001
 30
0.0
 10
59.589600000000004
 20
-14.693200000000001
 30
0.0
  0
SPLINE
  5
15E
100
AcDbEntity
  8
Ebene 1
370
    20
 62
     0
100
AcDbSpline
210
0.0
220
0.0
230
1.0
 70
     0
 71
     3
 72
     8
 73
     4
 74
     0
 42
0.0000000001
 43
0.0000000001
 40
0.0
 40
0.0
 40
0.0
 40
0.0
 40
1.0
 40
1.0
 40
1.0
 40
1.0
 10
59.982600000000005
 20
-14.437800000000001
 30
0.0
 10
59.982600000000005
 20
-14.437800000000001
 30
0.0
 10
60.061199999999999
 20
-14.437800000000001
 30
0.0
 10
60.061199999999999
 20
-14.437800000000001
 30
0.0
  0
SPLINE
  5
15F
100
AcDbEntity
  8
Ebene 1
370
    20
 62
     0
100
AcDbSpline
210
0.0
220
0.0
230
1.0
 70
     0
 71
     3
 72
     8
 73
     4
 74
     0
 42
0.0000000001
 43
0.0000000001
 40
0.0
 40
0.0
 40
0.0
 40
0.0
 40
1.0
 40
1.0
 40
1.0
 40
1.0
 10
59.9236
 20
-14.5557
 30
0.0
 10
59.9236
 20
-14.5557
 30
0.0
 10
60.120200000000004
 20
-14.496700000000001
 30
0.0
 10
60.120200000000004
 20
-14.496700000000001
 30
0.0
  0
SPLINE
  5
160
100
AcDbEntity
  8
Ebene 1
370
    20
 62
     0
100
AcDbSpline
210
0.0
220
0.0
230
1.0
 70
     0
 71
     3
 72
     8
 73
     4
 74
     0
 42
0.0000000001
 43
0.0000000001
 40
0.0
 40
0.0
 40
0.0
 40
0.0
 40
1.0
 40
1.0
 40
1.0
 40
1.0
 10
59.9236
 20
-14.634300000000001
 30
0.0
 10
59.9236
 20
-14.634300000000001
 30
0.0
 10
60.120200000000004
 20
-14.5557
 30
0.0
 10
60.120200000000004
 20
-14.5557
 30
0.0
  0
SPLINE
  5
161
100
AcDbEntity
  8
Ebene 1
370
    20
 62
     0
100
AcDbSpline
210
0.0
220
0.0
230
1.0
 70
     0
 71
     3
 72
     8
 73
     4
 74
     0
 42
0.0000000001
 43
0.0000000001
 40
0.0
 40
0.0
 40
0.0
 40
0.0
 40
1.0
 40
1.0
 40
1.0
 40
1.0
 10
59.9236
 20
-13.907200000000001
 30
0.0
 10
59.9236
 20
-13.907200000000001
 30
0.0
 10
59.982600000000005
 20
-13.907200000000001
 30
0.0
 10
59.982600000000005
 20
-13.907200000000001
 30
0.0
  0
SPLINE
  5
162
100
AcDbEntity
  8
Ebene 1
370
    20
 62
     0
100
AcDbSpline
210
0.0
220
0.0
230
1.0
 70
     0
 71
     3
 72
     8
 73
     4
 74
     0
 42
0.0000000001
 43
0.0000000001
 40
0.0
 40
0.0
 40
0.0
 40
0.0
 40
1.0
 40
1.0
 40
1.0
 40
1.0
 10
59.786100000000005
 20
-14.3002
 30
0.0
 10
59.786100000000005
 20
-14.3002
 30
0.0
 10
59.786100000000005
 20
-14.3002
 30
0.0
 10
59.786100000000005
 20
-14.3002
 30
0.0
  0
SPLINE
  5
163
100
AcDbEntity
  8
Ebene 1
370
    20
 62
     0
100
AcDbSpline
210
0.0
220
0.0
230
1.0
 70
     0
 71
     3
 72
     8
 73
     4
 74
     0
 42
0.0000000001
 43
0.0000000001
 40
0.0
 40
0.0
 40
0.0
 40
0.0
 40
1.0
 40
1.0
 40
1.0
 40
1.0
 10
59.589600000000004
 20
-14.693200000000001
 30
0.0
 10
59.589600000000004
 20
-14.693200000000001
 30
0.0
 10
59.589600000000004
 20
-14.693200000000001
 30
0.0
 10
59.589600000000004
 20
-14.693200000000001
 30
0.0
  0
SPLINE
  5
164
100
AcDbEntity
  8
Ebene 1
370
    20
 62
     0
100
AcDbSpline
210
0.0
220
0.0
230
1.0
 70
     0
 71
     3
 72
     8
 73
     4
 74
     0
 42
0.0000000001
 43
0.0000000001
 40
0.0
 40
0.0
 40
0.0
 40
0.0
 40
1.0
 40
1.0
 40
1.0
 40
1.0
 10
59.7271
 20
-14.496700000000001
 30
0.0
 10
59.7271
 20
-14.496700000000001
 30
0.0
 10
59.7271
 20
-14.496700000000001
 30
0.0
 10
59.7271
 20
-14.496700000000001
 30
0.0
  0
SPLINE
  5
165
100
AcDbEntity
  8
Ebene 1
370
    20
 62
     0
100
AcDbSpline
210
0.0
220
0.0
230
1.0
 70
     0
 71
     3
 72
     8
 73
     4
 74
     0
 42
0.0000000001
 43
0.0000000001
 40
0.0
 40
0.0
 40
0.0
 40
0.0
 40
1.0
 40
1.0
 40
1.0
 40
1.0
 10
59.864700000000006
 20
-13.8482
 30
0.0
 10
59.864700000000006
 20
-13.8482
 30
0.0
 10
59.982600000000005
 20
-13.8482
 30
0.0
 10
59.982600000000005
 20
-13.8482
 30
0.0
  0
SPLINE
  5
166
100
AcDbEntity
  8
Ebene 1
370
    20
 62
     0
100
AcDbSpline
210
0.0
220
0.0
230
1.0
 70
     0
 71
     3
 72
     8
 73
     4
 74
     0
 42
0.0000000001
 43
0.0000000001
 40
0.0
 40
0.0
 40
0.0
 40
0.0
 40
1.0
 40
1.0
 40
1.0
 40
1.0
 10
59.786100000000005
 20
-14.3002
 30
0.0
 10
59.786100000000005
 20
-14.3002
 30
0.0
 10
59.786100000000005
 20
-14.3002
 30
0.0
 10
59.786100000000005
 20
-14.3002
 30
0.0
  0
SPLINE
  5
167
100
AcDbEntity
  8
Ebene 1
370
    20
 62
     0
100
AcDbSpline
210
0.0
220
0.0
230
1.0
 70
     0
 71
     3
 72
     8
 73
     4
 74
     0
 42
0.0000000001
 43
0.0000000001
 40
0.0
 40
0.0
 40
0.0
 40
0.0
 40
1.0
 40
1.0
 40
1.0
 40
1.0
 10
60.2577
 20
-14.1037
 30
0.0
 10
60.2577
 20
-14.1037
 30
0.0
 10
60.2577
 20
-14.1037
 30
0.0
 10
60.2577
 20
-14.1037
 30
0.0
  0
SPLINE
  5
168
100
AcDbEntity
  8
Ebene 1
370
    20
 62
     0
100
AcDbSpline
210
0.0
220
0.0
230
1.0
 70
     0
 71
     3
 72
     8
 73
     4
 74
     0
 42
0.0000000001
 43
0.0000000001
 40
0.0
 40
0.0
 40
0.0
 40
0.0
 40
1.0
 40
1.0
 40
1.0
 40
1.0
 10
60.454300000000003
 20
-14.241300000000001
 30
0.0
 10
60.454300000000003
 20
-14.241300000000001
 30
0.0
 10
60.454300000000003
 20
-14.241300000000001
 30
0.0
 10
60.454300000000003
 20
-14.241300000000001
 30
0.0
  0
SPLINE
  5
169
100
AcDbEntity
  8
Ebene 1
370
    20
 62
     0
100
AcDbSpline
210
0.0
220
0.0
230
1.0
 70
     0
 71
     3
 72
     8
 73
     4
 74
     0
 42
0.0000000001
 43
0.0000000001
 40
0.0
 40
0.0
 40
0.0
 40
0.0
 40
1.0
 40
1.0
 40
1.0
 40
1.0
 10
60.120200000000004
 20
-14.5557
 30
0.0
 10
60.120200000000004
 20
-14.5557
 30
0.0
 10
60.375600000000006
 20
-14.437800000000001
 30
0.0
 10
60.375600000000006
 20
-14.437800000000001
 30
0.0
  0
SPLINE
  5
16A
100
AcDbEntity
  8
Ebene 1
370
    20
 62
     0
100
AcDbSpline
210
0.0
220
0.0
230
1.0
 70
     0
 71
     3
 72
     8
 73
     4
 74
     0
 42
0.0000000001
 43
0.0000000001
 40
0.0
 40
0.0
 40
0.0
 40
0.0
 40
1.0
 40
1.0
 40
1.0
 40
1.0
 10
60.179100000000005
 20
-14.634300000000001
 30
0.0
 10
60.179100000000005
 20
-14.634300000000001
 30
0.0
 10
60.513200000000005
 20
-14.496700000000001
 30
0.0
 10
60.513200000000005
 20
-14.496700000000001
 30
0.0
  0
SPLINE
  5
16B
100
AcDbEntity
  8
Ebene 1
370
    20
 62
     0
100
AcDbSpline
210
0.0
220
0.0
230
1.0
 70
     0
 71
     3
 72
     8
 73
     4
 74
     0
 42
0.0000000001
 43
0.0000000001
 40
0.0
 40
0.0
 40
0.0
 40
0.0
 40
1.0
 40
1.0
 40
1.0
 40
1.0
 10
60.179100000000005
 20
-14.693200000000001
 30
0.0
 10
60.179100000000005
 20
-14.693200000000001
 30
0.0
 10
60.572200000000002
 20
-14.5557
 30
0.0
 10
60.572200000000002
 20
-14.5557
 30
0.0
  0
SPLINE
  5
16C
100
AcDbEntity
  8
Ebene 1
370
    20
 62
     0
100
AcDbSpline
210
0.0
220
0.0
230
1.0
 70
     0
 71
     3
 72
     8
 73
     4
 74
     0
 42
0.0000000001
 43
0.0000000001
 40
0.0
 40
0.0
 40
0.0
 40
0.0
 40
1.0
 40
1.0
 40
1.0
 40
1.0
 10
59.334099999999999
 20
-14.359200000000001
 30
0.0
 10
59.334099999999999
 20
-14.359200000000001
 30
0.0
 10
59.5306
 20
-15.0273
 30
0.0
 10
59.5306
 20
-15.0273
 30
0.0
  0
SPLINE
  5
16D
100
AcDbEntity
  8
Ebene 1
370
    20
 62
     0
100
AcDbSpline
210
0.0
220
0.0
230
1.0
 70
     0
 71
     3
 72
     8
 73
     4
 74
     0
 42
0.0000000001
 43
0.0000000001
 40
0.0
 40
0.0
 40
0.0
 40
0.0
 40
1.0
 40
1.0
 40
1.0
 40
1.0
 10
59.5306
 20
-15.0273
 30
0.0
 10
59.5306
 20
-15.0273
 30
0.0
 10
60.2577
 20
-14.8308
 30
0.0
 10
60.2577
 20
-14.8308
 30
0.0
  0
SPLINE
  5
16E
100
AcDbEntity
  8
Ebene 1
370
    20
 62
     0
100
AcDbSpline
210
0.0
220
0.0
230
1.0
 70
     0
 71
     3
 72
     8
 73
     4
 74
     0
 42
0.0000000001
 43
0.0000000001
 40
0.0
 40
0.0
 40
0.0
 40
0.0
 40
1.0
 40
1.0
 40
1.0
 40
1.0
 10
60.120200000000004
 20
-14.359200000000001
 30
0.0
 10
60.120200000000004
 20
-14.359200000000001
 30
0.0
 10
60.120200000000004
 20
-14.359200000000001
 30
0.0
 10
60.120200000000004
 20
-14.359200000000001
 30
0.0
  0
SPLINE
  5
16F
100
AcDbEntity
  8
Ebene 1
370
    20
 62
     0
100
AcDbSpline
210
0.0
220
0.0
230
1.0
 70
     0
 71
     3
 72
     8
 73
     4
 74
     0
 42
0.0000000001
 43
0.0000000001
 40
0.0
 40
0.0
 40
0.0
 40
0.0
 40
1.0
 40
1.0
 40
1.0
 40
1.0
 10
60.120200000000004
 20
-14.359200000000001
 30
0.0
 10
60.120200000000004
 20
-14.359200000000001
 30
0.0
 10
60.120200000000004
 20
-14.359200000000001
 30
0.0
 10
60.120200000000004
 20
-14.359200000000001
 30
0.0
  0
SPLINE
  5
170
100
AcDbEntity
  8
Ebene 1
370
    20
 62
     0
100
AcDbSpline
210
0.0
220
0.0
230
1.0
 70
     0
 71
     3
 72
     8
 73
     4
 74
     0
 42
0.0000000001
 43
0.0000000001
 40
0.0
 40
0.0
 40
0.0
 40
0.0
 40
1.0
 40
1.0
 40
1.0
 40
1.0
 10
59.393000000000001
 20
-14.359200000000001
 30
0.0
 10
59.393000000000001
 20
-14.359200000000001
 30
0.0
 10
59.589600000000004
 20
-14.948700000000001
 30
0.0
 10
59.589600000000004
 20
-14.948700000000001
 30
0.0
  0
SPLINE
  5
171
100
AcDbEntity
  8
Ebene 1
370
    20
 62
     0
100
AcDbSpline
210
0.0
220
0.0
230
1.0
 70
     0
 71
     3
 72
     8
 73
     4
 74
     0
 42
0.0000000001
 43
0.0000000001
 40
0.0
 40
0.0
 40
0.0
 40
0.0
 40
1.0
 40
1.0
 40
1.0
 40
1.0
 10
59.589600000000004
 20
-14.948700000000001
 30
0.0
 10
59.589600000000004
 20
-14.948700000000001
 30
0.0
 10
60.179100000000005
 20
-14.7522
 30
0.0
 10
60.179100000000005
 20
-14.7522
 30
0.0
  0
SPLINE
  5
172
100
AcDbEntity
  8
Ebene 1
370
    20
 62
     0
100
AcDbSpline
210
0.0
220
0.0
230
1.0
 70
     0
 71
     3
 72
     8
 73
     4
 74
     0
 42
0.0000000001
 43
0.0000000001
 40
0.0
 40
0.0
 40
0.0
 40
0.0
 40
1.0
 40
1.0
 40
1.0
 40
1.0
 10
60.316700000000004
 20
-14.437800000000001
 30
0.0
 10
60.316700000000004
 20
-14.437800000000001
 30
0.0
 10
60.316700000000004
 20
-14.437800000000001
 30
0.0
 10
60.316700000000004
 20
-14.437800000000001
 30
0.0
  0
SPLINE
  5
173
100
AcDbEntity
  8
Ebene 1
370
    20
 62
     0
100
AcDbSpline
210
0.0
220
0.0
230
1.0
 70
     0
 71
     3
 72
     8
 73
     4
 74
     0
 42
0.0000000001
 43
0.0000000001
 40
0.0
 40
0.0
 40
0.0
 40
0.0
 40
1.0
 40
1.0
 40
1.0
 40
1.0
 10
60.316700000000004
 20
-14.437800000000001
 30
0.0
 10
60.316700000000004
 20
-14.437800000000001
 30
0.0
 10
60.316700000000004
 20
-14.437800000000001
 30
0.0
 10
60.316700000000004
 20
-14.437800000000001
 30
0.0
  0
SPLINE
  5
174
100
AcDbEntity
  8
Ebene 1
370
    20
 62
     0
100
AcDbSpline
210
0.0
220
0.0
230
1.0
 70
     0
 71
     3
 72
     8
 73
     4
 74
     0
 42
0.0000000001
 43
0.0000000001
 40
0.0
 40
0.0
 40
0.0
 40
0.0
 40
1.0
 40
1.0
 40
1.0
 40
1.0
 10
59.471700000000006
 20
-14.3002
 30
0.0
 10
59.471700000000006
 20
-14.3002
 30
0.0
 10
59.589600000000004
 20
-14.693200000000001
 30
0.0
 10
59.589600000000004
 20
-14.693200000000001
 30
0.0
  0
SPLINE
  5
175
100
AcDbEntity
  8
Ebene 1
370
    20
 62
     0
100
AcDbSpline
210
0.0
220
0.0
230
1.0
 70
     0
 71
     3
 72
     8
 73
     4
 74
     0
 42
0.0000000001
 43
0.0000000001
 40
0.0
 40
0.0
 40
0.0
 40
0.0
 40
1.0
 40
1.0
 40
1.0
 40
1.0
 10
60.513200000000005
 20
-14.496700000000001
 30
0.0
 10
60.513200000000005
 20
-14.496700000000001
 30
0.0
 10
60.513200000000005
 20
-14.496700000000001
 30
0.0
 10
60.513200000000005
 20
-14.496700000000001
 30
0.0
  0
SPLINE
  5
176
100
AcDbEntity
  8
Ebene 1
370
    20
 62
     0
100
AcDbSpline
210
0.0
220
0.0
230
1.0
 70
     0
 71
     3
 72
     8
 73
     4
 74
     0
 42
0.0000000001
 43
0.0000000001
 40
0.0
 40
0.0
 40
0.0
 40
0.0
 40
1.0
 40
1.0
 40
1.0
 40
1.0
 10
60.513200000000005
 20
-14.496700000000001
 30
0.0
 10
60.513200000000005
 20
-14.496700000000001
 30
0.0
 10
60.513200000000005
 20
-14.496700000000001
 30
0.0
 10
60.513200000000005
 20
-14.496700000000001
 30
0.0
  0
SPLINE
  5
177
100
AcDbEntity
  8
Ebene 1
370
    20
 62
     0
100
AcDbSpline
210
0.0
220
0.0
230
1.0
 70
     0
 71
     3
 72
     8
 73
     4
 74
     0
 42
0.0000000001
 43
0.0000000001
 40
0.0
 40
0.0
 40
0.0
 40
0.0
 40
1.0
 40
1.0
 40
1.0
 40
1.0
 10
60.2577
 20
-14.8308
 30
0.0
 10
60.2577
 20
-14.8308
 30
0.0
 10
60.906200000000005
 20
-14.5557
 30
0.0
 10
60.906200000000005
 20
-14.5557
 30
0.0
  0
SPLINE
  5
178
100
AcDbEntity
  8
Ebene 1
370
    20
 62
     0
100
AcDbSpline
210
0.0
220
0.0
230
1.0
 70
     0
 71
     3
 72
     8
 73
     4
 74
     0
 42
0.0000000001
 43
0.0000000001
 40
0.0
 40
0.0
 40
0.0
 40
0.0
 40
1.0
 40
1.0
 40
1.0
 40
1.0
 10
60.572200000000002
 20
-13.907200000000001
 30
0.0
 10
60.572200000000002
 20
-13.907200000000001
 30
0.0
 10
60.847300000000004
 20
-14.496700000000001
 30
0.0
 10
60.847300000000004
 20
-14.496700000000001
 30
0.0
  0
SPLINE
  5
179
100
AcDbEntity
  8
Ebene 1
370
    20
 62
     0
100
AcDbSpline
210
0.0
220
0.0
230
1.0
 70
     0
 71
     3
 72
     8
 73
     4
 74
     0
 42
0.0000000001
 43
0.0000000001
 40
0.0
 40
0.0
 40
0.0
 40
0.0
 40
1.0
 40
1.0
 40
1.0
 40
1.0
 10
60.179100000000005
 20
-14.7522
 30
0.0
 10
60.179100000000005
 20
-14.7522
 30
0.0
 10
60.847300000000004
 20
-14.496700000000001
 30
0.0
 10
60.847300000000004
 20
-14.496700000000001
 30
0.0
  0
SPLINE
  5
17A
100
AcDbEntity
  8
Ebene 1
370
    20
 62
     0
100
AcDbSpline
210
0.0
220
0.0
230
1.0
 70
     0
 71
     3
 72
     8
 73
     4
 74
     0
 42
0.0000000001
 43
0.0000000001
 40
0.0
 40
0.0
 40
0.0
 40
0.0
 40
1.0
 40
1.0
 40
1.0
 40
1.0
 10
60.513200000000005
 20
-13.907200000000001
 30
0.0
 10
60.513200000000005
 20
-13.907200000000001
 30
0.0
 10
60.650800000000004
 20
-14.3002
 30
0.0
 10
60.650800000000004
 20
-14.3002
 30
0.0
  0
SPLINE
  5
17B
100
AcDbEntity
  8
Ebene 1
370
    20
 62
     0
100
AcDbSpline
210
0.0
220
0.0
230
1.0
 70
     0
 71
     3
 72
     8
 73
     4
 74
     0
 42
0.0000000001
 43
0.0000000001
 40
0.0
 40
0.0
 40
0.0
 40
0.0
 40
1.0
 40
1.0
 40
1.0
 40
1.0
 10
60.454300000000003
 20
-13.966100000000001
 30
0.0
 10
60.454300000000003
 20
-13.966100000000001
 30
0.0
 10
60.572200000000002
 20
-14.3002
 30
0.0
 10
60.572200000000002
 20
-14.3002
 30
0.0
  0
SPLINE
  5
17C
100
AcDbEntity
  8
Ebene 1
370
    20
 62
     0
100
AcDbSpline
210
0.0
220
0.0
230
1.0
 70
     0
 71
     3
 72
     8
 73
     4
 74
     0
 42
0.0000000001
 43
0.0000000001
 40
0.0
 40
0.0
 40
0.0
 40
0.0
 40
1.0
 40
1.0
 40
1.0
 40
1.0
 10
60.375600000000006
 20
-13.966100000000001
 30
0.0
 10
60.375600000000006
 20
-13.966100000000001
 30
0.0
 10
60.454300000000003
 20
-14.241300000000001
 30
0.0
 10
60.454300000000003
 20
-14.241300000000001
 30
0.0
  0
SPLINE
  5
17D
100
AcDbEntity
  8
Ebene 1
370
    20
 62
     0
100
AcDbSpline
210
0.0
220
0.0
230
1.0
 70
     0
 71
     3
 72
     8
 73
     4
 74
     0
 42
0.0000000001
 43
0.0000000001
 40
0.0
 40
0.0
 40
0.0
 40
0.0
 40
1.0
 40
1.0
 40
1.0
 40
1.0
 10
60.316700000000004
 20
-14.044700000000001
 30
0.0
 10
60.316700000000004
 20
-14.044700000000001
 30
0.0
 10
60.375600000000006
 20
-14.241300000000001
 30
0.0
 10
60.375600000000006
 20
-14.241300000000001
 30
0.0
  0
SPLINE
  5
17E
100
AcDbEntity
  8
Ebene 1
370
    20
 62
     0
100
AcDbSpline
210
0.0
220
0.0
230
1.0
 70
     0
 71
     3
 72
     8
 73
     4
 74
     0
 42
0.0000000001
 43
0.0000000001
 40
0.0
 40
0.0
 40
0.0
 40
0.0
 40
1.0
 40
1.0
 40
1.0
 40
1.0
 10
60.650800000000004
 20
-14.3002
 30
0.0
 10
60.650800000000004
 20
-14.3002
 30
0.0
 10
60.650800000000004
 20
-14.3002
 30
0.0
 10
60.650800000000004
 20
-14.3002
 30
0.0
  0
SPLINE
  5
17F
100
AcDbEntity
  8
Ebene 1
370
    20
 62
     0
100
AcDbSpline
210
0.0
220
0.0
230
1.0
 70
     0
 71
     3
 72
     8
 73
     4
 74
     0
 42
0.0000000001
 43
0.0000000001
 40
0.0
 40
0.0
 40
0.0
 40
0.0
 40
1.0
 40
1.0
 40
1.0
 40
1.0
 10
60.179100000000005
 20
-14.044700000000001
 30
0.0
 10
60.179100000000005
 20
-14.044700000000001
 30
0.0
 10
60.179100000000005
 20
-14.1037
 30
0.0
 10
60.179100000000005
 20
-14.1037
 30
0.0
  0
SPLINE
  5
180
100
AcDbEntity
  8
Ebene 1
370
    20
 62
     0
100
AcDbSpline
210
0.0
220
0.0
230
1.0
 70
     0
 71
     3
 72
     8
 73
     4
 74
     0
 42
0.0000000001
 43
0.0000000001
 40
0.0
 40
0.0
 40
0.0
 40
0.0
 40
1.0
 40
1.0
 40
1.0
 40
1.0
 10
60.2577
 20
-14.044700000000001
 30
0.0
 10
60.2577
 20
-14.044700000000001
 30
0.0
 10
60.2577
 20
-14.1037
 30
0.0
 10
60.2577
 20
-14.1037
 30
0.0
  0
SPLINE
  5
181
100
AcDbEntity
  8
Ebene 1
370
    20
 62
     0
100
AcDbSpline
210
0.0
220
0.0
230
1.0
 70
     0
 71
     3
 72
     8
 73
     4
 74
     0
 42
0.0000000001
 43
0.0000000001
 40
0.0
 40
0.0
 40
0.0
 40
0.0
 40
1.0
 40
1.0
 40
1.0
 40
1.0
 10
60.061199999999999
 20
-14.359200000000001
 30
0.0
 10
60.061199999999999
 20
-14.359200000000001
 30
0.0
 10
60.120200000000004
 20
-14.3002
 30
0.0
 10
60.120200000000004
 20
-14.3002
 30
0.0
  0
SPLINE
  5
182
100
AcDbEntity
  8
Ebene 1
370
    20
 62
     0
100
AcDbSpline
210
0.0
220
0.0
230
1.0
 70
     0
 71
     3
 72
     8
 73
     4
 74
     0
 42
0.0000000001
 43
0.0000000001
 40
0.0
 40
0.0
 40
0.0
 40
0.0
 40
1.0
 40
1.0
 40
1.0
 40
1.0
 10
60.061199999999999
 20
-14.437800000000001
 30
0.0
 10
60.061199999999999
 20
-14.437800000000001
 30
0.0
 10
60.179100000000005
 20
-14.359200000000001
 30
0.0
 10
60.179100000000005
 20
-14.359200000000001
 30
0.0
  0
SPLINE
  5
183
100
AcDbEntity
  8
Ebene 1
370
    20
 62
     0
100
AcDbSpline
210
0.0
220
0.0
230
1.0
 70
     0
 71
     3
 72
     8
 73
     4
 74
     0
 42
0.0000000001
 43
0.0000000001
 40
0.0
 40
0.0
 40
0.0
 40
0.0
 40
1.0
 40
1.0
 40
1.0
 40
1.0
 10
60.2577
 20
-14.1037
 30
0.0
 10
60.2577
 20
-14.1037
 30
0.0
 10
60.2577
 20
-14.1037
 30
0.0
 10
60.2577
 20
-14.1037
 30
0.0
  0
SPLINE
  5
184
100
AcDbEntity
  8
Ebene 1
370
    20
 62
     0
100
AcDbSpline
210
0.0
220
0.0
230
1.0
 70
     0
 71
     3
 72
     8
 73
     4
 74
     0
 42
0.0000000001
 43
0.0000000001
 40
0.0
 40
0.0
 40
0.0
 40
0.0
 40
1.0
 40
1.0
 40
1.0
 40
1.0
 10
60.650800000000004
 20
-14.3002
 30
0.0
 10
60.650800000000004
 20
-14.3002
 30
0.0
 10
60.650800000000004
 20
-14.3002
 30
0.0
 10
60.650800000000004
 20
-14.3002
 30
0.0
  0
SPLINE
  5
185
100
AcDbEntity
  8
Ebene 1
370
    20
 62
     0
100
AcDbSpline
210
0.0
220
0.0
230
1.0
 70
     0
 71
     3
 72
     8
 73
     4
 74
     0
 42
0.0000000001
 43
0.0000000001
 40
0.0
 40
0.0
 40
0.0
 40
0.0
 40
1.0
 40
1.0
 40
1.0
 40
1.0
 10
60.454300000000003
 20
-14.241300000000001
 30
0.0
 10
60.454300000000003
 20
-14.241300000000001
 30
0.0
 10
60.454300000000003
 20
-14.241300000000001
 30
0.0
 10
60.454300000000003
 20
-14.241300000000001
 30
0.0
  0
SPLINE
  5
186
100
AcDbEntity
  8
Ebene 1
370
    20
 62
     0
100
AcDbSpline
210
0.0
220
0.0
230
1.0
 70
     0
 71
     3
 72
     8
 73
     4
 74
     0
 42
0.0000000001
 43
0.0000000001
 40
0.0
 40
0.0
 40
0.0
 40
0.0
 40
1.0
 40
1.0
 40
1.0
 40
1.0
 10
60.120200000000004
 20
-14.496700000000001
 30
0.0
 10
60.120200000000004
 20
-14.496700000000001
 30
0.0
 10
60.316700000000004
 20
-14.359200000000001
 30
0.0
 10
60.316700000000004
 20
-14.359200000000001
 30
0.0
  0
SPLINE
  5
187
100
AcDbEntity
  8
Ebene 1
370
    20
 62
     0
100
AcDbSpline
210
0.0
220
0.0
230
1.0
 70
     0
 71
     3
 72
     8
 73
     4
 74
     0
 42
0.0000000001
 43
0.0000000001
 40
0.0
 40
0.0
 40
0.0
 40
0.0
 40
1.0
 40
1.0
 40
1.0
 40
1.0
 10
59.7271
 20
-13.455200000000001
 30
0.0
 10
59.7271
 20
-13.455200000000001
 30
0.0
 10
60.454300000000003
 20
-13.180000000000001
 30
0.0
 10
60.454300000000003
 20
-13.180000000000001
 30
0.0
  0
SPLINE
  5
188
100
AcDbEntity
  8
Ebene 1
370
    20
 62
     0
100
AcDbSpline
210
0.0
220
0.0
230
1.0
 70
     0
 71
     3
 72
     8
 73
     4
 74
     0
 42
0.0000000001
 43
0.0000000001
 40
0.0
 40
0.0
 40
0.0
 40
0.0
 40
1.0
 40
1.0
 40
1.0
 40
1.0
 10
60.375600000000006
 20
-13.317600000000001
 30
0.0
 10
60.375600000000006
 20
-13.317600000000001
 30
0.0
 10
60.572200000000002
 20
-13.907200000000001
 30
0.0
 10
60.572200000000002
 20
-13.907200000000001
 30
0.0
  0
SPLINE
  5
189
100
AcDbEntity
  8
Ebene 1
370
    20
 62
     0
100
AcDbSpline
210
0.0
220
0.0
230
1.0
 70
     0
 71
     3
 72
     8
 73
     4
 74
     0
 42
0.0000000001
 43
0.0000000001
 40
0.0
 40
0.0
 40
0.0
 40
0.0
 40
1.0
 40
1.0
 40
1.0
 40
1.0
 10
59.786100000000005
 20
-13.514100000000001
 30
0.0
 10
59.786100000000005
 20
-13.514100000000001
 30
0.0
 10
60.375600000000006
 20
-13.317600000000001
 30
0.0
 10
60.375600000000006
 20
-13.317600000000001
 30
0.0
  0
SPLINE
  5
18A
100
AcDbEntity
  8
Ebene 1
370
    20
 62
     0
100
AcDbSpline
210
0.0
220
0.0
230
1.0
 70
     0
 71
     3
 72
     8
 73
     4
 74
     0
 42
0.0000000001
 43
0.0000000001
 40
0.0
 40
0.0
 40
0.0
 40
0.0
 40
1.0
 40
1.0
 40
1.0
 40
1.0
 10
60.375600000000006
 20
-13.5731
 30
0.0
 10
60.375600000000006
 20
-13.5731
 30
0.0
 10
60.513200000000005
 20
-13.907200000000001
 30
0.0
 10
60.513200000000005
 20
-13.907200000000001
 30
0.0
  0
SPLINE
  5
18B
100
AcDbEntity
  8
Ebene 1
370
    20
 62
     0
100
AcDbSpline
210
0.0
220
0.0
230
1.0
 70
     0
 71
     3
 72
     8
 73
     4
 74
     0
 42
0.0000000001
 43
0.0000000001
 40
0.0
 40
0.0
 40
0.0
 40
0.0
 40
1.0
 40
1.0
 40
1.0
 40
1.0
 10
60.375600000000006
 20
-13.5731
 30
0.0
 10
60.375600000000006
 20
-13.5731
 30
0.0
 10
60.375600000000006
 20
-13.5731
 30
0.0
 10
60.375600000000006
 20
-13.5731
 30
0.0
  0
SPLINE
  5
18C
100
AcDbEntity
  8
Ebene 1
370
    20
 62
     0
100
AcDbSpline
210
0.0
220
0.0
230
1.0
 70
     0
 71
     3
 72
     8
 73
     4
 74
     0
 42
0.0000000001
 43
0.0000000001
 40
0.0
 40
0.0
 40
0.0
 40
0.0
 40
1.0
 40
1.0
 40
1.0
 40
1.0
 10
60.316700000000004
 20
-13.5731
 30
0.0
 10
60.316700000000004
 20
-13.5731
 30
0.0
 10
60.454300000000003
 20
-13.966100000000001
 30
0.0
 10
60.454300000000003
 20
-13.966100000000001
 30
0.0
  0
SPLINE
  5
18D
100
AcDbEntity
  8
Ebene 1
370
    20
 62
     0
100
AcDbSpline
210
0.0
220
0.0
230
1.0
 70
     0
 71
     3
 72
     8
 73
     4
 74
     0
 42
0.0000000001
 43
0.0000000001
 40
0.0
 40
0.0
 40
0.0
 40
0.0
 40
1.0
 40
1.0
 40
1.0
 40
1.0
 10
60.316700000000004
 20
-13.769600000000001
 30
0.0
 10
60.316700000000004
 20
-13.769600000000001
 30
0.0
 10
60.375600000000006
 20
-13.966100000000001
 30
0.0
 10
60.375600000000006
 20
-13.966100000000001
 30
0.0
  0
SPLINE
  5
18E
100
AcDbEntity
  8
Ebene 1
370
    20
 62
     0
100
AcDbSpline
210
0.0
220
0.0
230
1.0
 70
     0
 71
     3
 72
     8
 73
     4
 74
     0
 42
0.0000000001
 43
0.0000000001
 40
0.0
 40
0.0
 40
0.0
 40
0.0
 40
1.0
 40
1.0
 40
1.0
 40
1.0
 10
60.2577
 20
-13.769600000000001
 30
0.0
 10
60.2577
 20
-13.769600000000001
 30
0.0
 10
60.316700000000004
 20
-14.044700000000001
 30
0.0
 10
60.316700000000004
 20
-14.044700000000001
 30
0.0
  0
SPLINE
  5
18F
100
AcDbEntity
  8
Ebene 1
370
    20
 62
     0
100
AcDbSpline
210
0.0
220
0.0
230
1.0
 70
     0
 71
     3
 72
     8
 73
     4
 74
     0
 42
0.0000000001
 43
0.0000000001
 40
0.0
 40
0.0
 40
0.0
 40
0.0
 40
1.0
 40
1.0
 40
1.0
 40
1.0
 10
60.179100000000005
 20
-13.966100000000001
 30
0.0
 10
60.179100000000005
 20
-13.966100000000001
 30
0.0
 10
60.179100000000005
 20
-14.044700000000001
 30
0.0
 10
60.179100000000005
 20
-14.044700000000001
 30
0.0
  0
SPLINE
  5
190
100
AcDbEntity
  8
Ebene 1
370
    20
 62
     0
100
AcDbSpline
210
0.0
220
0.0
230
1.0
 70
     0
 71
     3
 72
     8
 73
     4
 74
     0
 42
0.0000000001
 43
0.0000000001
 40
0.0
 40
0.0
 40
0.0
 40
0.0
 40
1.0
 40
1.0
 40
1.0
 40
1.0
 10
60.179100000000005
 20
-13.966100000000001
 30
0.0
 10
60.179100000000005
 20
-13.966100000000001
 30
0.0
 10
60.179100000000005
 20
-13.966100000000001
 30
0.0
 10
60.179100000000005
 20
-13.966100000000001
 30
0.0
  0
SPLINE
  5
191
100
AcDbEntity
  8
Ebene 1
370
    20
 62
     0
100
AcDbSpline
210
0.0
220
0.0
230
1.0
 70
     0
 71
     3
 72
     8
 73
     4
 74
     0
 42
0.0000000001
 43
0.0000000001
 40
0.0
 40
0.0
 40
0.0
 40
0.0
 40
1.0
 40
1.0
 40
1.0
 40
1.0
 10
60.375600000000006
 20
-13.5731
 30
0.0
 10
60.375600000000006
 20
-13.5731
 30
0.0
 10
60.375600000000006
 20
-13.5731
 30
0.0
 10
60.375600000000006
 20
-13.5731
 30
0.0
  0
SPLINE
  5
192
100
AcDbEntity
  8
Ebene 1
370
    20
 62
     0
100
AcDbSpline
210
0.0
220
0.0
230
1.0
 70
     0
 71
     3
 72
     8
 73
     4
 74
     0
 42
0.0000000001
 43
0.0000000001
 40
0.0
 40
0.0
 40
0.0
 40
0.0
 40
1.0
 40
1.0
 40
1.0
 40
1.0
 10
60.2577
 20
-13.769600000000001
 30
0.0
 10
60.2577
 20
-13.769600000000001
 30
0.0
 10
60.2577
 20
-13.769600000000001
 30
0.0
 10
60.2577
 20
-13.769600000000001
 30
0.0
  0
SPLINE
  5
193
100
AcDbEntity
  8
Ebene 1
370
    20
 62
     0
100
AcDbSpline
210
0.0
220
0.0
230
1.0
 70
     0
 71
     3
 72
     8
 73
     4
 74
     0
 42
0.0000000001
 43
0.0000000001
 40
0.0
 40
0.0
 40
0.0
 40
0.0
 40
1.0
 40
1.0
 40
1.0
 40
1.0
 10
60.2577
 20
-13.966100000000001
 30
0.0
 10
60.2577
 20
-13.966100000000001
 30
0.0
 10
60.2577
 20
-14.044700000000001
 30
0.0
 10
60.2577
 20
-14.044700000000001
 30
0.0
  0
SPLINE
  5
194
100
AcDbEntity
  8
Ebene 1
370
    20
 62
     0
100
AcDbSpline
210
0.0
220
0.0
230
1.0
 70
     0
 71
     3
 72
     8
 73
     4
 74
     0
 42
0.0000000001
 43
0.0000000001
 40
0.0
 40
0.0
 40
0.0
 40
0.0
 40
1.0
 40
1.0
 40
1.0
 40
1.0
 10
60.179100000000005
 20
-13.966100000000001
 30
0.0
 10
60.179100000000005
 20
-13.966100000000001
 30
0.0
 10
60.179100000000005
 20
-13.966100000000001
 30
0.0
 10
60.179100000000005
 20
-13.966100000000001
 30
0.0
  0
SPLINE
  5
195
100
AcDbEntity
  8
Ebene 1
370
    20
 62
     0
100
AcDbSpline
210
0.0
220
0.0
230
1.0
 70
     0
 71
     3
 72
     8
 73
     4
 74
     0
 42
0.0000000001
 43
0.0000000001
 40
0.0
 40
0.0
 40
0.0
 40
0.0
 40
1.0
 40
1.0
 40
1.0
 40
1.0
 10
60.2577
 20
-13.769600000000001
 30
0.0
 10
60.2577
 20
-13.769600000000001
 30
0.0
 10
60.2577
 20
-13.769600000000001
 30
0.0
 10
60.2577
 20
-13.769600000000001
 30
0.0
  0
SPLINE
  5
196
100
AcDbEntity
  8
Ebene 1
370
    20
 62
     0
100
AcDbSpline
210
0.0
220
0.0
230
1.0
 70
     0
 71
     3
 72
     8
 73
     4
 74
     0
 42
0.0000000001
 43
0.0000000001
 40
0.0
 40
0.0
 40
0.0
 40
0.0
 40
1.0
 40
1.0
 40
1.0
 40
1.0
 10
60.650800000000004
 20
-13.907200000000001
 30
0.0
 10
60.650800000000004
 20
-13.907200000000001
 30
0.0
 10
60.906200000000005
 20
-14.5557
 30
0.0
 10
60.906200000000005
 20
-14.5557
 30
0.0
  0
SPLINE
  5
197
100
AcDbEntity
  8
Ebene 1
370
    20
 62
     0
100
AcDbSpline
210
0.0
220
0.0
230
1.0
 70
     0
 71
     3
 72
    12
 73
     8
 74
     0
 42
0.0000000001
 43
0.0000000001
 40
0.0
 40
0.0
 40
0.0
 40
0.0
 40
0.5
 40
0.5
 40
0.5
 40
0.5
 40
1.0
 40
1.0
 40
1.0
 40
1.0
 10
69.022500000000008
 20
-14.496700000000001
 30
0.0
 10
69.022500000000008
 20
-14.496700000000001
 30
0.0
 10
68.9636
 20
-14.437800000000001
 30
0.0
 10
68.9636
 20
-14.437800000000001
 30
0.0
 10
68.9636
 20
-14.437800000000001
 30
0.0
 10
68.9636
 20
-14.437800000000001
 30
0.0
 10
68.904600000000002
 20
-14.359200000000001
 30
0.0
 10
68.904600000000002
 20
-14.359200000000001
 30
0.0
  0
SPLINE
  5
198
100
AcDbEntity
  8
Ebene 1
370
    20
 62
     0
100
AcDbSpline
210
0.0
220
0.0
230
1.0
 70
     0
 71
     3
 72
     8
 73
     4
 74
     0
 42
0.0000000001
 43
0.0000000001
 40
0.0
 40
0.0
 40
0.0
 40
0.0
 40
1.0
 40
1.0
 40
1.0
 40
1.0
 10
69.022500000000008
 20
-14.693200000000001
 30
0.0
 10
69.022500000000008
 20
-14.693200000000001
 30
0.0
 10
69.022500000000008
 20
-14.496700000000001
 30
0.0
 10
69.022500000000008
 20
-14.496700000000001
 30
0.0
  0
SPLINE
  5
199
100
AcDbEntity
  8
Ebene 1
370
    20
 62
     0
100
AcDbSpline
210
0.0
220
0.0
230
1.0
 70
     0
 71
     3
 72
     8
 73
     4
 74
     0
 42
0.0000000001
 43
0.0000000001
 40
0.0
 40
0.0
 40
0.0
 40
0.0
 40
1.0
 40
1.0
 40
1.0
 40
1.0
 10
69.022500000000008
 20
-14.693200000000001
 30
0.0
 10
69.022500000000008
 20
-14.693200000000001
 30
0.0
 10
69.219000000000008
 20
-14.693200000000001
 30
0.0
 10
69.219000000000008
 20
-14.693200000000001
 30
0.0
  0
SPLINE
  5
19A
100
AcDbEntity
  8
Ebene 1
370
    20
 62
     0
100
AcDbSpline
210
0.0
220
0.0
230
1.0
 70
     0
 71
     3
 72
     8
 73
     4
 74
     0
 42
0.0000000001
 43
0.0000000001
 40
0.0
 40
0.0
 40
0.0
 40
0.0
 40
1.0
 40
1.0
 40
1.0
 40
1.0
 10
69.219000000000008
 20
-14.693200000000001
 30
0.0
 10
69.219000000000008
 20
-14.693200000000001
 30
0.0
 10
69.219000000000008
 20
-14.437800000000001
 30
0.0
 10
69.219000000000008
 20
-14.437800000000001
 30
0.0
  0
SPLINE
  5
19B
100
AcDbEntity
  8
Ebene 1
370
    20
 62
     0
100
AcDbSpline
210
0.0
220
0.0
230
1.0
 70
     0
 71
     3
 72
    12
 73
     8
 74
     0
 42
0.0000000001
 43
0.0000000001
 40
0.0
 40
0.0
 40
0.0
 40
0.0
 40
0.5
 40
0.5
 40
0.5
 40
0.5
 40
1.0
 40
1.0
 40
1.0
 40
1.0
 10
69.219000000000008
 20
-14.437800000000001
 30
0.0
 10
69.219000000000008
 20
-14.437800000000001
 30
0.0
 10
69.1601
 20
-14.3002
 30
0.0
 10
69.1601
 20
-14.3002
 30
0.0
 10
69.1601
 20
-14.3002
 30
0.0
 10
69.1601
 20
-14.3002
 30
0.0
 10
69.101100000000002
 20
-14.241300000000001
 30
0.0
 10
69.101100000000002
 20
-14.241300000000001
 30
0.0
  0
SPLINE
  5
19C
100
AcDbEntity
  8
Ebene 1
370
    20
 62
     0
100
AcDbSpline
210
0.0
220
0.0
230
1.0
 70
     0
 71
     3
 72
    12
 73
     8
 74
     0
 42
0.0000000001
 43
0.0000000001
 40
0.0
 40
0.0
 40
0.0
 40
0.0
 40
0.5
 40
0.5
 40
0.5
 40
0.5
 40
1.0
 40
1.0
 40
1.0
 40
1.0
 10
69.101100000000002
 20
-14.241300000000001
 30
0.0
 10
69.101100000000002
 20
-14.241300000000001
 30
0.0
 10
69.219000000000008
 20
-14.162600000000001
 30
0.0
 10
69.219000000000008
 20
-14.162600000000001
 30
0.0
 10
69.219000000000008
 20
-14.162600000000001
 30
0.0
 10
69.219000000000008
 20
-14.162600000000001
 30
0.0
 10
69.219000000000008
 20
-14.1037
 30
0.0
 10
69.219000000000008
 20
-14.1037
 30
0.0
  0
SPLINE
  5
19D
100
AcDbEntity
  8
Ebene 1
370
    20
 62
     0
100
AcDbSpline
210
0.0
220
0.0
230
1.0
 70
     0
 71
     3
 72
     8
 73
     4
 74
     0
 42
0.0000000001
 43
0.0000000001
 40
0.0
 40
0.0
 40
0.0
 40
0.0
 40
1.0
 40
1.0
 40
1.0
 40
1.0
 10
69.219000000000008
 20
-13.769600000000001
 30
0.0
 10
69.219000000000008
 20
-13.769600000000001
 30
0.0
 10
69.219000000000008
 20
-14.1037
 30
0.0
 10
69.219000000000008
 20
-14.1037
 30
0.0
  0
SPLINE
  5
19E
100
AcDbEntity
  8
Ebene 1
370
    20
 62
     0
100
AcDbSpline
210
0.0
220
0.0
230
1.0
 70
     0
 71
     3
 72
    12
 73
     8
 74
     0
 42
0.0000000001
 43
0.0000000001
 40
0.0
 40
0.0
 40
0.0
 40
0.0
 40
0.5
 40
0.5
 40
0.5
 40
0.5
 40
1.0
 40
1.0
 40
1.0
 40
1.0
 10
69.219000000000008
 20
-13.769600000000001
 30
0.0
 10
69.219000000000008
 20
-13.769600000000001
 30
0.0
 10
69.1601
 20
-13.6517
 30
0.0
 10
69.1601
 20
-13.6517
 30
0.0
 10
69.1601
 20
-13.6517
 30
0.0
 10
69.1601
 20
-13.6517
 30
0.0
 10
69.101100000000002
 20
-13.5731
 30
0.0
 10
69.101100000000002
 20
-13.5731
 30
0.0
  0
SPLINE
  5
19F
100
AcDbEntity
  8
Ebene 1
370
    20
 62
     0
100
AcDbSpline
210
0.0
220
0.0
230
1.0
 70
     0
 71
     3
 72
     8
 73
     4
 74
     0
 42
0.0000000001
 43
0.0000000001
 40
0.0
 40
0.0
 40
0.0
 40
0.0
 40
1.0
 40
1.0
 40
1.0
 40
1.0
 10
68.314999999999998
 20
-13.5731
 30
0.0
 10
68.314999999999998
 20
-13.5731
 30
0.0
 10
69.101100000000002
 20
-13.5731
 30
0.0
 10
69.101100000000002
 20
-13.5731
 30
0.0
  0
SPLINE
  5
1A0
100
AcDbEntity
  8
Ebene 1
370
    20
 62
     0
100
AcDbSpline
210
0.0
220
0.0
230
1.0
 70
     0
 71
     3
 72
     8
 73
     4
 74
     0
 42
0.0000000001
 43
0.0000000001
 40
0.0
 40
0.0
 40
0.0
 40
0.0
 40
1.0
 40
1.0
 40
1.0
 40
1.0
 10
68.511600000000001
 20
-14.162600000000001
 30
0.0
 10
68.511600000000001
 20
-14.162600000000001
 30
0.0
 10
68.904600000000002
 20
-14.162600000000001
 30
0.0
 10
68.904600000000002
 20
-14.162600000000001
 30
0.0
  0
SPLINE
  5
1A1
100
AcDbEntity
  8
Ebene 1
370
    20
 62
     0
100
AcDbSpline
210
0.0
220
0.0
230
1.0
 70
     0
 71
     3
 72
     8
 73
     4
 74
     0
 42
0.0000000001
 43
0.0000000001
 40
0.0
 40
0.0
 40
0.0
 40
0.0
 40
1.0
 40
1.0
 40
1.0
 40
1.0
 10
68.511600000000001
 20
-13.769600000000001
 30
0.0
 10
68.511600000000001
 20
-13.769600000000001
 30
0.0
 10
68.511600000000001
 20
-14.162600000000001
 30
0.0
 10
68.511600000000001
 20
-14.162600000000001
 30
0.0
  0
SPLINE
  5
1A2
100
AcDbEntity
  8
Ebene 1
370
    20
 62
     0
100
AcDbSpline
210
0.0
220
0.0
230
1.0
 70
     0
 71
     3
 72
     8
 73
     4
 74
     0
 42
0.0000000001
 43
0.0000000001
 40
0.0
 40
0.0
 40
0.0
 40
0.0
 40
1.0
 40
1.0
 40
1.0
 40
1.0
 10
68.511600000000001
 20
-13.769600000000001
 30
0.0
 10
68.511600000000001
 20
-13.769600000000001
 30
0.0
 10
68.904600000000002
 20
-13.769600000000001
 30
0.0
 10
68.904600000000002
 20
-13.769600000000001
 30
0.0
  0
SPLINE
  5
1A3
100
AcDbEntity
  8
Ebene 1
370
    20
 62
     0
100
AcDbSpline
210
0.0
220
0.0
230
1.0
 70
     0
 71
     3
 72
    12
 73
     8
 74
     0
 42
0.0000000001
 43
0.0000000001
 40
0.0
 40
0.0
 40
0.0
 40
0.0
 40
0.5
 40
0.5
 40
0.5
 40
0.5
 40
1.0
 40
1.0
 40
1.0
 40
1.0
 10
69.022500000000008
 20
-13.966100000000001
 30
0.0
 10
69.022500000000008
 20
-13.966100000000001
 30
0.0
 10
68.9636
 20
-13.8482
 30
0.0
 10
68.9636
 20
-13.8482
 30
0.0
 10
68.9636
 20
-13.8482
 30
0.0
 10
68.9636
 20
-13.8482
 30
0.0
 10
68.904600000000002
 20
-13.769600000000001
 30
0.0
 10
68.904600000000002
 20
-13.769600000000001
 30
0.0
  0
SPLINE
  5
1A4
100
AcDbEntity
  8
Ebene 1
370
    20
 62
     0
100
AcDbSpline
210
0.0
220
0.0
230
1.0
 70
     0
 71
     3
 72
     8
 73
     4
 74
     0
 42
0.0000000001
 43
0.0000000001
 40
0.0
 40
0.0
 40
0.0
 40
0.0
 40
1.0
 40
1.0
 40
1.0
 40
1.0
 10
69.022500000000008
 20
-13.966100000000001
 30
0.0
 10
69.022500000000008
 20
-13.966100000000001
 30
0.0
 10
69.022500000000008
 20
-13.966100000000001
 30
0.0
 10
69.022500000000008
 20
-13.966100000000001
 30
0.0
  0
SPLINE
  5
1A5
100
AcDbEntity
  8
Ebene 1
370
    20
 62
     0
100
AcDbSpline
210
0.0
220
0.0
230
1.0
 70
     0
 71
     3
 72
    12
 73
     8
 74
     0
 42
0.0000000001
 43
0.0000000001
 40
0.0
 40
0.0
 40
0.0
 40
0.0
 40
0.5
 40
0.5
 40
0.5
 40
0.5
 40
1.0
 40
1.0
 40
1.0
 40
1.0
 10
68.904600000000002
 20
-14.162600000000001
 30
0.0
 10
68.904600000000002
 20
-14.162600000000001
 30
0.0
 10
68.9636
 20
-14.1037
 30
0.0
 10
68.9636
 20
-14.1037
 30
0.0
 10
68.9636
 20
-14.1037
 30
0.0
 10
68.9636
 20
-14.1037
 30
0.0
 10
69.022500000000008
 20
-13.966100000000001
 30
0.0
 10
69.022500000000008
 20
-13.966100000000001
 30
0.0
  0
SPLINE
  5
1A6
100
AcDbEntity
  8
Ebene 1
370
    20
 62
     0
100
AcDbSpline
210
0.0
220
0.0
230
1.0
 70
     0
 71
     3
 72
     8
 73
     4
 74
     0
 42
0.0000000001
 43
0.0000000001
 40
0.0
 40
0.0
 40
0.0
 40
0.0
 40
1.0
 40
1.0
 40
1.0
 40
1.0
 10
60.454300000000003
 20
-13.180000000000001
 30
0.0
 10
60.454300000000003
 20
-13.180000000000001
 30
0.0
 10
60.650800000000004
 20
-13.907200000000001
 30
0.0
 10
60.650800000000004
 20
-13.907200000000001
 30
0.0
  0
SPLINE
  5
1A7
100
AcDbEntity
  8
Ebene 1
370
    20
 62
     0
100
AcDbSpline
210
0.0
220
0.0
230
1.0
 70
     0
 71
     3
 72
     8
 73
     4
 74
     0
 42
0.0000000001
 43
0.0000000001
 40
0.0
 40
0.0
 40
0.0
 40
0.0
 40
1.0
 40
1.0
 40
1.0
 40
1.0
 10
67.194900000000004
 20
-14.693200000000001
 30
0.0
 10
67.194900000000004
 20
-14.693200000000001
 30
0.0
 10
67.194900000000004
 20
-13.5731
 30
0.0
 10
67.194900000000004
 20
-13.5731
 30
0.0
  0
SPLINE
  5
1A8
100
AcDbEntity
  8
Ebene 1
370
    20
 62
     0
100
AcDbSpline
210
0.0
220
0.0
230
1.0
 70
     0
 71
     3
 72
     8
 73
     4
 74
     0
 42
0.0000000001
 43
0.0000000001
 40
0.0
 40
0.0
 40
0.0
 40
0.0
 40
1.0
 40
1.0
 40
1.0
 40
1.0
 10
67.194900000000004
 20
-14.693200000000001
 30
0.0
 10
67.194900000000004
 20
-14.693200000000001
 30
0.0
 10
67.981000000000009
 20
-14.693200000000001
 30
0.0
 10
67.981000000000009
 20
-14.693200000000001
 30
0.0
  0
SPLINE
  5
1A9
100
AcDbEntity
  8
Ebene 1
370
    20
 62
     0
100
AcDbSpline
210
0.0
220
0.0
230
1.0
 70
     0
 71
     3
 72
     8
 73
     4
 74
     0
 42
0.0000000001
 43
0.0000000001
 40
0.0
 40
0.0
 40
0.0
 40
0.0
 40
1.0
 40
1.0
 40
1.0
 40
1.0
 10
67.981000000000009
 20
-14.5557
 30
0.0
 10
67.981000000000009
 20
-14.5557
 30
0.0
 10
67.981000000000009
 20
-14.693200000000001
 30
0.0
 10
67.981000000000009
 20
-14.693200000000001
 30
0.0
  0
SPLINE
  5
1AA
100
AcDbEntity
  8
Ebene 1
370
    20
 62
     0
100
AcDbSpline
210
0.0
220
0.0
230
1.0
 70
     0
 71
     3
 72
     8
 73
     4
 74
     0
 42
0.0000000001
 43
0.0000000001
 40
0.0
 40
0.0
 40
0.0
 40
0.0
 40
1.0
 40
1.0
 40
1.0
 40
1.0
 10
67.450400000000002
 20
-14.5557
 30
0.0
 10
67.450400000000002
 20
-14.5557
 30
0.0
 10
67.981000000000009
 20
-14.5557
 30
0.0
 10
67.981000000000009
 20
-14.5557
 30
0.0
  0
SPLINE
  5
1AB
100
AcDbEntity
  8
Ebene 1
370
    20
 62
     0
100
AcDbSpline
210
0.0
220
0.0
230
1.0
 70
     0
 71
     3
 72
     8
 73
     4
 74
     0
 42
0.0000000001
 43
0.0000000001
 40
0.0
 40
0.0
 40
0.0
 40
0.0
 40
1.0
 40
1.0
 40
1.0
 40
1.0
 10
67.450400000000002
 20
-14.241300000000001
 30
0.0
 10
67.450400000000002
 20
-14.241300000000001
 30
0.0
 10
67.450400000000002
 20
-14.5557
 30
0.0
 10
67.450400000000002
 20
-14.5557
 30
0.0
  0
SPLINE
  5
1AC
100
AcDbEntity
  8
Ebene 1
370
    20
 62
     0
100
AcDbSpline
210
0.0
220
0.0
230
1.0
 70
     0
 71
     3
 72
     8
 73
     4
 74
     0
 42
0.0000000001
 43
0.0000000001
 40
0.0
 40
0.0
 40
0.0
 40
0.0
 40
1.0
 40
1.0
 40
1.0
 40
1.0
 10
67.450400000000002
 20
-14.241300000000001
 30
0.0
 10
67.450400000000002
 20
-14.241300000000001
 30
0.0
 10
67.981000000000009
 20
-14.241300000000001
 30
0.0
 10
67.981000000000009
 20
-14.241300000000001
 30
0.0
  0
SPLINE
  5
1AD
100
AcDbEntity
  8
Ebene 1
370
    20
 62
     0
100
AcDbSpline
210
0.0
220
0.0
230
1.0
 70
     0
 71
     3
 72
     8
 73
     4
 74
     0
 42
0.0000000001
 43
0.0000000001
 40
0.0
 40
0.0
 40
0.0
 40
0.0
 40
1.0
 40
1.0
 40
1.0
 40
1.0
 10
67.981000000000009
 20
-14.1037
 30
0.0
 10
67.981000000000009
 20
-14.1037
 30
0.0
 10
67.981000000000009
 20
-14.241300000000001
 30
0.0
 10
67.981000000000009
 20
-14.241300000000001
 30
0.0
  0
SPLINE
  5
1AE
100
AcDbEntity
  8
Ebene 1
370
    20
 62
     0
100
AcDbSpline
210
0.0
220
0.0
230
1.0
 70
     0
 71
     3
 72
     8
 73
     4
 74
     0
 42
0.0000000001
 43
0.0000000001
 40
0.0
 40
0.0
 40
0.0
 40
0.0
 40
1.0
 40
1.0
 40
1.0
 40
1.0
 10
67.450400000000002
 20
-14.1037
 30
0.0
 10
67.450400000000002
 20
-14.1037
 30
0.0
 10
67.981000000000009
 20
-14.1037
 30
0.0
 10
67.981000000000009
 20
-14.1037
 30
0.0
  0
SPLINE
  5
1AF
100
AcDbEntity
  8
Ebene 1
370
    20
 62
     0
100
AcDbSpline
210
0.0
220
0.0
230
1.0
 70
     0
 71
     3
 72
     8
 73
     4
 74
     0
 42
0.0000000001
 43
0.0000000001
 40
0.0
 40
0.0
 40
0.0
 40
0.0
 40
1.0
 40
1.0
 40
1.0
 40
1.0
 10
67.450400000000002
 20
-13.710700000000001
 30
0.0
 10
67.450400000000002
 20
-13.710700000000001
 30
0.0
 10
67.450400000000002
 20
-14.1037
 30
0.0
 10
67.450400000000002
 20
-14.1037
 30
0.0
  0
SPLINE
  5
1B0
100
AcDbEntity
  8
Ebene 1
370
    20
 62
     0
100
AcDbSpline
210
0.0
220
0.0
230
1.0
 70
     0
 71
     3
 72
     8
 73
     4
 74
     0
 42
0.0000000001
 43
0.0000000001
 40
0.0
 40
0.0
 40
0.0
 40
0.0
 40
1.0
 40
1.0
 40
1.0
 40
1.0
 10
67.450400000000002
 20
-13.710700000000001
 30
0.0
 10
67.450400000000002
 20
-13.710700000000001
 30
0.0
 10
67.981000000000009
 20
-13.710700000000001
 30
0.0
 10
67.981000000000009
 20
-13.710700000000001
 30
0.0
  0
SPLINE
  5
1B1
100
AcDbEntity
  8
Ebene 1
370
    20
 62
     0
100
AcDbSpline
210
0.0
220
0.0
230
1.0
 70
     0
 71
     3
 72
     8
 73
     4
 74
     0
 42
0.0000000001
 43
0.0000000001
 40
0.0
 40
0.0
 40
0.0
 40
0.0
 40
1.0
 40
1.0
 40
1.0
 40
1.0
 10
67.981000000000009
 20
-13.5731
 30
0.0
 10
67.981000000000009
 20
-13.5731
 30
0.0
 10
67.981000000000009
 20
-13.710700000000001
 30
0.0
 10
67.981000000000009
 20
-13.710700000000001
 30
0.0
  0
SPLINE
  5
1B2
100
AcDbEntity
  8
Ebene 1
370
    20
 62
     0
100
AcDbSpline
210
0.0
220
0.0
230
1.0
 70
     0
 71
     3
 72
     8
 73
     4
 74
     0
 42
0.0000000001
 43
0.0000000001
 40
0.0
 40
0.0
 40
0.0
 40
0.0
 40
1.0
 40
1.0
 40
1.0
 40
1.0
 10
67.194900000000004
 20
-13.5731
 30
0.0
 10
67.194900000000004
 20
-13.5731
 30
0.0
 10
67.981000000000009
 20
-13.5731
 30
0.0
 10
67.981000000000009
 20
-13.5731
 30
0.0
  0
SPLINE
  5
1B3
100
AcDbEntity
  8
Ebene 1
370
    20
 62
     0
100
AcDbSpline
210
0.0
220
0.0
230
1.0
 70
     0
 71
     3
 72
     8
 73
     4
 74
     0
 42
0.0000000001
 43
0.0000000001
 40
0.0
 40
0.0
 40
0.0
 40
0.0
 40
1.0
 40
1.0
 40
1.0
 40
1.0
 10
68.314999999999998
 20
-14.693200000000001
 30
0.0
 10
68.314999999999998
 20
-14.693200000000001
 30
0.0
 10
68.314999999999998
 20
-13.5731
 30
0.0
 10
68.314999999999998
 20
-13.5731
 30
0.0
  0
SPLINE
  5
1B4
100
AcDbEntity
  8
Ebene 1
370
    20
 62
     0
100
AcDbSpline
210
0.0
220
0.0
230
1.0
 70
     0
 71
     3
 72
     8
 73
     4
 74
     0
 42
0.0000000001
 43
0.0000000001
 40
0.0
 40
0.0
 40
0.0
 40
0.0
 40
1.0
 40
1.0
 40
1.0
 40
1.0
 10
68.314999999999998
 20
-14.693200000000001
 30
0.0
 10
68.314999999999998
 20
-14.693200000000001
 30
0.0
 10
68.511600000000001
 20
-14.693200000000001
 30
0.0
 10
68.511600000000001
 20
-14.693200000000001
 30
0.0
  0
SPLINE
  5
1B5
100
AcDbEntity
  8
Ebene 1
370
    20
 62
     0
100
AcDbSpline
210
0.0
220
0.0
230
1.0
 70
     0
 71
     3
 72
     8
 73
     4
 74
     0
 42
0.0000000001
 43
0.0000000001
 40
0.0
 40
0.0
 40
0.0
 40
0.0
 40
1.0
 40
1.0
 40
1.0
 40
1.0
 10
68.511600000000001
 20
-14.359200000000001
 30
0.0
 10
68.511600000000001
 20
-14.359200000000001
 30
0.0
 10
68.511600000000001
 20
-14.693200000000001
 30
0.0
 10
68.511600000000001
 20
-14.693200000000001
 30
0.0
  0
SPLINE
  5
1B6
100
AcDbEntity
  8
Ebene 1
370
    20
 62
     0
100
AcDbSpline
210
0.0
220
0.0
230
1.0
 70
     0
 71
     3
 72
     8
 73
     4
 74
     0
 42
0.0000000001
 43
0.0000000001
 40
0.0
 40
0.0
 40
0.0
 40
0.0
 40
1.0
 40
1.0
 40
1.0
 40
1.0
 10
68.511600000000001
 20
-14.359200000000001
 30
0.0
 10
68.511600000000001
 20
-14.359200000000001
 30
0.0
 10
68.904600000000002
 20
-14.359200000000001
 30
0.0
 10
68.904600000000002
 20
-14.359200000000001
 30
0.0
  0
SPLINE
  5
1B7
100
AcDbEntity
  8
Ebene 1
370
    20
 62
     0
100
AcDbSpline
210
0.0
220
0.0
230
1.0
 70
     0
 71
     3
 72
    12
 73
     8
 74
     0
 42
0.0000000001
 43
0.0000000001
 40
0.0
 40
0.0
 40
0.0
 40
0.0
 40
0.5
 40
0.5
 40
0.5
 40
0.5
 40
1.0
 40
1.0
 40
1.0
 40
1.0
 10
66.074700000000007
 20
-13.966100000000001
 30
0.0
 10
66.074700000000007
 20
-13.966100000000001
 30
0.0
 10
66.015799999999999
 20
-13.8482
 30
0.0
 10
66.015799999999999
 20
-13.8482
 30
0.0
 10
66.015799999999999
 20
-13.8482
 30
0.0
 10
66.015799999999999
 20
-13.8482
 30
0.0
 10
65.878200000000007
 20
-13.769600000000001
 30
0.0
 10
65.878200000000007
 20
-13.769600000000001
 30
0.0
  0
SPLINE
  5
1B8
100
AcDbEntity
  8
Ebene 1
370
    20
 62
     0
100
AcDbSpline
210
0.0
220
0.0
230
1.0
 70
     0
 71
     3
 72
     8
 73
     4
 74
     0
 42
0.0000000001
 43
0.0000000001
 40
0.0
 40
0.0
 40
0.0
 40
0.0
 40
1.0
 40
1.0
 40
1.0
 40
1.0
 10
66.074700000000007
 20
-14.693200000000001
 30
0.0
 10
66.074700000000007
 20
-14.693200000000001
 30
0.0
 10
66.074700000000007
 20
-13.966100000000001
 30
0.0
 10
66.074700000000007
 20
-13.966100000000001
 30
0.0
  0
SPLINE
  5
1B9
100
AcDbEntity
  8
Ebene 1
370
    20
 62
     0
100
AcDbSpline
210
0.0
220
0.0
230
1.0
 70
     0
 71
     3
 72
     8
 73
     4
 74
     0
 42
0.0000000001
 43
0.0000000001
 40
0.0
 40
0.0
 40
0.0
 40
0.0
 40
1.0
 40
1.0
 40
1.0
 40
1.0
 10
66.074700000000007
 20
-14.693200000000001
 30
0.0
 10
66.074700000000007
 20
-14.693200000000001
 30
0.0
 10
66.271200000000007
 20
-14.693200000000001
 30
0.0
 10
66.271200000000007
 20
-14.693200000000001
 30
0.0
  0
SPLINE
  5
1BA
100
AcDbEntity
  8
Ebene 1
370
    20
 62
     0
100
AcDbSpline
210
0.0
220
0.0
230
1.0
 70
     0
 71
     3
 72
     8
 73
     4
 74
     0
 42
0.0000000001
 43
0.0000000001
 40
0.0
 40
0.0
 40
0.0
 40
0.0
 40
1.0
 40
1.0
 40
1.0
 40
1.0
 10
66.271200000000007
 20
-13.966100000000001
 30
0.0
 10
66.271200000000007
 20
-13.966100000000001
 30
0.0
 10
66.271200000000007
 20
-14.693200000000001
 30
0.0
 10
66.271200000000007
 20
-14.693200000000001
 30
0.0
  0
SPLINE
  5
1BB
100
AcDbEntity
  8
Ebene 1
370
    20
 62
     0
100
AcDbSpline
210
0.0
220
0.0
230
1.0
 70
     0
 71
     3
 72
    12
 73
     8
 74
     0
 42
0.0000000001
 43
0.0000000001
 40
0.0
 40
0.0
 40
0.0
 40
0.0
 40
0.5
 40
0.5
 40
0.5
 40
0.5
 40
1.0
 40
1.0
 40
1.0
 40
1.0
 10
66.408799999999999
 20
-13.769600000000001
 30
0.0
 10
66.408799999999999
 20
-13.769600000000001
 30
0.0
 10
66.349800000000002
 20
-13.8482
 30
0.0
 10
66.349800000000002
 20
-13.8482
 30
0.0
 10
66.349800000000002
 20
-13.8482
 30
0.0
 10
66.349800000000002
 20
-13.8482
 30
0.0
 10
66.271200000000007
 20
-13.966100000000001
 30
0.0
 10
66.271200000000007
 20
-13.966100000000001
 30
0.0
  0
SPLINE
  5
1BC
100
AcDbEntity
  8
Ebene 1
370
    20
 62
     0
100
AcDbSpline
210
0.0
220
0.0
230
1.0
 70
     0
 71
     3
 72
     8
 73
     4
 74
     0
 42
0.0000000001
 43
0.0000000001
 40
0.0
 40
0.0
 40
0.0
 40
0.0
 40
1.0
 40
1.0
 40
1.0
 40
1.0
 10
66.408799999999999
 20
-13.769600000000001
 30
0.0
 10
66.408799999999999
 20
-13.769600000000001
 30
0.0
 10
66.546400000000006
 20
-13.769600000000001
 30
0.0
 10
66.546400000000006
 20
-13.769600000000001
 30
0.0
  0
SPLINE
  5
1BD
100
AcDbEntity
  8
Ebene 1
370
    20
 62
     0
100
AcDbSpline
210
0.0
220
0.0
230
1.0
 70
     0
 71
     3
 72
    12
 73
     8
 74
     0
 42
0.0000000001
 43
0.0000000001
 40
0.0
 40
0.0
 40
0.0
 40
0.0
 40
0.5
 40
0.5
 40
0.5
 40
0.5
 40
1.0
 40
1.0
 40
1.0
 40
1.0
 10
66.664299999999997
 20
-13.966100000000001
 30
0.0
 10
66.664299999999997
 20
-13.966100000000001
 30
0.0
 10
66.664299999999997
 20
-13.8482
 30
0.0
 10
66.664299999999997
 20
-13.8482
 30
0.0
 10
66.664299999999997
 20
-13.8482
 30
0.0
 10
66.664299999999997
 20
-13.8482
 30
0.0
 10
66.546400000000006
 20
-13.769600000000001
 30
0.0
 10
66.546400000000006
 20
-13.769600000000001
 30
0.0
  0
SPLINE
  5
1BE
100
AcDbEntity
  8
Ebene 1
370
    20
 62
     0
100
AcDbSpline
210
0.0
220
0.0
230
1.0
 70
     0
 71
     3
 72
     8
 73
     4
 74
     0
 42
0.0000000001
 43
0.0000000001
 40
0.0
 40
0.0
 40
0.0
 40
0.0
 40
1.0
 40
1.0
 40
1.0
 40
1.0
 10
66.664299999999997
 20
-14.693200000000001
 30
0.0
 10
66.664299999999997
 20
-14.693200000000001
 30
0.0
 10
66.664299999999997
 20
-13.966100000000001
 30
0.0
 10
66.664299999999997
 20
-13.966100000000001
 30
0.0
  0
SPLINE
  5
1BF
100
AcDbEntity
  8
Ebene 1
370
    20
 62
     0
100
AcDbSpline
210
0.0
220
0.0
230
1.0
 70
     0
 71
     3
 72
     8
 73
     4
 74
     0
 42
0.0000000001
 43
0.0000000001
 40
0.0
 40
0.0
 40
0.0
 40
0.0
 40
1.0
 40
1.0
 40
1.0
 40
1.0
 10
66.664299999999997
 20
-14.693200000000001
 30
0.0
 10
66.664299999999997
 20
-14.693200000000001
 30
0.0
 10
66.939400000000006
 20
-14.693200000000001
 30
0.0
 10
66.939400000000006
 20
-14.693200000000001
 30
0.0
  0
SPLINE
  5
1C0
100
AcDbEntity
  8
Ebene 1
370
    20
 62
     0
100
AcDbSpline
210
0.0
220
0.0
230
1.0
 70
     0
 71
     3
 72
     8
 73
     4
 74
     0
 42
0.0000000001
 43
0.0000000001
 40
0.0
 40
0.0
 40
0.0
 40
0.0
 40
1.0
 40
1.0
 40
1.0
 40
1.0
 10
66.939400000000006
 20
-13.769600000000001
 30
0.0
 10
66.939400000000006
 20
-13.769600000000001
 30
0.0
 10
66.939400000000006
 20
-14.693200000000001
 30
0.0
 10
66.939400000000006
 20
-14.693200000000001
 30
0.0
  0
SPLINE
  5
1C1
100
AcDbEntity
  8
Ebene 1
370
    20
 62
     0
100
AcDbSpline
210
0.0
220
0.0
230
1.0
 70
     0
 71
     3
 72
    12
 73
     8
 74
     0
 42
0.0000000001
 43
0.0000000001
 40
0.0
 40
0.0
 40
0.0
 40
0.0
 40
0.5
 40
0.5
 40
0.5
 40
0.5
 40
1.0
 40
1.0
 40
1.0
 40
1.0
 10
66.939400000000006
 20
-13.769600000000001
 30
0.0
 10
66.939400000000006
 20
-13.769600000000001
 30
0.0
 10
66.860799999999998
 20
-13.6517
 30
0.0
 10
66.860799999999998
 20
-13.6517
 30
0.0
 10
66.860799999999998
 20
-13.6517
 30
0.0
 10
66.860799999999998
 20
-13.6517
 30
0.0
 10
66.742900000000006
 20
-13.5731
 30
0.0
 10
66.742900000000006
 20
-13.5731
 30
0.0
  0
SPLINE
  5
1C2
100
AcDbEntity
  8
Ebene 1
370
    20
 62
     0
100
AcDbSpline
210
0.0
220
0.0
230
1.0
 70
     0
 71
     3
 72
     8
 73
     4
 74
     0
 42
0.0000000001
 43
0.0000000001
 40
0.0
 40
0.0
 40
0.0
 40
0.0
 40
1.0
 40
1.0
 40
1.0
 40
1.0
 10
66.349800000000002
 20
-13.5731
 30
0.0
 10
66.349800000000002
 20
-13.5731
 30
0.0
 10
66.742900000000006
 20
-13.5731
 30
0.0
 10
66.742900000000006
 20
-13.5731
 30
0.0
  0
SPLINE
  5
1C3
100
AcDbEntity
  8
Ebene 1
370
    20
 62
     0
100
AcDbSpline
210
0.0
220
0.0
230
1.0
 70
     0
 71
     3
 72
    12
 73
     8
 74
     0
 42
0.0000000001
 43
0.0000000001
 40
0.0
 40
0.0
 40
0.0
 40
0.0
 40
0.5
 40
0.5
 40
0.5
 40
0.5
 40
1.0
 40
1.0
 40
1.0
 40
1.0
 10
66.349800000000002
 20
-13.5731
 30
0.0
 10
66.349800000000002
 20
-13.5731
 30
0.0
 10
66.212299999999999
 20
-13.6517
 30
0.0
 10
66.212299999999999
 20
-13.6517
 30
0.0
 10
66.212299999999999
 20
-13.6517
 30
0.0
 10
66.212299999999999
 20
-13.6517
 30
0.0
 10
66.153300000000002
 20
-13.710700000000001
 30
0.0
 10
66.153300000000002
 20
-13.710700000000001
 30
0.0
  0
SPLINE
  5
1C4
100
AcDbEntity
  8
Ebene 1
370
    20
 62
     0
100
AcDbSpline
210
0.0
220
0.0
230
1.0
 70
     0
 71
     3
 72
    12
 73
     8
 74
     0
 42
0.0000000001
 43
0.0000000001
 40
0.0
 40
0.0
 40
0.0
 40
0.0
 40
0.5
 40
0.5
 40
0.5
 40
0.5
 40
1.0
 40
1.0
 40
1.0
 40
1.0
 10
66.153300000000002
 20
-13.710700000000001
 30
0.0
 10
66.153300000000002
 20
-13.710700000000001
 30
0.0
 10
66.074700000000007
 20
-13.5731
 30
0.0
 10
66.074700000000007
 20
-13.5731
 30
0.0
 10
66.074700000000007
 20
-13.5731
 30
0.0
 10
66.074700000000007
 20
-13.5731
 30
0.0
 10
66.015799999999999
 20
-13.5731
 30
0.0
 10
66.015799999999999
 20
-13.5731
 30
0.0
  0
SPLINE
  5
1C5
100
AcDbEntity
  8
Ebene 1
370
    20
 62
     0
100
AcDbSpline
210
0.0
220
0.0
230
1.0
 70
     0
 71
     3
 72
     8
 73
     4
 74
     0
 42
0.0000000001
 43
0.0000000001
 40
0.0
 40
0.0
 40
0.0
 40
0.0
 40
1.0
 40
1.0
 40
1.0
 40
1.0
 10
65.622700000000009
 20
-13.5731
 30
0.0
 10
65.622700000000009
 20
-13.5731
 30
0.0
 10
66.015799999999999
 20
-13.5731
 30
0.0
 10
66.015799999999999
 20
-13.5731
 30
0.0
  0
SPLINE
  5
1C6
100
AcDbEntity
  8
Ebene 1
370
    20
 62
     0
100
AcDbSpline
210
0.0
220
0.0
230
1.0
 70
     0
 71
     3
 72
    12
 73
     8
 74
     0
 42
0.0000000001
 43
0.0000000001
 40
0.0
 40
0.0
 40
0.0
 40
0.0
 40
0.5
 40
0.5
 40
0.5
 40
0.5
 40
1.0
 40
1.0
 40
1.0
 40
1.0
 10
65.622700000000009
 20
-13.5731
 30
0.0
 10
65.622700000000009
 20
-13.5731
 30
0.0
 10
65.485200000000006
 20
-13.6517
 30
0.0
 10
65.485200000000006
 20
-13.6517
 30
0.0
 10
65.485200000000006
 20
-13.6517
 30
0.0
 10
65.485200000000006
 20
-13.6517
 30
0.0
 10
65.426200000000009
 20
-13.769600000000001
 30
0.0
 10
65.426200000000009
 20
-13.769600000000001
 30
0.0
  0
SPLINE
  5
1C7
100
AcDbEntity
  8
Ebene 1
370
    20
 62
     0
100
AcDbSpline
210
0.0
220
0.0
230
1.0
 70
     0
 71
     3
 72
     8
 73
     4
 74
     0
 42
0.0000000001
 43
0.0000000001
 40
0.0
 40
0.0
 40
0.0
 40
0.0
 40
1.0
 40
1.0
 40
1.0
 40
1.0
 10
63.657500000000006
 20
-14.693200000000001
 30
0.0
 10
63.657500000000006
 20
-14.693200000000001
 30
0.0
 10
64.188100000000006
 20
-14.693200000000001
 30
0.0
 10
64.188100000000006
 20
-14.693200000000001
 30
0.0
  0
SPLINE
  5
1C8
100
AcDbEntity
  8
Ebene 1
370
    20
 62
     0
100
AcDbSpline
210
0.0
220
0.0
230
1.0
 70
     0
 71
     3
 72
     8
 73
     4
 74
     0
 42
0.0000000001
 43
0.0000000001
 40
0.0
 40
0.0
 40
0.0
 40
0.0
 40
1.0
 40
1.0
 40
1.0
 40
1.0
 10
64.188100000000006
 20
-14.496700000000001
 30
0.0
 10
64.188100000000006
 20
-14.496700000000001
 30
0.0
 10
64.188100000000006
 20
-14.693200000000001
 30
0.0
 10
64.188100000000006
 20
-14.693200000000001
 30
0.0
  0
SPLINE
  5
1C9
100
AcDbEntity
  8
Ebene 1
370
    20
 62
     0
100
AcDbSpline
210
0.0
220
0.0
230
1.0
 70
     0
 71
     3
 72
     8
 73
     4
 74
     0
 42
0.0000000001
 43
0.0000000001
 40
0.0
 40
0.0
 40
0.0
 40
0.0
 40
1.0
 40
1.0
 40
1.0
 40
1.0
 10
63.854000000000006
 20
-14.496700000000001
 30
0.0
 10
63.854000000000006
 20
-14.496700000000001
 30
0.0
 10
64.188100000000006
 20
-14.496700000000001
 30
0.0
 10
64.188100000000006
 20
-14.496700000000001
 30
0.0
  0
SPLINE
  5
1CA
100
AcDbEntity
  8
Ebene 1
370
    20
 62
     0
100
AcDbSpline
210
0.0
220
0.0
230
1.0
 70
     0
 71
     3
 72
     8
 73
     4
 74
     0
 42
0.0000000001
 43
0.0000000001
 40
0.0
 40
0.0
 40
0.0
 40
0.0
 40
1.0
 40
1.0
 40
1.0
 40
1.0
 10
63.854000000000006
 20
-13.5731
 30
0.0
 10
63.854000000000006
 20
-13.5731
 30
0.0
 10
63.854000000000006
 20
-14.496700000000001
 30
0.0
 10
63.854000000000006
 20
-14.496700000000001
 30
0.0
  0
SPLINE
  5
1CB
100
AcDbEntity
  8
Ebene 1
370
    20
 62
     0
100
AcDbSpline
210
0.0
220
0.0
230
1.0
 70
     0
 71
     3
 72
     8
 73
     4
 74
     0
 42
0.0000000001
 43
0.0000000001
 40
0.0
 40
0.0
 40
0.0
 40
0.0
 40
1.0
 40
1.0
 40
1.0
 40
1.0
 10
63.657500000000006
 20
-13.5731
 30
0.0
 10
63.657500000000006
 20
-13.5731
 30
0.0
 10
63.854000000000006
 20
-13.5731
 30
0.0
 10
63.854000000000006
 20
-13.5731
 30
0.0
  0
SPLINE
  5
1CC
100
AcDbEntity
  8
Ebene 1
370
    20
 62
     0
100
AcDbSpline
210
0.0
220
0.0
230
1.0
 70
     0
 71
     3
 72
     8
 73
     4
 74
     0
 42
0.0000000001
 43
0.0000000001
 40
0.0
 40
0.0
 40
0.0
 40
0.0
 40
1.0
 40
1.0
 40
1.0
 40
1.0
 10
64.502600000000001
 20
-14.693200000000001
 30
0.0
 10
64.502600000000001
 20
-14.693200000000001
 30
0.0
 10
64.502600000000001
 20
-13.5731
 30
0.0
 10
64.502600000000001
 20
-13.5731
 30
0.0
  0
SPLINE
  5
1CD
100
AcDbEntity
  8
Ebene 1
370
    20
 62
     0
100
AcDbSpline
210
0.0
220
0.0
230
1.0
 70
     0
 71
     3
 72
     8
 73
     4
 74
     0
 42
0.0000000001
 43
0.0000000001
 40
0.0
 40
0.0
 40
0.0
 40
0.0
 40
1.0
 40
1.0
 40
1.0
 40
1.0
 10
64.502600000000001
 20
-14.693200000000001
 30
0.0
 10
64.502600000000001
 20
-14.693200000000001
 30
0.0
 10
65.092100000000002
 20
-14.693200000000001
 30
0.0
 10
65.092100000000002
 20
-14.693200000000001
 30
0.0
  0
SPLINE
  5
1CE
100
AcDbEntity
  8
Ebene 1
370
    20
 62
     0
100
AcDbSpline
210
0.0
220
0.0
230
1.0
 70
     0
 71
     3
 72
     8
 73
     4
 74
     0
 42
0.0000000001
 43
0.0000000001
 40
0.0
 40
0.0
 40
0.0
 40
0.0
 40
1.0
 40
1.0
 40
1.0
 40
1.0
 10
65.092100000000002
 20
-14.496700000000001
 30
0.0
 10
65.092100000000002
 20
-14.496700000000001
 30
0.0
 10
65.092100000000002
 20
-14.693200000000001
 30
0.0
 10
65.092100000000002
 20
-14.693200000000001
 30
0.0
  0
SPLINE
  5
1CF
100
AcDbEntity
  8
Ebene 1
370
    20
 62
     0
100
AcDbSpline
210
0.0
220
0.0
230
1.0
 70
     0
 71
     3
 72
     8
 73
     4
 74
     0
 42
0.0000000001
 43
0.0000000001
 40
0.0
 40
0.0
 40
0.0
 40
0.0
 40
1.0
 40
1.0
 40
1.0
 40
1.0
 10
64.77770000000001
 20
-14.496700000000001
 30
0.0
 10
64.77770000000001
 20
-14.496700000000001
 30
0.0
 10
65.092100000000002
 20
-14.496700000000001
 30
0.0
 10
65.092100000000002
 20
-14.496700000000001
 30
0.0
  0
SPLINE
  5
1D0
100
AcDbEntity
  8
Ebene 1
370
    20
 62
     0
100
AcDbSpline
210
0.0
220
0.0
230
1.0
 70
     0
 71
     3
 72
     8
 73
     4
 74
     0
 42
0.0000000001
 43
0.0000000001
 40
0.0
 40
0.0
 40
0.0
 40
0.0
 40
1.0
 40
1.0
 40
1.0
 40
1.0
 10
64.77770000000001
 20
-13.5731
 30
0.0
 10
64.77770000000001
 20
-13.5731
 30
0.0
 10
64.77770000000001
 20
-14.496700000000001
 30
0.0
 10
64.77770000000001
 20
-14.496700000000001
 30
0.0
  0
SPLINE
  5
1D1
100
AcDbEntity
  8
Ebene 1
370
    20
 62
     0
100
AcDbSpline
210
0.0
220
0.0
230
1.0
 70
     0
 71
     3
 72
     8
 73
     4
 74
     0
 42
0.0000000001
 43
0.0000000001
 40
0.0
 40
0.0
 40
0.0
 40
0.0
 40
1.0
 40
1.0
 40
1.0
 40
1.0
 10
64.502600000000001
 20
-13.5731
 30
0.0
 10
64.502600000000001
 20
-13.5731
 30
0.0
 10
64.77770000000001
 20
-13.5731
 30
0.0
 10
64.77770000000001
 20
-13.5731
 30
0.0
  0
SPLINE
  5
1D2
100
AcDbEntity
  8
Ebene 1
370
    20
 62
     0
100
AcDbSpline
210
0.0
220
0.0
230
1.0
 70
     0
 71
     3
 72
     8
 73
     4
 74
     0
 42
0.0000000001
 43
0.0000000001
 40
0.0
 40
0.0
 40
0.0
 40
0.0
 40
1.0
 40
1.0
 40
1.0
 40
1.0
 10
65.426200000000009
 20
-14.693200000000001
 30
0.0
 10
65.426200000000009
 20
-14.693200000000001
 30
0.0
 10
65.426200000000009
 20
-13.769600000000001
 30
0.0
 10
65.426200000000009
 20
-13.769600000000001
 30
0.0
  0
SPLINE
  5
1D3
100
AcDbEntity
  8
Ebene 1
370
    20
 62
     0
100
AcDbSpline
210
0.0
220
0.0
230
1.0
 70
     0
 71
     3
 72
     8
 73
     4
 74
     0
 42
0.0000000001
 43
0.0000000001
 40
0.0
 40
0.0
 40
0.0
 40
0.0
 40
1.0
 40
1.0
 40
1.0
 40
1.0
 10
65.426200000000009
 20
-14.693200000000001
 30
0.0
 10
65.426200000000009
 20
-14.693200000000001
 30
0.0
 10
65.622700000000009
 20
-14.693200000000001
 30
0.0
 10
65.622700000000009
 20
-14.693200000000001
 30
0.0
  0
SPLINE
  5
1D4
100
AcDbEntity
  8
Ebene 1
370
    20
 62
     0
100
AcDbSpline
210
0.0
220
0.0
230
1.0
 70
     0
 71
     3
 72
     8
 73
     4
 74
     0
 42
0.0000000001
 43
0.0000000001
 40
0.0
 40
0.0
 40
0.0
 40
0.0
 40
1.0
 40
1.0
 40
1.0
 40
1.0
 10
65.622700000000009
 20
-13.966100000000001
 30
0.0
 10
65.622700000000009
 20
-13.966100000000001
 30
0.0
 10
65.622700000000009
 20
-14.693200000000001
 30
0.0
 10
65.622700000000009
 20
-14.693200000000001
 30
0.0
  0
SPLINE
  5
1D5
100
AcDbEntity
  8
Ebene 1
370
    20
 62
     0
100
AcDbSpline
210
0.0
220
0.0
230
1.0
 70
     0
 71
     3
 72
    12
 73
     8
 74
     0
 42
0.0000000001
 43
0.0000000001
 40
0.0
 40
0.0
 40
0.0
 40
0.0
 40
0.5
 40
0.5
 40
0.5
 40
0.5
 40
1.0
 40
1.0
 40
1.0
 40
1.0
 10
65.819200000000009
 20
-13.769600000000001
 30
0.0
 10
65.819200000000009
 20
-13.769600000000001
 30
0.0
 10
65.681700000000006
 20
-13.8482
 30
0.0
 10
65.681700000000006
 20
-13.8482
 30
0.0
 10
65.681700000000006
 20
-13.8482
 30
0.0
 10
65.681700000000006
 20
-13.8482
 30
0.0
 10
65.622700000000009
 20
-13.966100000000001
 30
0.0
 10
65.622700000000009
 20
-13.966100000000001
 30
0.0
  0
SPLINE
  5
1D6
100
AcDbEntity
  8
Ebene 1
370
    20
 62
     0
100
AcDbSpline
210
0.0
220
0.0
230
1.0
 70
     0
 71
     3
 72
     8
 73
     4
 74
     0
 42
0.0000000001
 43
0.0000000001
 40
0.0
 40
0.0
 40
0.0
 40
0.0
 40
1.0
 40
1.0
 40
1.0
 40
1.0
 10
65.819200000000009
 20
-13.769600000000001
 30
0.0
 10
65.819200000000009
 20
-13.769600000000001
 30
0.0
 10
65.878200000000007
 20
-13.769600000000001
 30
0.0
 10
65.878200000000007
 20
-13.769600000000001
 30
0.0
  0
SPLINE
  5
1D7
100
AcDbEntity
  8
Ebene 1
370
    20
 62
     0
100
AcDbSpline
210
0.0
220
0.0
230
1.0
 70
     0
 71
     3
 72
     8
 73
     4
 74
     0
 42
0.0000000001
 43
0.0000000001
 40
0.0
 40
0.0
 40
0.0
 40
0.0
 40
1.0
 40
1.0
 40
1.0
 40
1.0
 10
62.340800000000002
 20
-14.693200000000001
 30
0.0
 10
62.340800000000002
 20
-14.693200000000001
 30
0.0
 10
62.616
 20
-14.693200000000001
 30
0.0
 10
62.616
 20
-14.693200000000001
 30
0.0
  0
SPLINE
  5
1D8
100
AcDbEntity
  8
Ebene 1
370
    20
 62
     0
100
AcDbSpline
210
0.0
220
0.0
230
1.0
 70
     0
 71
     3
 72
     8
 73
     4
 74
     0
 42
0.0000000001
 43
0.0000000001
 40
0.0
 40
0.0
 40
0.0
 40
0.0
 40
1.0
 40
1.0
 40
1.0
 40
1.0
 10
62.616
 20
-14.359200000000001
 30
0.0
 10
62.616
 20
-14.359200000000001
 30
0.0
 10
62.616
 20
-14.693200000000001
 30
0.0
 10
62.616
 20
-14.693200000000001
 30
0.0
  0
SPLINE
  5
1D9
100
AcDbEntity
  8
Ebene 1
370
    20
 62
     0
100
AcDbSpline
210
0.0
220
0.0
230
1.0
 70
     0
 71
     3
 72
     8
 73
     4
 74
     0
 42
0.0000000001
 43
0.0000000001
 40
0.0
 40
0.0
 40
0.0
 40
0.0
 40
1.0
 40
1.0
 40
1.0
 40
1.0
 10
62.616
 20
-14.359200000000001
 30
0.0
 10
62.616
 20
-14.359200000000001
 30
0.0
 10
63.068000000000005
 20
-14.359200000000001
 30
0.0
 10
63.068000000000005
 20
-14.359200000000001
 30
0.0
  0
SPLINE
  5
1DA
100
AcDbEntity
  8
Ebene 1
370
    20
 62
     0
100
AcDbSpline
210
0.0
220
0.0
230
1.0
 70
     0
 71
     3
 72
     8
 73
     4
 74
     0
 42
0.0000000001
 43
0.0000000001
 40
0.0
 40
0.0
 40
0.0
 40
0.0
 40
1.0
 40
1.0
 40
1.0
 40
1.0
 10
63.068000000000005
 20
-14.693200000000001
 30
0.0
 10
63.068000000000005
 20
-14.693200000000001
 30
0.0
 10
63.068000000000005
 20
-14.359200000000001
 30
0.0
 10
63.068000000000005
 20
-14.359200000000001
 30
0.0
  0
SPLINE
  5
1DB
100
AcDbEntity
  8
Ebene 1
370
    20
 62
     0
100
AcDbSpline
210
0.0
220
0.0
230
1.0
 70
     0
 71
     3
 72
     8
 73
     4
 74
     0
 42
0.0000000001
 43
0.0000000001
 40
0.0
 40
0.0
 40
0.0
 40
0.0
 40
1.0
 40
1.0
 40
1.0
 40
1.0
 10
63.068000000000005
 20
-14.693200000000001
 30
0.0
 10
63.068000000000005
 20
-14.693200000000001
 30
0.0
 10
63.323400000000007
 20
-14.693200000000001
 30
0.0
 10
63.323400000000007
 20
-14.693200000000001
 30
0.0
  0
SPLINE
  5
1DC
100
AcDbEntity
  8
Ebene 1
370
    20
 62
     0
100
AcDbSpline
210
0.0
220
0.0
230
1.0
 70
     0
 71
     3
 72
     8
 73
     4
 74
     0
 42
0.0000000001
 43
0.0000000001
 40
0.0
 40
0.0
 40
0.0
 40
0.0
 40
1.0
 40
1.0
 40
1.0
 40
1.0
 10
63.323400000000007
 20
-13.769600000000001
 30
0.0
 10
63.323400000000007
 20
-13.769600000000001
 30
0.0
 10
63.323400000000007
 20
-14.693200000000001
 30
0.0
 10
63.323400000000007
 20
-14.693200000000001
 30
0.0
  0
SPLINE
  5
1DD
100
AcDbEntity
  8
Ebene 1
370
    20
 62
     0
100
AcDbSpline
210
0.0
220
0.0
230
1.0
 70
     0
 71
     3
 72
    12
 73
     8
 74
     0
 42
0.0000000001
 43
0.0000000001
 40
0.0
 40
0.0
 40
0.0
 40
0.0
 40
0.5
 40
0.5
 40
0.5
 40
0.5
 40
1.0
 40
1.0
 40
1.0
 40
1.0
 10
63.323400000000007
 20
-13.769600000000001
 30
0.0
 10
63.323400000000007
 20
-13.769600000000001
 30
0.0
 10
63.264500000000005
 20
-13.6517
 30
0.0
 10
63.264500000000005
 20
-13.6517
 30
0.0
 10
63.264500000000005
 20
-13.6517
 30
0.0
 10
63.264500000000005
 20
-13.6517
 30
0.0
 10
63.126900000000006
 20
-13.5731
 30
0.0
 10
63.126900000000006
 20
-13.5731
 30
0.0
  0
SPLINE
  5
1DE
100
AcDbEntity
  8
Ebene 1
370
    20
 62
     0
100
AcDbSpline
210
0.0
220
0.0
230
1.0
 70
     0
 71
     3
 72
     8
 73
     4
 74
     0
 42
0.0000000001
 43
0.0000000001
 40
0.0
 40
0.0
 40
0.0
 40
0.0
 40
1.0
 40
1.0
 40
1.0
 40
1.0
 10
62.537400000000005
 20
-13.5731
 30
0.0
 10
62.537400000000005
 20
-13.5731
 30
0.0
 10
63.126900000000006
 20
-13.5731
 30
0.0
 10
63.126900000000006
 20
-13.5731
 30
0.0
  0
SPLINE
  5
1DF
100
AcDbEntity
  8
Ebene 1
370
    20
 62
     0
100
AcDbSpline
210
0.0
220
0.0
230
1.0
 70
     0
 71
     3
 72
    12
 73
     8
 74
     0
 42
0.0000000001
 43
0.0000000001
 40
0.0
 40
0.0
 40
0.0
 40
0.0
 40
0.5
 40
0.5
 40
0.5
 40
0.5
 40
1.0
 40
1.0
 40
1.0
 40
1.0
 10
62.537400000000005
 20
-13.5731
 30
0.0
 10
62.537400000000005
 20
-13.5731
 30
0.0
 10
62.419400000000003
 20
-13.6517
 30
0.0
 10
62.419400000000003
 20
-13.6517
 30
0.0
 10
62.419400000000003
 20
-13.6517
 30
0.0
 10
62.419400000000003
 20
-13.6517
 30
0.0
 10
62.340800000000002
 20
-13.769600000000001
 30
0.0
 10
62.340800000000002
 20
-13.769600000000001
 30
0.0
  0
SPLINE
  5
1E0
100
AcDbEntity
  8
Ebene 1
370
    20
 62
     0
100
AcDbSpline
210
0.0
220
0.0
230
1.0
 70
     0
 71
     3
 72
     8
 73
     4
 74
     0
 42
0.0000000001
 43
0.0000000001
 40
0.0
 40
0.0
 40
0.0
 40
0.0
 40
1.0
 40
1.0
 40
1.0
 40
1.0
 10
62.616
 20
-13.966100000000001
 30
0.0
 10
62.616
 20
-13.966100000000001
 30
0.0
 10
62.616
 20
-14.162600000000001
 30
0.0
 10
62.616
 20
-14.162600000000001
 30
0.0
  0
SPLINE
  5
1E1
100
AcDbEntity
  8
Ebene 1
370
    20
 62
     0
100
AcDbSpline
210
0.0
220
0.0
230
1.0
 70
     0
 71
     3
 72
    12
 73
     8
 74
     0
 42
0.0000000001
 43
0.0000000001
 40
0.0
 40
0.0
 40
0.0
 40
0.0
 40
0.5
 40
0.5
 40
0.5
 40
0.5
 40
1.0
 40
1.0
 40
1.0
 40
1.0
 10
62.733900000000006
 20
-13.769600000000001
 30
0.0
 10
62.733900000000006
 20
-13.769600000000001
 30
0.0
 10
62.616
 20
-13.8482
 30
0.0
 10
62.616
 20
-13.8482
 30
0.0
 10
62.616
 20
-13.8482
 30
0.0
 10
62.616
 20
-13.8482
 30
0.0
 10
62.616
 20
-13.966100000000001
 30
0.0
 10
62.616
 20
-13.966100000000001
 30
0.0
  0
SPLINE
  5
1E2
100
AcDbEntity
  8
Ebene 1
370
    20
 62
     0
100
AcDbSpline
210
0.0
220
0.0
230
1.0
 70
     0
 71
     3
 72
     8
 73
     4
 74
     0
 42
0.0000000001
 43
0.0000000001
 40
0.0
 40
0.0
 40
0.0
 40
0.0
 40
1.0
 40
1.0
 40
1.0
 40
1.0
 10
62.733900000000006
 20
-13.769600000000001
 30
0.0
 10
62.733900000000006
 20
-13.769600000000001
 30
0.0
 10
62.930400000000006
 20
-13.769600000000001
 30
0.0
 10
62.930400000000006
 20
-13.769600000000001
 30
0.0
  0
SPLINE
  5
1E3
100
AcDbEntity
  8
Ebene 1
370
    20
 62
     0
100
AcDbSpline
210
0.0
220
0.0
230
1.0
 70
     0
 71
     3
 72
    12
 73
     8
 74
     0
 42
0.0000000001
 43
0.0000000001
 40
0.0
 40
0.0
 40
0.0
 40
0.0
 40
0.5
 40
0.5
 40
0.5
 40
0.5
 40
1.0
 40
1.0
 40
1.0
 40
1.0
 10
63.068000000000005
 20
-13.966100000000001
 30
0.0
 10
63.068000000000005
 20
-13.966100000000001
 30
0.0
 10
63.068000000000005
 20
-13.8482
 30
0.0
 10
63.068000000000005
 20
-13.8482
 30
0.0
 10
63.068000000000005
 20
-13.8482
 30
0.0
 10
63.068000000000005
 20
-13.8482
 30
0.0
 10
62.930400000000006
 20
-13.769600000000001
 30
0.0
 10
62.930400000000006
 20
-13.769600000000001
 30
0.0
  0
SPLINE
  5
1E4
100
AcDbEntity
  8
Ebene 1
370
    20
 62
     0
100
AcDbSpline
210
0.0
220
0.0
230
1.0
 70
     0
 71
     3
 72
     8
 73
     4
 74
     0
 42
0.0000000001
 43
0.0000000001
 40
0.0
 40
0.0
 40
0.0
 40
0.0
 40
1.0
 40
1.0
 40
1.0
 40
1.0
 10
63.068000000000005
 20
-14.162600000000001
 30
0.0
 10
63.068000000000005
 20
-14.162600000000001
 30
0.0
 10
63.068000000000005
 20
-13.966100000000001
 30
0.0
 10
63.068000000000005
 20
-13.966100000000001
 30
0.0
  0
SPLINE
  5
1E5
100
AcDbEntity
  8
Ebene 1
370
    20
 62
     0
100
AcDbSpline
210
0.0
220
0.0
230
1.0
 70
     0
 71
     3
 72
     8
 73
     4
 74
     0
 42
0.0000000001
 43
0.0000000001
 40
0.0
 40
0.0
 40
0.0
 40
0.0
 40
1.0
 40
1.0
 40
1.0
 40
1.0
 10
62.616
 20
-14.162600000000001
 30
0.0
 10
62.616
 20
-14.162600000000001
 30
0.0
 10
63.068000000000005
 20
-14.162600000000001
 30
0.0
 10
63.068000000000005
 20
-14.162600000000001
 30
0.0
  0
SPLINE
  5
1E6
100
AcDbEntity
  8
Ebene 1
370
    20
 62
     0
100
AcDbSpline
210
0.0
220
0.0
230
1.0
 70
     0
 71
     3
 72
     8
 73
     4
 74
     0
 42
0.0000000001
 43
0.0000000001
 40
0.0
 40
0.0
 40
0.0
 40
0.0
 40
1.0
 40
1.0
 40
1.0
 40
1.0
 10
63.657500000000006
 20
-14.693200000000001
 30
0.0
 10
63.657500000000006
 20
-14.693200000000001
 30
0.0
 10
63.657500000000006
 20
-13.5731
 30
0.0
 10
63.657500000000006
 20
-13.5731
 30
0.0
  0
SPLINE
  5
1E7
100
AcDbEntity
  8
Ebene 1
370
    20
 62
     0
100
AcDbSpline
210
0.0
220
0.0
230
1.0
 70
     0
 71
     3
 72
     8
 73
     4
 74
     0
 42
0.0000000001
 43
0.0000000001
 40
0.0
 40
0.0
 40
0.0
 40
0.0
 40
1.0
 40
1.0
 40
1.0
 40
1.0
 10
68.57050000000001
 20
-13.8482
 30
0.0
 10
68.57050000000001
 20
-13.8482
 30
0.0
 10
68.904600000000002
 20
-13.8482
 30
0.0
 10
68.904600000000002
 20
-13.8482
 30
0.0
  0
SPLINE
  5
1E8
100
AcDbEntity
  8
Ebene 1
370
    20
 62
     0
100
AcDbSpline
210
0.0
220
0.0
230
1.0
 70
     0
 71
     3
 72
     8
 73
     4
 74
     0
 42
0.0000000001
 43
0.0000000001
 40
0.0
 40
0.0
 40
0.0
 40
0.0
 40
1.0
 40
1.0
 40
1.0
 40
1.0
 10
69.219000000000008
 20
-14.241300000000001
 30
0.0
 10
69.219000000000008
 20
-14.241300000000001
 30
0.0
 10
69.297600000000003
 20
-14.1037
 30
0.0
 10
69.297600000000003
 20
-14.1037
 30
0.0
  0
SPLINE
  5
1E9
100
AcDbEntity
  8
Ebene 1
370
    20
 62
     0
100
AcDbSpline
210
0.0
220
0.0
230
1.0
 70
     0
 71
     3
 72
     8
 73
     4
 74
     0
 42
0.0000000001
 43
0.0000000001
 40
0.0
 40
0.0
 40
0.0
 40
0.0
 40
1.0
 40
1.0
 40
1.0
 40
1.0
 10
68.9636
 20
-13.966100000000001
 30
0.0
 10
68.9636
 20
-13.966100000000001
 30
0.0
 10
68.9636
 20
-13.966100000000001
 30
0.0
 10
68.9636
 20
-13.966100000000001
 30
0.0
  0
SPLINE
  5
1EA
100
AcDbEntity
  8
Ebene 1
370
    20
 62
     0
100
AcDbSpline
210
0.0
220
0.0
230
1.0
 70
     0
 71
     3
 72
     8
 73
     4
 74
     0
 42
0.0000000001
 43
0.0000000001
 40
0.0
 40
0.0
 40
0.0
 40
0.0
 40
1.0
 40
1.0
 40
1.0
 40
1.0
 10
68.57050000000001
 20
-14.437800000000001
 30
0.0
 10
68.57050000000001
 20
-14.437800000000001
 30
0.0
 10
68.904600000000002
 20
-14.437800000000001
 30
0.0
 10
68.904600000000002
 20
-14.437800000000001
 30
0.0
  0
SPLINE
  5
1EB
100
AcDbEntity
  8
Ebene 1
370
    20
 62
     0
100
AcDbSpline
210
0.0
220
0.0
230
1.0
 70
     0
 71
     3
 72
     8
 73
     4
 74
     0
 42
0.0000000001
 43
0.0000000001
 40
0.0
 40
0.0
 40
0.0
 40
0.0
 40
1.0
 40
1.0
 40
1.0
 40
1.0
 10
69.297600000000003
 20
-14.7522
 30
0.0
 10
69.297600000000003
 20
-14.7522
 30
0.0
 10
69.297600000000003
 20
-14.437800000000001
 30
0.0
 10
69.297600000000003
 20
-14.437800000000001
 30
0.0
  0
SPLINE
  5
1EC
100
AcDbEntity
  8
Ebene 1
370
    20
 62
     0
100
AcDbSpline
210
0.0
220
0.0
230
1.0
 70
     0
 71
     3
 72
    12
 73
     8
 74
     0
 42
0.0000000001
 43
0.0000000001
 40
0.0
 40
0.0
 40
0.0
 40
0.0
 40
0.5
 40
0.5
 40
0.5
 40
0.5
 40
1.0
 40
1.0
 40
1.0
 40
1.0
 10
61.888800000000003
 20
-14.693200000000001
 30
0.0
 10
61.888800000000003
 20
-14.693200000000001
 30
0.0
 10
62.026400000000002
 20
-14.634300000000001
 30
0.0
 10
62.026400000000002
 20
-14.634300000000001
 30
0.0
 10
62.026400000000002
 20
-14.634300000000001
 30
0.0
 10
62.026400000000002
 20
-14.634300000000001
 30
0.0
 10
62.026400000000002
 20
-14.496700000000001
 30
0.0
 10
62.026400000000002
 20
-14.496700000000001
 30
0.0
  0
SPLINE
  5
1ED
100
AcDbEntity
  8
Ebene 1
370
    20
 62
     0
100
AcDbSpline
210
0.0
220
0.0
230
1.0
 70
     0
 71
     3
 72
     8
 73
     4
 74
     0
 42
0.0000000001
 43
0.0000000001
 40
0.0
 40
0.0
 40
0.0
 40
0.0
 40
1.0
 40
1.0
 40
1.0
 40
1.0
 10
62.026400000000002
 20
-13.769600000000001
 30
0.0
 10
62.026400000000002
 20
-13.769600000000001
 30
0.0
 10
62.026400000000002
 20
-14.496700000000001
 30
0.0
 10
62.026400000000002
 20
-14.496700000000001
 30
0.0
  0
SPLINE
  5
1EE
100
AcDbEntity
  8
Ebene 1
370
    20
 62
     0
100
AcDbSpline
210
0.0
220
0.0
230
1.0
 70
     0
 71
     3
 72
    12
 73
     8
 74
     0
 42
0.0000000001
 43
0.0000000001
 40
0.0
 40
0.0
 40
0.0
 40
0.0
 40
0.5
 40
0.5
 40
0.5
 40
0.5
 40
1.0
 40
1.0
 40
1.0
 40
1.0
 10
62.026400000000002
 20
-13.769600000000001
 30
0.0
 10
62.026400000000002
 20
-13.769600000000001
 30
0.0
 10
62.026400000000002
 20
-13.6517
 30
0.0
 10
62.026400000000002
 20
-13.6517
 30
0.0
 10
62.026400000000002
 20
-13.6517
 30
0.0
 10
62.026400000000002
 20
-13.6517
 30
0.0
 10
61.888800000000003
 20
-13.5731
 30
0.0
 10
61.888800000000003
 20
-13.5731
 30
0.0
  0
SPLINE
  5
1EF
100
AcDbEntity
  8
Ebene 1
370
    20
 62
     0
100
AcDbSpline
210
0.0
220
0.0
230
1.0
 70
     0
 71
     3
 72
     8
 73
     4
 74
     0
 42
0.0000000001
 43
0.0000000001
 40
0.0
 40
0.0
 40
0.0
 40
0.0
 40
1.0
 40
1.0
 40
1.0
 40
1.0
 10
61.299300000000002
 20
-13.5731
 30
0.0
 10
61.299300000000002
 20
-13.5731
 30
0.0
 10
61.888800000000003
 20
-13.5731
 30
0.0
 10
61.888800000000003
 20
-13.5731
 30
0.0
  0
SPLINE
  5
1F0
100
AcDbEntity
  8
Ebene 1
370
    20
 62
     0
100
AcDbSpline
210
0.0
220
0.0
230
1.0
 70
     0
 71
     3
 72
     8
 73
     4
 74
     0
 42
0.0000000001
 43
0.0000000001
 40
0.0
 40
0.0
 40
0.0
 40
0.0
 40
1.0
 40
1.0
 40
1.0
 40
1.0
 10
61.495800000000003
 20
-13.769600000000001
 30
0.0
 10
61.495800000000003
 20
-13.769600000000001
 30
0.0
 10
61.495800000000003
 20
-14.496700000000001
 30
0.0
 10
61.495800000000003
 20
-14.496700000000001
 30
0.0
  0
SPLINE
  5
1F1
100
AcDbEntity
  8
Ebene 1
370
    20
 62
     0
100
AcDbSpline
210
0.0
220
0.0
230
1.0
 70
     0
 71
     3
 72
     8
 73
     4
 74
     0
 42
0.0000000001
 43
0.0000000001
 40
0.0
 40
0.0
 40
0.0
 40
0.0
 40
1.0
 40
1.0
 40
1.0
 40
1.0
 10
61.495800000000003
 20
-13.769600000000001
 30
0.0
 10
61.495800000000003
 20
-13.769600000000001
 30
0.0
 10
61.692300000000003
 20
-13.769600000000001
 30
0.0
 10
61.692300000000003
 20
-13.769600000000001
 30
0.0
  0
SPLINE
  5
1F2
100
AcDbEntity
  8
Ebene 1
370
    20
 62
     0
100
AcDbSpline
210
0.0
220
0.0
230
1.0
 70
     0
 71
     3
 72
    12
 73
     8
 74
     0
 42
0.0000000001
 43
0.0000000001
 40
0.0
 40
0.0
 40
0.0
 40
0.0
 40
0.5
 40
0.5
 40
0.5
 40
0.5
 40
1.0
 40
1.0
 40
1.0
 40
1.0
 10
61.829900000000002
 20
-13.966100000000001
 30
0.0
 10
61.829900000000002
 20
-13.966100000000001
 30
0.0
 10
61.751300000000001
 20
-13.8482
 30
0.0
 10
61.751300000000001
 20
-13.8482
 30
0.0
 10
61.751300000000001
 20
-13.8482
 30
0.0
 10
61.751300000000001
 20
-13.8482
 30
0.0
 10
61.692300000000003
 20
-13.769600000000001
 30
0.0
 10
61.692300000000003
 20
-13.769600000000001
 30
0.0
  0
SPLINE
  5
1F3
100
AcDbEntity
  8
Ebene 1
370
    20
 62
     0
100
AcDbSpline
210
0.0
220
0.0
230
1.0
 70
     0
 71
     3
 72
     8
 73
     4
 74
     0
 42
0.0000000001
 43
0.0000000001
 40
0.0
 40
0.0
 40
0.0
 40
0.0
 40
1.0
 40
1.0
 40
1.0
 40
1.0
 10
61.829900000000002
 20
-14.3002
 30
0.0
 10
61.829900000000002
 20
-14.3002
 30
0.0
 10
61.829900000000002
 20
-13.966100000000001
 30
0.0
 10
61.829900000000002
 20
-13.966100000000001
 30
0.0
  0
SPLINE
  5
1F4
100
AcDbEntity
  8
Ebene 1
370
    20
 62
     0
100
AcDbSpline
210
0.0
220
0.0
230
1.0
 70
     0
 71
     3
 72
    12
 73
     8
 74
     0
 42
0.0000000001
 43
0.0000000001
 40
0.0
 40
0.0
 40
0.0
 40
0.0
 40
0.5
 40
0.5
 40
0.5
 40
0.5
 40
1.0
 40
1.0
 40
1.0
 40
1.0
 10
61.692300000000003
 20
-14.496700000000001
 30
0.0
 10
61.692300000000003
 20
-14.496700000000001
 30
0.0
 10
61.751300000000001
 20
-14.437800000000001
 30
0.0
 10
61.751300000000001
 20
-14.437800000000001
 30
0.0
 10
61.751300000000001
 20
-14.437800000000001
 30
0.0
 10
61.751300000000001
 20
-14.437800000000001
 30
0.0
 10
61.829900000000002
 20
-14.3002
 30
0.0
 10
61.829900000000002
 20
-14.3002
 30
0.0
  0
SPLINE
  5
1F5
100
AcDbEntity
  8
Ebene 1
370
    20
 62
     0
100
AcDbSpline
210
0.0
220
0.0
230
1.0
 70
     0
 71
     3
 72
     8
 73
     4
 74
     0
 42
0.0000000001
 43
0.0000000001
 40
0.0
 40
0.0
 40
0.0
 40
0.0
 40
1.0
 40
1.0
 40
1.0
 40
1.0
 10
61.495800000000003
 20
-14.496700000000001
 30
0.0
 10
61.495800000000003
 20
-14.496700000000001
 30
0.0
 10
61.692300000000003
 20
-14.496700000000001
 30
0.0
 10
61.692300000000003
 20
-14.496700000000001
 30
0.0
  0
SPLINE
  5
1F6
100
AcDbEntity
  8
Ebene 1
370
    20
 62
     0
100
AcDbSpline
210
0.0
220
0.0
230
1.0
 70
     0
 71
     3
 72
     8
 73
     4
 74
     0
 42
0.0000000001
 43
0.0000000001
 40
0.0
 40
0.0
 40
0.0
 40
0.0
 40
1.0
 40
1.0
 40
1.0
 40
1.0
 10
62.340800000000002
 20
-14.693200000000001
 30
0.0
 10
62.340800000000002
 20
-14.693200000000001
 30
0.0
 10
62.340800000000002
 20
-13.769600000000001
 30
0.0
 10
62.340800000000002
 20
-13.769600000000001
 30
0.0
  0
SPLINE
  5
1F7
100
AcDbEntity
  8
Ebene 1
370
    20
 62
     0
100
AcDbSpline
210
0.0
220
0.0
230
1.0
 70
     0
 71
     3
 72
     8
 73
     4
 74
     0
 42
0.0000000001
 43
0.0000000001
 40
0.0
 40
0.0
 40
0.0
 40
0.0
 40
1.0
 40
1.0
 40
1.0
 40
1.0
 10
68.039900000000003
 20
-14.3002
 30
0.0
 10
68.039900000000003
 20
-14.3002
 30
0.0
 10
68.039900000000003
 20
-13.966100000000001
 30
0.0
 10
68.039900000000003
 20
-13.966100000000001
 30
0.0
  0
SPLINE
  5
1F8
100
AcDbEntity
  8
Ebene 1
370
    20
 62
     0
100
AcDbSpline
210
0.0
220
0.0
230
1.0
 70
     0
 71
     3
 72
     8
 73
     4
 74
     0
 42
0.0000000001
 43
0.0000000001
 40
0.0
 40
0.0
 40
0.0
 40
0.0
 40
1.0
 40
1.0
 40
1.0
 40
1.0
 10
68.57050000000001
 20
-14.044700000000001
 30
0.0
 10
68.57050000000001
 20
-14.044700000000001
 30
0.0
 10
68.57050000000001
 20
-13.8482
 30
0.0
 10
68.57050000000001
 20
-13.8482
 30
0.0
  0
SPLINE
  5
1F9
100
AcDbEntity
  8
Ebene 1
370
    20
 62
     0
100
AcDbSpline
210
0.0
220
0.0
230
1.0
 70
     0
 71
     3
 72
    12
 73
     8
 74
     0
 42
0.0000000001
 43
0.0000000001
 40
0.0
 40
0.0
 40
0.0
 40
0.0
 40
0.5
 40
0.5
 40
0.5
 40
0.5
 40
1.0
 40
1.0
 40
1.0
 40
1.0
 10
68.9636
 20
-13.966100000000001
 30
0.0
 10
68.9636
 20
-13.966100000000001
 30
0.0
 10
68.904600000000002
 20
-13.907200000000001
 30
0.0
 10
68.904600000000002
 20
-13.907200000000001
 30
0.0
 10
68.904600000000002
 20
-13.907200000000001
 30
0.0
 10
68.904600000000002
 20
-13.907200000000001
 30
0.0
 10
68.904600000000002
 20
-13.8482
 30
0.0
 10
68.904600000000002
 20
-13.8482
 30
0.0
  0
SPLINE
  5
1FA
100
AcDbEntity
  8
Ebene 1
370
    20
 62
     0
100
AcDbSpline
210
0.0
220
0.0
230
1.0
 70
     0
 71
     3
 72
     8
 73
     4
 74
     0
 42
0.0000000001
 43
0.0000000001
 40
0.0
 40
0.0
 40
0.0
 40
0.0
 40
1.0
 40
1.0
 40
1.0
 40
1.0
 10
68.236400000000003
 20
-13.514100000000001
 30
0.0
 10
68.236400000000003
 20
-13.514100000000001
 30
0.0
 10
69.101100000000002
 20
-13.514100000000001
 30
0.0
 10
69.101100000000002
 20
-13.514100000000001
 30
0.0
  0
SPLINE
  5
1FB
100
AcDbEntity
  8
Ebene 1
370
    20
 62
     0
100
AcDbSpline
210
0.0
220
0.0
230
1.0
 70
     0
 71
     3
 72
    12
 73
     8
 74
     0
 42
0.0000000001
 43
0.0000000001
 40
0.0
 40
0.0
 40
0.0
 40
0.0
 40
0.5
 40
0.5
 40
0.5
 40
0.5
 40
1.0
 40
1.0
 40
1.0
 40
1.0
 10
69.297600000000003
 20
-13.769600000000001
 30
0.0
 10
69.297600000000003
 20
-13.769600000000001
 30
0.0
 10
69.219000000000008
 20
-13.5731
 30
0.0
 10
69.219000000000008
 20
-13.5731
 30
0.0
 10
69.219000000000008
 20
-13.5731
 30
0.0
 10
69.219000000000008
 20
-13.5731
 30
0.0
 10
69.101100000000002
 20
-13.514100000000001
 30
0.0
 10
69.101100000000002
 20
-13.514100000000001
 30
0.0
  0
SPLINE
  5
1FC
100
AcDbEntity
  8
Ebene 1
370
    20
 62
     0
100
AcDbSpline
210
0.0
220
0.0
230
1.0
 70
     0
 71
     3
 72
     8
 73
     4
 74
     0
 42
0.0000000001
 43
0.0000000001
 40
0.0
 40
0.0
 40
0.0
 40
0.0
 40
1.0
 40
1.0
 40
1.0
 40
1.0
 10
68.236400000000003
 20
-14.7522
 30
0.0
 10
68.236400000000003
 20
-14.7522
 30
0.0
 10
68.57050000000001
 20
-14.7522
 30
0.0
 10
68.57050000000001
 20
-14.7522
 30
0.0
  0
SPLINE
  5
1FD
100
AcDbEntity
  8
Ebene 1
370
    20
 62
     0
100
AcDbSpline
210
0.0
220
0.0
230
1.0
 70
     0
 71
     3
 72
     8
 73
     4
 74
     0
 42
0.0000000001
 43
0.0000000001
 40
0.0
 40
0.0
 40
0.0
 40
0.0
 40
1.0
 40
1.0
 40
1.0
 40
1.0
 10
68.9636
 20
-14.7522
 30
0.0
 10
68.9636
 20
-14.7522
 30
0.0
 10
68.9636
 20
-14.496700000000001
 30
0.0
 10
68.9636
 20
-14.496700000000001
 30
0.0
  0
SPLINE
  5
1FE
100
AcDbEntity
  8
Ebene 1
370
    20
 62
     0
100
AcDbSpline
210
0.0
220
0.0
230
1.0
 70
     0
 71
     3
 72
     8
 73
     4
 74
     0
 42
0.0000000001
 43
0.0000000001
 40
0.0
 40
0.0
 40
0.0
 40
0.0
 40
1.0
 40
1.0
 40
1.0
 40
1.0
 10
68.57050000000001
 20
-14.044700000000001
 30
0.0
 10
68.57050000000001
 20
-14.044700000000001
 30
0.0
 10
68.904600000000002
 20
-14.044700000000001
 30
0.0
 10
68.904600000000002
 20
-14.044700000000001
 30
0.0
  0
SPLINE
  5
1FF
100
AcDbEntity
  8
Ebene 1
370
    20
 62
     0
100
AcDbSpline
210
0.0
220
0.0
230
1.0
 70
     0
 71
     3
 72
    12
 73
     8
 74
     0
 42
0.0000000001
 43
0.0000000001
 40
0.0
 40
0.0
 40
0.0
 40
0.0
 40
0.5
 40
0.5
 40
0.5
 40
0.5
 40
1.0
 40
1.0
 40
1.0
 40
1.0
 10
68.904600000000002
 20
-14.044700000000001
 30
0.0
 10
68.904600000000002
 20
-14.044700000000001
 30
0.0
 10
68.904600000000002
 20
-14.044700000000001
 30
0.0
 10
68.904600000000002
 20
-14.044700000000001
 30
0.0
 10
68.904600000000002
 20
-14.044700000000001
 30
0.0
 10
68.904600000000002
 20
-14.044700000000001
 30
0.0
 10
68.9636
 20
-13.966100000000001
 30
0.0
 10
68.9636
 20
-13.966100000000001
 30
0.0
  0
SPLINE
  5
200
100
AcDbEntity
  8
Ebene 1
370
    20
 62
     0
100
AcDbSpline
210
0.0
220
0.0
230
1.0
 70
     0
 71
     3
 72
     8
 73
     4
 74
     0
 42
0.0000000001
 43
0.0000000001
 40
0.0
 40
0.0
 40
0.0
 40
0.0
 40
1.0
 40
1.0
 40
1.0
 40
1.0
 10
68.57050000000001
 20
-14.7522
 30
0.0
 10
68.57050000000001
 20
-14.7522
 30
0.0
 10
68.57050000000001
 20
-14.437800000000001
 30
0.0
 10
68.57050000000001
 20
-14.437800000000001
 30
0.0
  0
SPLINE
  5
201
100
AcDbEntity
  8
Ebene 1
370
    20
 62
     0
100
AcDbSpline
210
0.0
220
0.0
230
1.0
 70
     0
 71
     3
 72
     8
 73
     4
 74
     0
 42
0.0000000001
 43
0.0000000001
 40
0.0
 40
0.0
 40
0.0
 40
0.0
 40
1.0
 40
1.0
 40
1.0
 40
1.0
 10
68.9636
 20
-14.496700000000001
 30
0.0
 10
68.9636
 20
-14.496700000000001
 30
0.0
 10
68.904600000000002
 20
-14.437800000000001
 30
0.0
 10
68.904600000000002
 20
-14.437800000000001
 30
0.0
  0
SPLINE
  5
202
100
AcDbEntity
  8
Ebene 1
370
    20
 62
     0
100
AcDbSpline
210
0.0
220
0.0
230
1.0
 70
     0
 71
     3
 72
     8
 73
     4
 74
     0
 42
0.0000000001
 43
0.0000000001
 40
0.0
 40
0.0
 40
0.0
 40
0.0
 40
1.0
 40
1.0
 40
1.0
 40
1.0
 10
68.9636
 20
-14.7522
 30
0.0
 10
68.9636
 20
-14.7522
 30
0.0
 10
69.297600000000003
 20
-14.7522
 30
0.0
 10
69.297600000000003
 20
-14.7522
 30
0.0
  0
SPLINE
  5
203
100
AcDbEntity
  8
Ebene 1
370
    20
 62
     0
100
AcDbSpline
210
0.0
220
0.0
230
1.0
 70
     0
 71
     3
 72
     8
 73
     4
 74
     0
 42
0.0000000001
 43
0.0000000001
 40
0.0
 40
0.0
 40
0.0
 40
0.0
 40
1.0
 40
1.0
 40
1.0
 40
1.0
 10
61.299300000000002
 20
-14.693200000000001
 30
0.0
 10
61.299300000000002
 20
-14.693200000000001
 30
0.0
 10
61.299300000000002
 20
-13.5731
 30
0.0
 10
61.299300000000002
 20
-13.5731
 30
0.0
  0
SPLINE
  5
204
100
AcDbEntity
  8
Ebene 1
370
    20
 62
     0
100
AcDbSpline
210
0.0
220
0.0
230
1.0
 70
     0
 71
     3
 72
     8
 73
     4
 74
     0
 42
0.0000000001
 43
0.0000000001
 40
0.0
 40
0.0
 40
0.0
 40
0.0
 40
1.0
 40
1.0
 40
1.0
 40
1.0
 10
61.299300000000002
 20
-14.693200000000001
 30
0.0
 10
61.299300000000002
 20
-14.693200000000001
 30
0.0
 10
61.888800000000003
 20
-14.693200000000001
 30
0.0
 10
61.888800000000003
 20
-14.693200000000001
 30
0.0
  0
SPLINE
  5
205
100
AcDbEntity
  8
Ebene 1
370
    20
 62
     0
100
AcDbSpline
210
0.0
220
0.0
230
1.0
 70
     0
 71
     3
 72
     8
 73
     4
 74
     0
 42
0.0000000001
 43
0.0000000001
 40
0.0
 40
0.0
 40
0.0
 40
0.0
 40
1.0
 40
1.0
 40
1.0
 40
1.0
 10
69.297600000000003
 20
-14.437800000000001
 30
0.0
 10
69.297600000000003
 20
-14.437800000000001
 30
0.0
 10
69.219000000000008
 20
-14.241300000000001
 30
0.0
 10
69.219000000000008
 20
-14.241300000000001
 30
0.0
  0
SPLINE
  5
206
100
AcDbEntity
  8
Ebene 1
370
    20
 62
     0
100
AcDbSpline
210
0.0
220
0.0
230
1.0
 70
     0
 71
     3
 72
     8
 73
     4
 74
     0
 42
0.0000000001
 43
0.0000000001
 40
0.0
 40
0.0
 40
0.0
 40
0.0
 40
1.0
 40
1.0
 40
1.0
 40
1.0
 10
69.297600000000003
 20
-14.1037
 30
0.0
 10
69.297600000000003
 20
-14.1037
 30
0.0
 10
69.297600000000003
 20
-13.769600000000001
 30
0.0
 10
69.297600000000003
 20
-13.769600000000001
 30
0.0
  0
SPLINE
  5
207
100
AcDbEntity
  8
Ebene 1
370
    20
 62
     0
100
AcDbSpline
210
0.0
220
0.0
230
1.0
 70
     0
 71
     3
 72
     8
 73
     4
 74
     0
 42
0.0000000001
 43
0.0000000001
 40
0.0
 40
0.0
 40
0.0
 40
0.0
 40
1.0
 40
1.0
 40
1.0
 40
1.0
 10
66.6053
 20
-14.7522
 30
0.0
 10
66.6053
 20
-14.7522
 30
0.0
 10
66.6053
 20
-13.966100000000001
 30
0.0
 10
66.6053
 20
-13.966100000000001
 30
0.0
  0
SPLINE
  5
208
100
AcDbEntity
  8
Ebene 1
370
    20
 62
     0
100
AcDbSpline
210
0.0
220
0.0
230
1.0
 70
     0
 71
     3
 72
     8
 73
     4
 74
     0
 42
0.0000000001
 43
0.0000000001
 40
0.0
 40
0.0
 40
0.0
 40
0.0
 40
1.0
 40
1.0
 40
1.0
 40
1.0
 10
67.135900000000007
 20
-14.7522
 30
0.0
 10
67.135900000000007
 20
-14.7522
 30
0.0
 10
67.135900000000007
 20
-13.514100000000001
 30
0.0
 10
67.135900000000007
 20
-13.514100000000001
 30
0.0
  0
SPLINE
  5
209
100
AcDbEntity
  8
Ebene 1
370
    20
 62
     0
100
AcDbSpline
210
0.0
220
0.0
230
1.0
 70
     0
 71
     3
 72
     8
 73
     4
 74
     0
 42
0.0000000001
 43
0.0000000001
 40
0.0
 40
0.0
 40
0.0
 40
0.0
 40
1.0
 40
1.0
 40
1.0
 40
1.0
 10
67.528999999999996
 20
-13.966100000000001
 30
0.0
 10
67.528999999999996
 20
-13.966100000000001
 30
0.0
 10
67.528999999999996
 20
-13.769600000000001
 30
0.0
 10
67.528999999999996
 20
-13.769600000000001
 30
0.0
  0
SPLINE
  5
20A
100
AcDbEntity
  8
Ebene 1
370
    20
 62
     0
100
AcDbSpline
210
0.0
220
0.0
230
1.0
 70
     0
 71
     3
 72
     8
 73
     4
 74
     0
 42
0.0000000001
 43
0.0000000001
 40
0.0
 40
0.0
 40
0.0
 40
0.0
 40
1.0
 40
1.0
 40
1.0
 40
1.0
 10
66.349800000000002
 20
-13.514100000000001
 30
0.0
 10
66.349800000000002
 20
-13.514100000000001
 30
0.0
 10
66.153300000000002
 20
-13.5731
 30
0.0
 10
66.153300000000002
 20
-13.5731
 30
0.0
  0
SPLINE
  5
20B
100
AcDbEntity
  8
Ebene 1
370
    20
 62
     0
100
AcDbSpline
210
0.0
220
0.0
230
1.0
 70
     0
 71
     3
 72
     8
 73
     4
 74
     0
 42
0.0000000001
 43
0.0000000001
 40
0.0
 40
0.0
 40
0.0
 40
0.0
 40
1.0
 40
1.0
 40
1.0
 40
1.0
 10
66.349800000000002
 20
-13.514100000000001
 30
0.0
 10
66.349800000000002
 20
-13.514100000000001
 30
0.0
 10
66.742900000000006
 20
-13.514100000000001
 30
0.0
 10
66.742900000000006
 20
-13.514100000000001
 30
0.0
  0
SPLINE
  5
20C
100
AcDbEntity
  8
Ebene 1
370
    20
 62
     0
100
AcDbSpline
210
0.0
220
0.0
230
1.0
 70
     0
 71
     3
 72
     8
 73
     4
 74
     0
 42
0.0000000001
 43
0.0000000001
 40
0.0
 40
0.0
 40
0.0
 40
0.0
 40
1.0
 40
1.0
 40
1.0
 40
1.0
 10
68.039900000000003
 20
-13.769600000000001
 30
0.0
 10
68.039900000000003
 20
-13.769600000000001
 30
0.0
 10
68.039900000000003
 20
-13.514100000000001
 30
0.0
 10
68.039900000000003
 20
-13.514100000000001
 30
0.0
  0
SPLINE
  5
20D
100
AcDbEntity
  8
Ebene 1
370
    20
 62
     0
100
AcDbSpline
210
0.0
220
0.0
230
1.0
 70
     0
 71
     3
 72
     8
 73
     4
 74
     0
 42
0.0000000001
 43
0.0000000001
 40
0.0
 40
0.0
 40
0.0
 40
0.0
 40
1.0
 40
1.0
 40
1.0
 40
1.0
 10
67.135900000000007
 20
-13.514100000000001
 30
0.0
 10
67.135900000000007
 20
-13.514100000000001
 30
0.0
 10
68.039900000000003
 20
-13.514100000000001
 30
0.0
 10
68.039900000000003
 20
-13.514100000000001
 30
0.0
  0
SPLINE
  5
20E
100
AcDbEntity
  8
Ebene 1
370
    20
 62
     0
100
AcDbSpline
210
0.0
220
0.0
230
1.0
 70
     0
 71
     3
 72
     8
 73
     4
 74
     0
 42
0.0000000001
 43
0.0000000001
 40
0.0
 40
0.0
 40
0.0
 40
0.0
 40
1.0
 40
1.0
 40
1.0
 40
1.0
 10
66.153300000000002
 20
-13.5731
 30
0.0
 10
66.153300000000002
 20
-13.5731
 30
0.0
 10
66.015799999999999
 20
-13.514100000000001
 30
0.0
 10
66.015799999999999
 20
-13.514100000000001
 30
0.0
  0
SPLINE
  5
20F
100
AcDbEntity
  8
Ebene 1
370
    20
 62
     0
100
AcDbSpline
210
0.0
220
0.0
230
1.0
 70
     0
 71
     3
 72
     8
 73
     4
 74
     0
 42
0.0000000001
 43
0.0000000001
 40
0.0
 40
0.0
 40
0.0
 40
0.0
 40
1.0
 40
1.0
 40
1.0
 40
1.0
 10
67.135900000000007
 20
-14.7522
 30
0.0
 10
67.135900000000007
 20
-14.7522
 30
0.0
 10
68.039900000000003
 20
-14.7522
 30
0.0
 10
68.039900000000003
 20
-14.7522
 30
0.0
  0
SPLINE
  5
210
100
AcDbEntity
  8
Ebene 1
370
    20
 62
     0
100
AcDbSpline
210
0.0
220
0.0
230
1.0
 70
     0
 71
     3
 72
     8
 73
     4
 74
     0
 42
0.0000000001
 43
0.0000000001
 40
0.0
 40
0.0
 40
0.0
 40
0.0
 40
1.0
 40
1.0
 40
1.0
 40
1.0
 10
67.528999999999996
 20
-13.769600000000001
 30
0.0
 10
67.528999999999996
 20
-13.769600000000001
 30
0.0
 10
68.039900000000003
 20
-13.769600000000001
 30
0.0
 10
68.039900000000003
 20
-13.769600000000001
 30
0.0
  0
SPLINE
  5
211
100
AcDbEntity
  8
Ebene 1
370
    20
 62
     0
100
AcDbSpline
210
0.0
220
0.0
230
1.0
 70
     0
 71
     3
 72
     8
 73
     4
 74
     0
 42
0.0000000001
 43
0.0000000001
 40
0.0
 40
0.0
 40
0.0
 40
0.0
 40
1.0
 40
1.0
 40
1.0
 40
1.0
 10
67.528999999999996
 20
-14.496700000000001
 30
0.0
 10
67.528999999999996
 20
-14.496700000000001
 30
0.0
 10
68.039900000000003
 20
-14.496700000000001
 30
0.0
 10
68.039900000000003
 20
-14.496700000000001
 30
0.0
  0
SPLINE
  5
212
100
AcDbEntity
  8
Ebene 1
370
    20
 62
     0
100
AcDbSpline
210
0.0
220
0.0
230
1.0
 70
     0
 71
     3
 72
     8
 73
     4
 74
     0
 42
0.0000000001
 43
0.0000000001
 40
0.0
 40
0.0
 40
0.0
 40
0.0
 40
1.0
 40
1.0
 40
1.0
 40
1.0
 10
68.039900000000003
 20
-14.7522
 30
0.0
 10
68.039900000000003
 20
-14.7522
 30
0.0
 10
68.039900000000003
 20
-14.496700000000001
 30
0.0
 10
68.039900000000003
 20
-14.496700000000001
 30
0.0
  0
SPLINE
  5
213
100
AcDbEntity
  8
Ebene 1
370
    20
 62
     0
100
AcDbSpline
210
0.0
220
0.0
230
1.0
 70
     0
 71
     3
 72
     8
 73
     4
 74
     0
 42
0.0000000001
 43
0.0000000001
 40
0.0
 40
0.0
 40
0.0
 40
0.0
 40
1.0
 40
1.0
 40
1.0
 40
1.0
 10
68.236400000000003
 20
-14.7522
 30
0.0
 10
68.236400000000003
 20
-14.7522
 30
0.0
 10
68.236400000000003
 20
-13.514100000000001
 30
0.0
 10
68.236400000000003
 20
-13.514100000000001
 30
0.0
  0
SPLINE
  5
214
100
AcDbEntity
  8
Ebene 1
370
    20
 62
     0
100
AcDbSpline
210
0.0
220
0.0
230
1.0
 70
     0
 71
     3
 72
     8
 73
     4
 74
     0
 42
0.0000000001
 43
0.0000000001
 40
0.0
 40
0.0
 40
0.0
 40
0.0
 40
1.0
 40
1.0
 40
1.0
 40
1.0
 10
67.528999999999996
 20
-13.966100000000001
 30
0.0
 10
67.528999999999996
 20
-13.966100000000001
 30
0.0
 10
68.039900000000003
 20
-13.966100000000001
 30
0.0
 10
68.039900000000003
 20
-13.966100000000001
 30
0.0
  0
SPLINE
  5
215
100
AcDbEntity
  8
Ebene 1
370
    20
 62
     0
100
AcDbSpline
210
0.0
220
0.0
230
1.0
 70
     0
 71
     3
 72
     8
 73
     4
 74
     0
 42
0.0000000001
 43
0.0000000001
 40
0.0
 40
0.0
 40
0.0
 40
0.0
 40
1.0
 40
1.0
 40
1.0
 40
1.0
 10
67.528999999999996
 20
-14.3002
 30
0.0
 10
67.528999999999996
 20
-14.3002
 30
0.0
 10
68.039900000000003
 20
-14.3002
 30
0.0
 10
68.039900000000003
 20
-14.3002
 30
0.0
  0
SPLINE
  5
216
100
AcDbEntity
  8
Ebene 1
370
    20
 62
     0
100
AcDbSpline
210
0.0
220
0.0
230
1.0
 70
     0
 71
     3
 72
     8
 73
     4
 74
     0
 42
0.0000000001
 43
0.0000000001
 40
0.0
 40
0.0
 40
0.0
 40
0.0
 40
1.0
 40
1.0
 40
1.0
 40
1.0
 10
67.528999999999996
 20
-14.496700000000001
 30
0.0
 10
67.528999999999996
 20
-14.496700000000001
 30
0.0
 10
67.528999999999996
 20
-14.3002
 30
0.0
 10
67.528999999999996
 20
-14.3002
 30
0.0
  0
SPLINE
  5
217
100
AcDbEntity
  8
Ebene 1
370
    20
 62
     0
100
AcDbSpline
210
0.0
220
0.0
230
1.0
 70
     0
 71
     3
 72
    12
 73
     8
 74
     0
 42
0.0000000001
 43
0.0000000001
 40
0.0
 40
0.0
 40
0.0
 40
0.0
 40
0.5
 40
0.5
 40
0.5
 40
0.5
 40
1.0
 40
1.0
 40
1.0
 40
1.0
 10
66.998400000000004
 20
-13.769600000000001
 30
0.0
 10
66.998400000000004
 20
-13.769600000000001
 30
0.0
 10
66.939400000000006
 20
-13.5731
 30
0.0
 10
66.939400000000006
 20
-13.5731
 30
0.0
 10
66.939400000000006
 20
-13.5731
 30
0.0
 10
66.939400000000006
 20
-13.5731
 30
0.0
 10
66.742900000000006
 20
-13.514100000000001
 30
0.0
 10
66.742900000000006
 20
-13.514100000000001
 30
0.0
  0
SPLINE
  5
218
100
AcDbEntity
  8
Ebene 1
370
    20
 62
     0
100
AcDbSpline
210
0.0
220
0.0
230
1.0
 70
     0
 71
     3
 72
     8
 73
     4
 74
     0
 42
0.0000000001
 43
0.0000000001
 40
0.0
 40
0.0
 40
0.0
 40
0.0
 40
1.0
 40
1.0
 40
1.0
 40
1.0
 10
66.015799999999999
 20
-14.7522
 30
0.0
 10
66.015799999999999
 20
-14.7522
 30
0.0
 10
66.015799999999999
 20
-13.966100000000001
 30
0.0
 10
66.015799999999999
 20
-13.966100000000001
 30
0.0
  0
SPLINE
  5
219
100
AcDbEntity
  8
Ebene 1
370
    20
 62
     0
100
AcDbSpline
210
0.0
220
0.0
230
1.0
 70
     0
 71
     3
 72
     8
 73
     4
 74
     0
 42
0.0000000001
 43
0.0000000001
 40
0.0
 40
0.0
 40
0.0
 40
0.0
 40
1.0
 40
1.0
 40
1.0
 40
1.0
 10
66.408799999999999
 20
-13.8482
 30
0.0
 10
66.408799999999999
 20
-13.8482
 30
0.0
 10
66.546400000000006
 20
-13.8482
 30
0.0
 10
66.546400000000006
 20
-13.8482
 30
0.0
  0
SPLINE
  5
21A
100
AcDbEntity
  8
Ebene 1
370
    20
 62
     0
100
AcDbSpline
210
0.0
220
0.0
230
1.0
 70
     0
 71
     3
 72
     8
 73
     4
 74
     0
 42
0.0000000001
 43
0.0000000001
 40
0.0
 40
0.0
 40
0.0
 40
0.0
 40
1.0
 40
1.0
 40
1.0
 40
1.0
 10
65.367199999999997
 20
-14.7522
 30
0.0
 10
65.367199999999997
 20
-14.7522
 30
0.0
 10
65.681700000000006
 20
-14.7522
 30
0.0
 10
65.681700000000006
 20
-14.7522
 30
0.0
  0
SPLINE
  5
21B
100
AcDbEntity
  8
Ebene 1
370
    20
 62
     0
100
AcDbSpline
210
0.0
220
0.0
230
1.0
 70
     0
 71
     3
 72
     8
 73
     4
 74
     0
 42
0.0000000001
 43
0.0000000001
 40
0.0
 40
0.0
 40
0.0
 40
0.0
 40
1.0
 40
1.0
 40
1.0
 40
1.0
 10
66.6053
 20
-14.7522
 30
0.0
 10
66.6053
 20
-14.7522
 30
0.0
 10
66.998400000000004
 20
-14.7522
 30
0.0
 10
66.998400000000004
 20
-14.7522
 30
0.0
  0
SPLINE
  5
21C
100
AcDbEntity
  8
Ebene 1
370
    20
 62
     0
100
AcDbSpline
210
0.0
220
0.0
230
1.0
 70
     0
 71
     3
 72
    12
 73
     8
 74
     0
 42
0.0000000001
 43
0.0000000001
 40
0.0
 40
0.0
 40
0.0
 40
0.0
 40
0.5
 40
0.5
 40
0.5
 40
0.5
 40
1.0
 40
1.0
 40
1.0
 40
1.0
 10
65.622700000000009
 20
-13.514100000000001
 30
0.0
 10
65.622700000000009
 20
-13.514100000000001
 30
0.0
 10
65.426200000000009
 20
-13.5731
 30
0.0
 10
65.426200000000009
 20
-13.5731
 30
0.0
 10
65.426200000000009
 20
-13.5731
 30
0.0
 10
65.426200000000009
 20
-13.5731
 30
0.0
 10
65.367199999999997
 20
-13.769600000000001
 30
0.0
 10
65.367199999999997
 20
-13.769600000000001
 30
0.0
  0
SPLINE
  5
21D
100
AcDbEntity
  8
Ebene 1
370
    20
 62
     0
100
AcDbSpline
210
0.0
220
0.0
230
1.0
 70
     0
 71
     3
 72
     8
 73
     4
 74
     0
 42
0.0000000001
 43
0.0000000001
 40
0.0
 40
0.0
 40
0.0
 40
0.0
 40
1.0
 40
1.0
 40
1.0
 40
1.0
 10
65.367199999999997
 20
-14.7522
 30
0.0
 10
65.367199999999997
 20
-14.7522
 30
0.0
 10
65.367199999999997
 20
-13.769600000000001
 30
0.0
 10
65.367199999999997
 20
-13.769600000000001
 30
0.0
  0
SPLINE
  5
21E
100
AcDbEntity
  8
Ebene 1
370
    20
 62
     0
100
AcDbSpline
210
0.0
220
0.0
230
1.0
 70
     0
 71
     3
 72
     8
 73
     4
 74
     0
 42
0.0000000001
 43
0.0000000001
 40
0.0
 40
0.0
 40
0.0
 40
0.0
 40
1.0
 40
1.0
 40
1.0
 40
1.0
 10
66.349800000000002
 20
-14.7522
 30
0.0
 10
66.349800000000002
 20
-14.7522
 30
0.0
 10
66.349800000000002
 20
-13.966100000000001
 30
0.0
 10
66.349800000000002
 20
-13.966100000000001
 30
0.0
  0
SPLINE
  5
21F
100
AcDbEntity
  8
Ebene 1
370
    20
 62
     0
100
AcDbSpline
210
0.0
220
0.0
230
1.0
 70
     0
 71
     3
 72
    12
 73
     8
 74
     0
 42
0.0000000001
 43
0.0000000001
 40
0.0
 40
0.0
 40
0.0
 40
0.0
 40
0.5
 40
0.5
 40
0.5
 40
0.5
 40
1.0
 40
1.0
 40
1.0
 40
1.0
 10
66.015799999999999
 20
-13.966100000000001
 30
0.0
 10
66.015799999999999
 20
-13.966100000000001
 30
0.0
 10
65.956800000000001
 20
-13.907200000000001
 30
0.0
 10
65.956800000000001
 20
-13.907200000000001
 30
0.0
 10
65.956800000000001
 20
-13.907200000000001
 30
0.0
 10
65.956800000000001
 20
-13.907200000000001
 30
0.0
 10
65.878200000000007
 20
-13.8482
 30
0.0
 10
65.878200000000007
 20
-13.8482
 30
0.0
  0
SPLINE
  5
220
100
AcDbEntity
  8
Ebene 1
370
    20
 62
     0
100
AcDbSpline
210
0.0
220
0.0
230
1.0
 70
     0
 71
     3
 72
    12
 73
     8
 74
     0
 42
0.0000000001
 43
0.0000000001
 40
0.0
 40
0.0
 40
0.0
 40
0.0
 40
0.5
 40
0.5
 40
0.5
 40
0.5
 40
1.0
 40
1.0
 40
1.0
 40
1.0
 10
65.819200000000009
 20
-13.8482
 30
0.0
 10
65.819200000000009
 20
-13.8482
 30
0.0
 10
65.760300000000001
 20
-13.907200000000001
 30
0.0
 10
65.760300000000001
 20
-13.907200000000001
 30
0.0
 10
65.760300000000001
 20
-13.907200000000001
 30
0.0
 10
65.760300000000001
 20
-13.907200000000001
 30
0.0
 10
65.681700000000006
 20
-13.966100000000001
 30
0.0
 10
65.681700000000006
 20
-13.966100000000001
 30
0.0
  0
SPLINE
  5
221
100
AcDbEntity
  8
Ebene 1
370
    20
 62
     0
100
AcDbSpline
210
0.0
220
0.0
230
1.0
 70
     0
 71
     3
 72
    12
 73
     8
 74
     0
 42
0.0000000001
 43
0.0000000001
 40
0.0
 40
0.0
 40
0.0
 40
0.0
 40
0.5
 40
0.5
 40
0.5
 40
0.5
 40
1.0
 40
1.0
 40
1.0
 40
1.0
 10
66.408799999999999
 20
-13.8482
 30
0.0
 10
66.408799999999999
 20
-13.8482
 30
0.0
 10
66.349800000000002
 20
-13.907200000000001
 30
0.0
 10
66.349800000000002
 20
-13.907200000000001
 30
0.0
 10
66.349800000000002
 20
-13.907200000000001
 30
0.0
 10
66.349800000000002
 20
-13.907200000000001
 30
0.0
 10
66.349800000000002
 20
-13.966100000000001
 30
0.0
 10
66.349800000000002
 20
-13.966100000000001
 30
0.0
  0
SPLINE
  5
222
100
AcDbEntity
  8
Ebene 1
370
    20
 62
     0
100
AcDbSpline
210
0.0
220
0.0
230
1.0
 70
     0
 71
     3
 72
     8
 73
     4
 74
     0
 42
0.0000000001
 43
0.0000000001
 40
0.0
 40
0.0
 40
0.0
 40
0.0
 40
1.0
 40
1.0
 40
1.0
 40
1.0
 10
66.015799999999999
 20
-14.7522
 30
0.0
 10
66.015799999999999
 20
-14.7522
 30
0.0
 10
66.349800000000002
 20
-14.7522
 30
0.0
 10
66.349800000000002
 20
-14.7522
 30
0.0
  0
SPLINE
  5
223
100
AcDbEntity
  8
Ebene 1
370
    20
 62
     0
100
AcDbSpline
210
0.0
220
0.0
230
1.0
 70
     0
 71
     3
 72
     8
 73
     4
 74
     0
 42
0.0000000001
 43
0.0000000001
 40
0.0
 40
0.0
 40
0.0
 40
0.0
 40
1.0
 40
1.0
 40
1.0
 40
1.0
 10
65.622700000000009
 20
-13.514100000000001
 30
0.0
 10
65.622700000000009
 20
-13.514100000000001
 30
0.0
 10
66.015799999999999
 20
-13.514100000000001
 30
0.0
 10
66.015799999999999
 20
-13.514100000000001
 30
0.0
  0
SPLINE
  5
224
100
AcDbEntity
  8
Ebene 1
370
    20
 62
     0
100
AcDbSpline
210
0.0
220
0.0
230
1.0
 70
     0
 71
     3
 72
     8
 73
     4
 74
     0
 42
0.0000000001
 43
0.0000000001
 40
0.0
 40
0.0
 40
0.0
 40
0.0
 40
1.0
 40
1.0
 40
1.0
 40
1.0
 10
65.681700000000006
 20
-14.7522
 30
0.0
 10
65.681700000000006
 20
-14.7522
 30
0.0
 10
65.681700000000006
 20
-13.966100000000001
 30
0.0
 10
65.681700000000006
 20
-13.966100000000001
 30
0.0
  0
SPLINE
  5
225
100
AcDbEntity
  8
Ebene 1
370
    20
 62
     0
100
AcDbSpline
210
0.0
220
0.0
230
1.0
 70
     0
 71
     3
 72
     8
 73
     4
 74
     0
 42
0.0000000001
 43
0.0000000001
 40
0.0
 40
0.0
 40
0.0
 40
0.0
 40
1.0
 40
1.0
 40
1.0
 40
1.0
 10
65.819200000000009
 20
-13.8482
 30
0.0
 10
65.819200000000009
 20
-13.8482
 30
0.0
 10
65.878200000000007
 20
-13.8482
 30
0.0
 10
65.878200000000007
 20
-13.8482
 30
0.0
  0
SPLINE
  5
226
100
AcDbEntity
  8
Ebene 1
370
    20
 62
     0
100
AcDbSpline
210
0.0
220
0.0
230
1.0
 70
     0
 71
     3
 72
    12
 73
     8
 74
     0
 42
0.0000000001
 43
0.0000000001
 40
0.0
 40
0.0
 40
0.0
 40
0.0
 40
0.5
 40
0.5
 40
0.5
 40
0.5
 40
1.0
 40
1.0
 40
1.0
 40
1.0
 10
66.6053
 20
-13.966100000000001
 30
0.0
 10
66.6053
 20
-13.966100000000001
 30
0.0
 10
66.6053
 20
-13.907200000000001
 30
0.0
 10
66.6053
 20
-13.907200000000001
 30
0.0
 10
66.6053
 20
-13.907200000000001
 30
0.0
 10
66.6053
 20
-13.907200000000001
 30
0.0
 10
66.546400000000006
 20
-13.8482
 30
0.0
 10
66.546400000000006
 20
-13.8482
 30
0.0
  0
SPLINE
  5
227
100
AcDbEntity
  8
Ebene 1
370
    20
 62
     0
100
AcDbSpline
210
0.0
220
0.0
230
1.0
 70
     0
 71
     3
 72
     8
 73
     4
 74
     0
 42
0.0000000001
 43
0.0000000001
 40
0.0
 40
0.0
 40
0.0
 40
0.0
 40
1.0
 40
1.0
 40
1.0
 40
1.0
 10
62.537400000000005
 20
-13.514100000000001
 30
0.0
 10
62.537400000000005
 20
-13.514100000000001
 30
0.0
 10
63.126900000000006
 20
-13.514100000000001
 30
0.0
 10
63.126900000000006
 20
-13.514100000000001
 30
0.0
  0
SPLINE
  5
228
100
AcDbEntity
  8
Ebene 1
370
    20
 62
     0
100
AcDbSpline
210
0.0
220
0.0
230
1.0
 70
     0
 71
     3
 72
     8
 73
     4
 74
     0
 42
0.0000000001
 43
0.0000000001
 40
0.0
 40
0.0
 40
0.0
 40
0.0
 40
1.0
 40
1.0
 40
1.0
 40
1.0
 10
62.674900000000001
 20
-14.044700000000001
 30
0.0
 10
62.674900000000001
 20
-14.044700000000001
 30
0.0
 10
62.674900000000001
 20
-13.966100000000001
 30
0.0
 10
62.674900000000001
 20
-13.966100000000001
 30
0.0
  0
SPLINE
  5
229
100
AcDbEntity
  8
Ebene 1
370
    20
 62
     0
100
AcDbSpline
210
0.0
220
0.0
230
1.0
 70
     0
 71
     3
 72
     8
 73
     4
 74
     0
 42
0.0000000001
 43
0.0000000001
 40
0.0
 40
0.0
 40
0.0
 40
0.0
 40
1.0
 40
1.0
 40
1.0
 40
1.0
 10
62.733900000000006
 20
-13.8482
 30
0.0
 10
62.733900000000006
 20
-13.8482
 30
0.0
 10
62.930400000000006
 20
-13.8482
 30
0.0
 10
62.930400000000006
 20
-13.8482
 30
0.0
  0
SPLINE
  5
22A
100
AcDbEntity
  8
Ebene 1
370
    20
 62
     0
100
AcDbSpline
210
0.0
220
0.0
230
1.0
 70
     0
 71
     3
 72
     8
 73
     4
 74
     0
 42
0.0000000001
 43
0.0000000001
 40
0.0
 40
0.0
 40
0.0
 40
0.0
 40
1.0
 40
1.0
 40
1.0
 40
1.0
 10
63.520000000000003
 20
-14.7522
 30
0.0
 10
63.520000000000003
 20
-14.7522
 30
0.0
 10
63.520000000000003
 20
-13.514100000000001
 30
0.0
 10
63.520000000000003
 20
-13.514100000000001
 30
0.0
  0
SPLINE
  5
22B
100
AcDbEntity
  8
Ebene 1
370
    20
 62
     0
100
AcDbSpline
210
0.0
220
0.0
230
1.0
 70
     0
 71
     3
 72
     8
 73
     4
 74
     0
 42
0.0000000001
 43
0.0000000001
 40
0.0
 40
0.0
 40
0.0
 40
0.0
 40
1.0
 40
1.0
 40
1.0
 40
1.0
 10
64.247100000000003
 20
-14.7522
 30
0.0
 10
64.247100000000003
 20
-14.7522
 30
0.0
 10
64.247100000000003
 20
-14.437800000000001
 30
0.0
 10
64.247100000000003
 20
-14.437800000000001
 30
0.0
  0
SPLINE
  5
22C
100
AcDbEntity
  8
Ebene 1
370
    20
 62
     0
100
AcDbSpline
210
0.0
220
0.0
230
1.0
 70
     0
 71
     3
 72
     8
 73
     4
 74
     0
 42
0.0000000001
 43
0.0000000001
 40
0.0
 40
0.0
 40
0.0
 40
0.0
 40
1.0
 40
1.0
 40
1.0
 40
1.0
 10
63.913000000000004
 20
-14.437800000000001
 30
0.0
 10
63.913000000000004
 20
-14.437800000000001
 30
0.0
 10
63.913000000000004
 20
-13.514100000000001
 30
0.0
 10
63.913000000000004
 20
-13.514100000000001
 30
0.0
  0
SPLINE
  5
22D
100
AcDbEntity
  8
Ebene 1
370
    20
 62
     0
100
AcDbSpline
210
0.0
220
0.0
230
1.0
 70
     0
 71
     3
 72
     8
 73
     4
 74
     0
 42
0.0000000001
 43
0.0000000001
 40
0.0
 40
0.0
 40
0.0
 40
0.0
 40
1.0
 40
1.0
 40
1.0
 40
1.0
 10
63.520000000000003
 20
-14.7522
 30
0.0
 10
63.520000000000003
 20
-14.7522
 30
0.0
 10
64.247100000000003
 20
-14.7522
 30
0.0
 10
64.247100000000003
 20
-14.7522
 30
0.0
  0
SPLINE
  5
22E
100
AcDbEntity
  8
Ebene 1
370
    20
 62
     0
100
AcDbSpline
210
0.0
220
0.0
230
1.0
 70
     0
 71
     3
 72
     8
 73
     4
 74
     0
 42
0.0000000001
 43
0.0000000001
 40
0.0
 40
0.0
 40
0.0
 40
0.0
 40
1.0
 40
1.0
 40
1.0
 40
1.0
 10
63.913000000000004
 20
-14.437800000000001
 30
0.0
 10
63.913000000000004
 20
-14.437800000000001
 30
0.0
 10
64.247100000000003
 20
-14.437800000000001
 30
0.0
 10
64.247100000000003
 20
-14.437800000000001
 30
0.0
  0
SPLINE
  5
22F
100
AcDbEntity
  8
Ebene 1
370
    20
 62
     0
100
AcDbSpline
210
0.0
220
0.0
230
1.0
 70
     0
 71
     3
 72
     8
 73
     4
 74
     0
 42
0.0000000001
 43
0.0000000001
 40
0.0
 40
0.0
 40
0.0
 40
0.0
 40
1.0
 40
1.0
 40
1.0
 40
1.0
 10
63.520000000000003
 20
-13.514100000000001
 30
0.0
 10
63.520000000000003
 20
-13.514100000000001
 30
0.0
 10
63.913000000000004
 20
-13.514100000000001
 30
0.0
 10
63.913000000000004
 20
-13.514100000000001
 30
0.0
  0
SPLINE
  5
230
100
AcDbEntity
  8
Ebene 1
370
    20
 62
     0
100
AcDbSpline
210
0.0
220
0.0
230
1.0
 70
     0
 71
     3
 72
     8
 73
     4
 74
     0
 42
0.0000000001
 43
0.0000000001
 40
0.0
 40
0.0
 40
0.0
 40
0.0
 40
1.0
 40
1.0
 40
1.0
 40
1.0
 10
64.443600000000004
 20
-14.7522
 30
0.0
 10
64.443600000000004
 20
-14.7522
 30
0.0
 10
64.443600000000004
 20
-13.514100000000001
 30
0.0
 10
64.443600000000004
 20
-13.514100000000001
 30
0.0
  0
SPLINE
  5
231
100
AcDbEntity
  8
Ebene 1
370
    20
 62
     0
100
AcDbSpline
210
0.0
220
0.0
230
1.0
 70
     0
 71
     3
 72
     8
 73
     4
 74
     0
 42
0.0000000001
 43
0.0000000001
 40
0.0
 40
0.0
 40
0.0
 40
0.0
 40
1.0
 40
1.0
 40
1.0
 40
1.0
 10
64.836600000000004
 20
-14.437800000000001
 30
0.0
 10
64.836600000000004
 20
-14.437800000000001
 30
0.0
 10
64.836600000000004
 20
-13.514100000000001
 30
0.0
 10
64.836600000000004
 20
-13.514100000000001
 30
0.0
  0
SPLINE
  5
232
100
AcDbEntity
  8
Ebene 1
370
    20
 62
     0
100
AcDbSpline
210
0.0
220
0.0
230
1.0
 70
     0
 71
     3
 72
     8
 73
     4
 74
     0
 42
0.0000000001
 43
0.0000000001
 40
0.0
 40
0.0
 40
0.0
 40
0.0
 40
1.0
 40
1.0
 40
1.0
 40
1.0
 10
65.170699999999997
 20
-14.7522
 30
0.0
 10
65.170699999999997
 20
-14.7522
 30
0.0
 10
65.170699999999997
 20
-14.437800000000001
 30
0.0
 10
65.170699999999997
 20
-14.437800000000001
 30
0.0
  0
SPLINE
  5
233
100
AcDbEntity
  8
Ebene 1
370
    20
 62
     0
100
AcDbSpline
210
0.0
220
0.0
230
1.0
 70
     0
 71
     3
 72
     8
 73
     4
 74
     0
 42
0.0000000001
 43
0.0000000001
 40
0.0
 40
0.0
 40
0.0
 40
0.0
 40
1.0
 40
1.0
 40
1.0
 40
1.0
 10
64.443600000000004
 20
-14.7522
 30
0.0
 10
64.443600000000004
 20
-14.7522
 30
0.0
 10
65.170699999999997
 20
-14.7522
 30
0.0
 10
65.170699999999997
 20
-14.7522
 30
0.0
  0
SPLINE
  5
234
100
AcDbEntity
  8
Ebene 1
370
    20
 62
     0
100
AcDbSpline
210
0.0
220
0.0
230
1.0
 70
     0
 71
     3
 72
     8
 73
     4
 74
     0
 42
0.0000000001
 43
0.0000000001
 40
0.0
 40
0.0
 40
0.0
 40
0.0
 40
1.0
 40
1.0
 40
1.0
 40
1.0
 10
64.836600000000004
 20
-14.437800000000001
 30
0.0
 10
64.836600000000004
 20
-14.437800000000001
 30
0.0
 10
65.170699999999997
 20
-14.437800000000001
 30
0.0
 10
65.170699999999997
 20
-14.437800000000001
 30
0.0
  0
SPLINE
  5
235
100
AcDbEntity
  8
Ebene 1
370
    20
 62
     0
100
AcDbSpline
210
0.0
220
0.0
230
1.0
 70
     0
 71
     3
 72
     8
 73
     4
 74
     0
 42
0.0000000001
 43
0.0000000001
 40
0.0
 40
0.0
 40
0.0
 40
0.0
 40
1.0
 40
1.0
 40
1.0
 40
1.0
 10
64.443600000000004
 20
-13.514100000000001
 30
0.0
 10
64.443600000000004
 20
-13.514100000000001
 30
0.0
 10
64.836600000000004
 20
-13.514100000000001
 30
0.0
 10
64.836600000000004
 20
-13.514100000000001
 30
0.0
  0
SPLINE
  5
236
100
AcDbEntity
  8
Ebene 1
370
    20
 62
     0
100
AcDbSpline
210
0.0
220
0.0
230
1.0
 70
     0
 71
     3
 72
     8
 73
     4
 74
     0
 42
0.0000000001
 43
0.0000000001
 40
0.0
 40
0.0
 40
0.0
 40
0.0
 40
1.0
 40
1.0
 40
1.0
 40
1.0
 10
66.998400000000004
 20
-14.7522
 30
0.0
 10
66.998400000000004
 20
-14.7522
 30
0.0
 10
66.998400000000004
 20
-13.769600000000001
 30
0.0
 10
66.998400000000004
 20
-13.769600000000001
 30
0.0
  0
SPLINE
  5
237
100
AcDbEntity
  8
Ebene 1
370
    20
 62
     0
100
AcDbSpline
210
0.0
220
0.0
230
1.0
 70
     0
 71
     3
 72
     8
 73
     4
 74
     0
 42
0.0000000001
 43
0.0000000001
 40
0.0
 40
0.0
 40
0.0
 40
0.0
 40
1.0
 40
1.0
 40
1.0
 40
1.0
 10
61.240300000000005
 20
-14.7522
 30
0.0
 10
61.240300000000005
 20
-14.7522
 30
0.0
 10
61.888800000000003
 20
-14.7522
 30
0.0
 10
61.888800000000003
 20
-14.7522
 30
0.0
  0
SPLINE
  5
238
100
AcDbEntity
  8
Ebene 1
370
    20
 62
     0
100
AcDbSpline
210
0.0
220
0.0
230
1.0
 70
     0
 71
     3
 72
    12
 73
     8
 74
     0
 42
0.0000000001
 43
0.0000000001
 40
0.0
 40
0.0
 40
0.0
 40
0.0
 40
0.5
 40
0.5
 40
0.5
 40
0.5
 40
1.0
 40
1.0
 40
1.0
 40
1.0
 10
61.692300000000003
 20
-14.437800000000001
 30
0.0
 10
61.692300000000003
 20
-14.437800000000001
 30
0.0
 10
61.751300000000001
 20
-14.359200000000001
 30
0.0
 10
61.751300000000001
 20
-14.359200000000001
 30
0.0
 10
61.751300000000001
 20
-14.359200000000001
 30
0.0
 10
61.751300000000001
 20
-14.359200000000001
 30
0.0
 10
61.751300000000001
 20
-14.3002
 30
0.0
 10
61.751300000000001
 20
-14.3002
 30
0.0
  0
SPLINE
  5
239
100
AcDbEntity
  8
Ebene 1
370
    20
 62
     0
100
AcDbSpline
210
0.0
220
0.0
230
1.0
 70
     0
 71
     3
 72
     8
 73
     4
 74
     0
 42
0.0000000001
 43
0.0000000001
 40
0.0
 40
0.0
 40
0.0
 40
0.0
 40
1.0
 40
1.0
 40
1.0
 40
1.0
 10
61.5548
 20
-14.437800000000001
 30
0.0
 10
61.5548
 20
-14.437800000000001
 30
0.0
 10
61.692300000000003
 20
-14.437800000000001
 30
0.0
 10
61.692300000000003
 20
-14.437800000000001
 30
0.0
  0
SPLINE
  5
23A
100
AcDbEntity
  8
Ebene 1
370
    20
 62
     0
100
AcDbSpline
210
0.0
220
0.0
230
1.0
 70
     0
 71
     3
 72
     8
 73
     4
 74
     0
 42
0.0000000001
 43
0.0000000001
 40
0.0
 40
0.0
 40
0.0
 40
0.0
 40
1.0
 40
1.0
 40
1.0
 40
1.0
 10
62.2819
 20
-14.7522
 30
0.0
 10
62.2819
 20
-14.7522
 30
0.0
 10
62.2819
 20
-13.769600000000001
 30
0.0
 10
62.2819
 20
-13.769600000000001
 30
0.0
  0
SPLINE
  5
23B
100
AcDbEntity
  8
Ebene 1
370
    20
 62
     0
100
AcDbSpline
210
0.0
220
0.0
230
1.0
 70
     0
 71
     3
 72
     8
 73
     4
 74
     0
 42
0.0000000001
 43
0.0000000001
 40
0.0
 40
0.0
 40
0.0
 40
0.0
 40
1.0
 40
1.0
 40
1.0
 40
1.0
 10
63.402000000000001
 20
-14.7522
 30
0.0
 10
63.402000000000001
 20
-14.7522
 30
0.0
 10
63.402000000000001
 20
-13.769600000000001
 30
0.0
 10
63.402000000000001
 20
-13.769600000000001
 30
0.0
  0
SPLINE
  5
23C
100
AcDbEntity
  8
Ebene 1
370
    20
 62
     0
100
AcDbSpline
210
0.0
220
0.0
230
1.0
 70
     0
 71
     3
 72
     8
 73
     4
 74
     0
 42
0.0000000001
 43
0.0000000001
 40
0.0
 40
0.0
 40
0.0
 40
0.0
 40
1.0
 40
1.0
 40
1.0
 40
1.0
 10
63.009
 20
-14.044700000000001
 30
0.0
 10
63.009
 20
-14.044700000000001
 30
0.0
 10
63.009
 20
-13.966100000000001
 30
0.0
 10
63.009
 20
-13.966100000000001
 30
0.0
  0
SPLINE
  5
23D
100
AcDbEntity
  8
Ebene 1
370
    20
 62
     0
100
AcDbSpline
210
0.0
220
0.0
230
1.0
 70
     0
 71
     3
 72
    12
 73
     8
 74
     0
 42
0.0000000001
 43
0.0000000001
 40
0.0
 40
0.0
 40
0.0
 40
0.0
 40
0.5
 40
0.5
 40
0.5
 40
0.5
 40
1.0
 40
1.0
 40
1.0
 40
1.0
 10
63.009
 20
-13.966100000000001
 30
0.0
 10
63.009
 20
-13.966100000000001
 30
0.0
 10
63.009
 20
-13.907200000000001
 30
0.0
 10
63.009
 20
-13.907200000000001
 30
0.0
 10
63.009
 20
-13.907200000000001
 30
0.0
 10
63.009
 20
-13.907200000000001
 30
0.0
 10
62.930400000000006
 20
-13.8482
 30
0.0
 10
62.930400000000006
 20
-13.8482
 30
0.0
  0
SPLINE
  5
23E
100
AcDbEntity
  8
Ebene 1
370
    20
 62
     0
100
AcDbSpline
210
0.0
220
0.0
230
1.0
 70
     0
 71
     3
 72
     8
 73
     4
 74
     0
 42
0.0000000001
 43
0.0000000001
 40
0.0
 40
0.0
 40
0.0
 40
0.0
 40
1.0
 40
1.0
 40
1.0
 40
1.0
 10
62.2819
 20
-14.7522
 30
0.0
 10
62.2819
 20
-14.7522
 30
0.0
 10
62.674900000000001
 20
-14.7522
 30
0.0
 10
62.674900000000001
 20
-14.7522
 30
0.0
  0
SPLINE
  5
23F
100
AcDbEntity
  8
Ebene 1
370
    20
 62
     0
100
AcDbSpline
210
0.0
220
0.0
230
1.0
 70
     0
 71
     3
 72
     8
 73
     4
 74
     0
 42
0.0000000001
 43
0.0000000001
 40
0.0
 40
0.0
 40
0.0
 40
0.0
 40
1.0
 40
1.0
 40
1.0
 40
1.0
 10
63.009
 20
-14.7522
 30
0.0
 10
63.009
 20
-14.7522
 30
0.0
 10
63.402000000000001
 20
-14.7522
 30
0.0
 10
63.402000000000001
 20
-14.7522
 30
0.0
  0
SPLINE
  5
240
100
AcDbEntity
  8
Ebene 1
370
    20
 62
     0
100
AcDbSpline
210
0.0
220
0.0
230
1.0
 70
     0
 71
     3
 72
    12
 73
     8
 74
     0
 42
0.0000000001
 43
0.0000000001
 40
0.0
 40
0.0
 40
0.0
 40
0.0
 40
0.5
 40
0.5
 40
0.5
 40
0.5
 40
1.0
 40
1.0
 40
1.0
 40
1.0
 10
62.537400000000005
 20
-13.514100000000001
 30
0.0
 10
62.537400000000005
 20
-13.514100000000001
 30
0.0
 10
62.340800000000002
 20
-13.5731
 30
0.0
 10
62.340800000000002
 20
-13.5731
 30
0.0
 10
62.340800000000002
 20
-13.5731
 30
0.0
 10
62.340800000000002
 20
-13.5731
 30
0.0
 10
62.2819
 20
-13.769600000000001
 30
0.0
 10
62.2819
 20
-13.769600000000001
 30
0.0
  0
SPLINE
  5
241
100
AcDbEntity
  8
Ebene 1
370
    20
 62
     0
100
AcDbSpline
210
0.0
220
0.0
230
1.0
 70
     0
 71
     3
 72
     8
 73
     4
 74
     0
 42
0.0000000001
 43
0.0000000001
 40
0.0
 40
0.0
 40
0.0
 40
0.0
 40
1.0
 40
1.0
 40
1.0
 40
1.0
 10
62.674900000000001
 20
-14.437800000000001
 30
0.0
 10
62.674900000000001
 20
-14.437800000000001
 30
0.0
 10
63.009
 20
-14.437800000000001
 30
0.0
 10
63.009
 20
-14.437800000000001
 30
0.0
  0
SPLINE
  5
242
100
AcDbEntity
  8
Ebene 1
370
    20
 62
     0
100
AcDbSpline
210
0.0
220
0.0
230
1.0
 70
     0
 71
     3
 72
     8
 73
     4
 74
     0
 42
0.0000000001
 43
0.0000000001
 40
0.0
 40
0.0
 40
0.0
 40
0.0
 40
1.0
 40
1.0
 40
1.0
 40
1.0
 10
62.674900000000001
 20
-14.044700000000001
 30
0.0
 10
62.674900000000001
 20
-14.044700000000001
 30
0.0
 10
63.009
 20
-14.044700000000001
 30
0.0
 10
63.009
 20
-14.044700000000001
 30
0.0
  0
SPLINE
  5
243
100
AcDbEntity
  8
Ebene 1
370
    20
 62
     0
100
AcDbSpline
210
0.0
220
0.0
230
1.0
 70
     0
 71
     3
 72
    12
 73
     8
 74
     0
 42
0.0000000001
 43
0.0000000001
 40
0.0
 40
0.0
 40
0.0
 40
0.0
 40
0.5
 40
0.5
 40
0.5
 40
0.5
 40
1.0
 40
1.0
 40
1.0
 40
1.0
 10
62.733900000000006
 20
-13.8482
 30
0.0
 10
62.733900000000006
 20
-13.8482
 30
0.0
 10
62.674900000000001
 20
-13.907200000000001
 30
0.0
 10
62.674900000000001
 20
-13.907200000000001
 30
0.0
 10
62.674900000000001
 20
-13.907200000000001
 30
0.0
 10
62.674900000000001
 20
-13.907200000000001
 30
0.0
 10
62.674900000000001
 20
-13.966100000000001
 30
0.0
 10
62.674900000000001
 20
-13.966100000000001
 30
0.0
  0
SPLINE
  5
244
100
AcDbEntity
  8
Ebene 1
370
    20
 62
     0
100
AcDbSpline
210
0.0
220
0.0
230
1.0
 70
     0
 71
     3
 72
     8
 73
     4
 74
     0
 42
0.0000000001
 43
0.0000000001
 40
0.0
 40
0.0
 40
0.0
 40
0.0
 40
1.0
 40
1.0
 40
1.0
 40
1.0
 10
62.674900000000001
 20
-14.7522
 30
0.0
 10
62.674900000000001
 20
-14.7522
 30
0.0
 10
62.674900000000001
 20
-14.437800000000001
 30
0.0
 10
62.674900000000001
 20
-14.437800000000001
 30
0.0
  0
SPLINE
  5
245
100
AcDbEntity
  8
Ebene 1
370
    20
 62
     0
100
AcDbSpline
210
0.0
220
0.0
230
1.0
 70
     0
 71
     3
 72
     8
 73
     4
 74
     0
 42
0.0000000001
 43
0.0000000001
 40
0.0
 40
0.0
 40
0.0
 40
0.0
 40
1.0
 40
1.0
 40
1.0
 40
1.0
 10
63.009
 20
-14.7522
 30
0.0
 10
63.009
 20
-14.7522
 30
0.0
 10
63.009
 20
-14.437800000000001
 30
0.0
 10
63.009
 20
-14.437800000000001
 30
0.0
  0
SPLINE
  5
246
100
AcDbEntity
  8
Ebene 1
370
    20
 62
     0
100
AcDbSpline
210
0.0
220
0.0
230
1.0
 70
     0
 71
     3
 72
    12
 73
     8
 74
     0
 42
0.0000000001
 43
0.0000000001
 40
0.0
 40
0.0
 40
0.0
 40
0.0
 40
0.5
 40
0.5
 40
0.5
 40
0.5
 40
1.0
 40
1.0
 40
1.0
 40
1.0
 10
63.402000000000001
 20
-13.769600000000001
 30
0.0
 10
63.402000000000001
 20
-13.769600000000001
 30
0.0
 10
63.323400000000007
 20
-13.5731
 30
0.0
 10
63.323400000000007
 20
-13.5731
 30
0.0
 10
63.323400000000007
 20
-13.5731
 30
0.0
 10
63.323400000000007
 20
-13.5731
 30
0.0
 10
63.126900000000006
 20
-13.514100000000001
 30
0.0
 10
63.126900000000006
 20
-13.514100000000001
 30
0.0
  0
SPLINE
  5
247
100
AcDbEntity
  8
Ebene 1
370
    20
 62
     0
100
AcDbSpline
210
0.0
220
0.0
230
1.0
 70
     0
 71
     3
 72
     8
 73
     4
 74
     0
 42
0.0000000001
 43
0.0000000001
 40
0.0
 40
0.0
 40
0.0
 40
0.0
 40
1.0
 40
1.0
 40
1.0
 40
1.0
 10
81.403300000000002
 20
43.535499999999999
 30
0.0
 10
81.403300000000002
 20
43.535499999999999
 30
0.0
 10
83.761499999999998
 20
43.280000000000001
 30
0.0
 10
83.761499999999998
 20
43.280000000000001
 30
0.0
  0
SPLINE
  5
248
100
AcDbEntity
  8
Ebene 1
370
    20
 62
     0
100
AcDbSpline
210
0.0
220
0.0
230
1.0
 70
     0
 71
     3
 72
     8
 73
     4
 74
     0
 42
0.0000000001
 43
0.0000000001
 40
0.0
 40
0.0
 40
0.0
 40
0.0
 40
1.0
 40
1.0
 40
1.0
 40
1.0
 10
81.403300000000002
 20
42.945900000000002
 30
0.0
 10
81.403300000000002
 20
42.945900000000002
 30
0.0
 10
83.761499999999998
 20
43.280000000000001
 30
0.0
 10
83.761499999999998
 20
43.280000000000001
 30
0.0
  0
SPLINE
  5
249
100
AcDbEntity
  8
Ebene 1
370
    20
 62
     0
100
AcDbSpline
210
0.0
220
0.0
230
1.0
 70
     0
 71
     3
 72
     8
 73
     4
 74
     0
 42
0.0000000001
 43
0.0000000001
 40
0.0
 40
0.0
 40
0.0
 40
0.0
 40
1.0
 40
1.0
 40
1.0
 40
1.0
 10
81.48190000000001
 20
43.9285
 30
0.0
 10
81.48190000000001
 20
43.9285
 30
0.0
 10
86.591400000000007
 20
43.280000000000001
 30
0.0
 10
86.591400000000007
 20
43.280000000000001
 30
0.0
  0
SPLINE
  5
24A
100
AcDbEntity
  8
Ebene 1
370
    20
 62
     0
100
AcDbSpline
210
0.0
220
0.0
230
1.0
 70
     0
 71
     3
 72
     8
 73
     4
 74
     0
 42
0.0000000001
 43
0.0000000001
 40
0.0
 40
0.0
 40
0.0
 40
0.0
 40
1.0
 40
1.0
 40
1.0
 40
1.0
 10
81.48190000000001
 20
42.552900000000001
 30
0.0
 10
81.48190000000001
 20
42.552900000000001
 30
0.0
 10
86.591400000000007
 20
43.280000000000001
 30
0.0
 10
86.591400000000007
 20
43.280000000000001
 30
0.0
  0
SPLINE
  5
24B
100
AcDbEntity
  8
Ebene 1
370
    20
 62
     0
100
AcDbSpline
210
0.0
220
0.0
230
1.0
 70
     0
 71
     3
 72
     8
 73
     4
 74
     0
 42
0.0000000001
 43
0.0000000001
 40
0.0
 40
0.0
 40
0.0
 40
0.0
 40
1.0
 40
1.0
 40
1.0
 40
1.0
 10
81.48190000000001
 20
44.321600000000004
 30
0.0
 10
81.48190000000001
 20
44.321600000000004
 30
0.0
 10
89.401600000000002
 20
43.280000000000001
 30
0.0
 10
89.401600000000002
 20
43.280000000000001
 30
0.0
  0
SPLINE
  5
24C
100
AcDbEntity
  8
Ebene 1
370
    20
 62
     0
100
AcDbSpline
210
0.0
220
0.0
230
1.0
 70
     0
 71
     3
 72
     8
 73
     4
 74
     0
 42
0.0000000001
 43
0.0000000001
 40
0.0
 40
0.0
 40
0.0
 40
0.0
 40
1.0
 40
1.0
 40
1.0
 40
1.0
 10
81.48190000000001
 20
42.238500000000002
 30
0.0
 10
81.48190000000001
 20
42.238500000000002
 30
0.0
 10
89.401600000000002
 20
43.280000000000001
 30
0.0
 10
89.401600000000002
 20
43.280000000000001
 30
0.0
  0
SPLINE
  5
24D
100
AcDbEntity
  8
Ebene 1
370
    20
 62
     0
100
AcDbSpline
210
0.0
220
0.0
230
1.0
 70
     0
 71
     3
 72
     8
 73
     4
 74
     0
 42
0.0000000001
 43
0.0000000001
 40
0.0
 40
0.0
 40
0.0
 40
0.0
 40
1.0
 40
1.0
 40
1.0
 40
1.0
 10
81.48190000000001
 20
41.845400000000005
 30
0.0
 10
81.48190000000001
 20
41.845400000000005
 30
0.0
 10
81.48190000000001
 20
44.6556
 30
0.0
 10
81.48190000000001
 20
44.6556
 30
0.0
  0
SPLINE
  5
24E
100
AcDbEntity
  8
Ebene 1
370
    20
 62
     0
100
AcDbSpline
210
0.0
220
0.0
230
1.0
 70
     0
 71
     3
 72
     8
 73
     4
 74
     0
 42
0.0000000001
 43
0.0000000001
 40
0.0
 40
0.0
 40
0.0
 40
0.0
 40
1.0
 40
1.0
 40
1.0
 40
1.0
 10
81.48190000000001
 20
44.6556
 30
0.0
 10
81.48190000000001
 20
44.6556
 30
0.0
 10
92.211800000000011
 20
43.280000000000001
 30
0.0
 10
92.211800000000011
 20
43.280000000000001
 30
0.0
  0
SPLINE
  5
24F
100
AcDbEntity
  8
Ebene 1
370
    20
 62
     0
100
AcDbSpline
210
0.0
220
0.0
230
1.0
 70
     0
 71
     3
 72
     8
 73
     4
 74
     0
 42
0.0000000001
 43
0.0000000001
 40
0.0
 40
0.0
 40
0.0
 40
0.0
 40
1.0
 40
1.0
 40
1.0
 40
1.0
 10
81.48190000000001
 20
41.845400000000005
 30
0.0
 10
81.48190000000001
 20
41.845400000000005
 30
0.0
 10
92.211800000000011
 20
43.280000000000001
 30
0.0
 10
92.211800000000011
 20
43.280000000000001
 30
0.0
  0
SPLINE
  5
250
100
AcDbEntity
  8
Ebene 1
370
    20
 62
     0
100
AcDbSpline
210
0.0
220
0.0
230
1.0
 70
     0
 71
     3
 72
     8
 73
     4
 74
     0
 42
0.0000000001
 43
0.0000000001
 40
0.0
 40
0.0
 40
0.0
 40
0.0
 40
1.0
 40
1.0
 40
1.0
 40
1.0
 10
44.595100000000002
 20
43.280000000000001
 30
0.0
 10
44.595100000000002
 20
43.280000000000001
 30
0.0
 10
46.953299999999999
 20
42.945900000000002
 30
0.0
 10
46.953299999999999
 20
42.945900000000002
 30
0.0
  0
SPLINE
  5
251
100
AcDbEntity
  8
Ebene 1
370
    20
 62
     0
100
AcDbSpline
210
0.0
220
0.0
230
1.0
 70
     0
 71
     3
 72
     8
 73
     4
 74
     0
 42
0.0000000001
 43
0.0000000001
 40
0.0
 40
0.0
 40
0.0
 40
0.0
 40
1.0
 40
1.0
 40
1.0
 40
1.0
 10
44.595100000000002
 20
43.280000000000001
 30
0.0
 10
44.595100000000002
 20
43.280000000000001
 30
0.0
 10
46.953299999999999
 20
43.535499999999999
 30
0.0
 10
46.953299999999999
 20
43.535499999999999
 30
0.0
  0
SPLINE
  5
252
100
AcDbEntity
  8
Ebene 1
370
    20
 62
     0
100
AcDbSpline
210
0.0
220
0.0
230
1.0
 70
     0
 71
     3
 72
     8
 73
     4
 74
     0
 42
0.0000000001
 43
0.0000000001
 40
0.0
 40
0.0
 40
0.0
 40
0.0
 40
1.0
 40
1.0
 40
1.0
 40
1.0
 10
41.7849
 20
43.280000000000001
 30
0.0
 10
41.7849
 20
43.280000000000001
 30
0.0
 10
46.953299999999999
 20
42.552900000000001
 30
0.0
 10
46.953299999999999
 20
42.552900000000001
 30
0.0
  0
SPLINE
  5
253
100
AcDbEntity
  8
Ebene 1
370
    20
 62
     0
100
AcDbSpline
210
0.0
220
0.0
230
1.0
 70
     0
 71
     3
 72
     8
 73
     4
 74
     0
 42
0.0000000001
 43
0.0000000001
 40
0.0
 40
0.0
 40
0.0
 40
0.0
 40
1.0
 40
1.0
 40
1.0
 40
1.0
 10
41.7849
 20
43.280000000000001
 30
0.0
 10
41.7849
 20
43.280000000000001
 30
0.0
 10
46.953299999999999
 20
43.9285
 30
0.0
 10
46.953299999999999
 20
43.9285
 30
0.0
  0
SPLINE
  5
254
100
AcDbEntity
  8
Ebene 1
370
    20
 62
     0
100
AcDbSpline
210
0.0
220
0.0
230
1.0
 70
     0
 71
     3
 72
     8
 73
     4
 74
     0
 42
0.0000000001
 43
0.0000000001
 40
0.0
 40
0.0
 40
0.0
 40
0.0
 40
1.0
 40
1.0
 40
1.0
 40
1.0
 10
38.955000000000005
 20
43.280000000000001
 30
0.0
 10
38.955000000000005
 20
43.280000000000001
 30
0.0
 10
46.894400000000005
 20
42.238500000000002
 30
0.0
 10
46.894400000000005
 20
42.238500000000002
 30
0.0
  0
SPLINE
  5
255
100
AcDbEntity
  8
Ebene 1
370
    20
 62
     0
100
AcDbSpline
210
0.0
220
0.0
230
1.0
 70
     0
 71
     3
 72
     8
 73
     4
 74
     0
 42
0.0000000001
 43
0.0000000001
 40
0.0
 40
0.0
 40
0.0
 40
0.0
 40
1.0
 40
1.0
 40
1.0
 40
1.0
 10
38.955000000000005
 20
43.280000000000001
 30
0.0
 10
38.955000000000005
 20
43.280000000000001
 30
0.0
 10
46.894400000000005
 20
44.321600000000004
 30
0.0
 10
46.894400000000005
 20
44.321600000000004
 30
0.0
  0
SPLINE
  5
256
100
AcDbEntity
  8
Ebene 1
370
    20
 62
     0
100
AcDbSpline
210
0.0
220
0.0
230
1.0
 70
     0
 71
     3
 72
     8
 73
     4
 74
     0
 42
0.0000000001
 43
0.0000000001
 40
0.0
 40
0.0
 40
0.0
 40
0.0
 40
1.0
 40
1.0
 40
1.0
 40
1.0
 10
46.894400000000005
 20
44.6556
 30
0.0
 10
46.894400000000005
 20
44.6556
 30
0.0
 10
46.894400000000005
 20
41.845400000000005
 30
0.0
 10
46.894400000000005
 20
41.845400000000005
 30
0.0
  0
SPLINE
  5
257
100
AcDbEntity
  8
Ebene 1
370
    20
 62
     0
100
AcDbSpline
210
0.0
220
0.0
230
1.0
 70
     0
 71
     3
 72
     8
 73
     4
 74
     0
 42
0.0000000001
 43
0.0000000001
 40
0.0
 40
0.0
 40
0.0
 40
0.0
 40
1.0
 40
1.0
 40
1.0
 40
1.0
 10
36.144800000000004
 20
43.280000000000001
 30
0.0
 10
36.144800000000004
 20
43.280000000000001
 30
0.0
 10
46.894400000000005
 20
41.845400000000005
 30
0.0
 10
46.894400000000005
 20
41.845400000000005
 30
0.0
  0
SPLINE
  5
258
100
AcDbEntity
  8
Ebene 1
370
    20
 62
     0
100
AcDbSpline
210
0.0
220
0.0
230
1.0
 70
     0
 71
     3
 72
     8
 73
     4
 74
     0
 42
0.0000000001
 43
0.0000000001
 40
0.0
 40
0.0
 40
0.0
 40
0.0
 40
1.0
 40
1.0
 40
1.0
 40
1.0
 10
36.144800000000004
 20
43.280000000000001
 30
0.0
 10
36.144800000000004
 20
43.280000000000001
 30
0.0
 10
46.894400000000005
 20
44.6556
 30
0.0
 10
46.894400000000005
 20
44.6556
 30
0.0
  0
SPLINE
  5
259
100
AcDbEntity
  8
Ebene 1
370
    20
 62
     0
100
AcDbSpline
210
0.0
220
0.0
230
1.0
 70
     0
 71
     3
 72
     8
 73
     4
 74
     0
 42
0.0000000001
 43
0.0000000001
 40
0.0
 40
0.0
 40
0.0
 40
0.0
 40
1.0
 40
1.0
 40
1.0
 40
1.0
 10
36.144800000000004
 20
43.280000000000001
 30
0.0
 10
36.144800000000004
 20
43.280000000000001
 30
0.0
 10
92.211800000000011
 20
43.280000000000001
 30
0.0
 10
92.211800000000011
 20
43.280000000000001
 30
0.0
  0
SPLINE
  5
25A
100
AcDbEntity
  8
Ebene 1
370
    20
 62
     0
100
AcDbSpline
210
0.0
220
0.0
230
1.0
 70
     0
 71
     3
 72
     8
 73
     4
 74
     0
 42
0.0000000001
 43
0.0000000001
 40
0.0
 40
0.0
 40
0.0
 40
0.0
 40
1.0
 40
1.0
 40
1.0
 40
1.0
 10
92.211800000000011
 20
49.765100000000004
 30
0.0
 10
92.211800000000011
 20
49.765100000000004
 30
0.0
 10
92.211800000000011
 20
5.2928000000000006
 30
0.0
 10
92.211800000000011
 20
5.2928000000000006
 30
0.0
  0
SPLINE
  5
25B
100
AcDbEntity
  8
Ebene 1
370
    20
 62
     0
100
AcDbSpline
210
0.0
220
0.0
230
1.0
 70
     0
 71
     3
 72
     8
 73
     4
 74
     0
 42
0.0000000001
 43
0.0000000001
 40
0.0
 40
0.0
 40
0.0
 40
0.0
 40
1.0
 40
1.0
 40
1.0
 40
1.0
 10
36.144800000000004
 20
49.765100000000004
 30
0.0
 10
36.144800000000004
 20
49.765100000000004
 30
0.0
 10
36.144800000000004
 20
5.2928000000000006
 30
0.0
 10
36.144800000000004
 20
5.2928000000000006
 30
0.0
  0
SPLINE
  5
25C
100
AcDbEntity
  8
Ebene 1
370
    20
 62
     0
100
AcDbSpline
210
0.0
220
0.0
230
1.0
 70
     0
 71
     3
 72
     8
 73
     4
 74
     0
 42
0.0000000001
 43
0.0000000001
 40
0.0
 40
0.0
 40
0.0
 40
0.0
 40
1.0
 40
1.0
 40
1.0
 40
1.0
 10
61.240300000000005
 20
-13.514100000000001
 30
0.0
 10
61.240300000000005
 20
-13.514100000000001
 30
0.0
 10
61.888800000000003
 20
-13.514100000000001
 30
0.0
 10
61.888800000000003
 20
-13.514100000000001
 30
0.0
  0
SPLINE
  5
25D
100
AcDbEntity
  8
Ebene 1
370
    20
 62
     0
100
AcDbSpline
210
0.0
220
0.0
230
1.0
 70
     0
 71
     3
 72
    12
 73
     8
 74
     0
 42
0.0000000001
 43
0.0000000001
 40
0.0
 40
0.0
 40
0.0
 40
0.0
 40
0.5
 40
0.5
 40
0.5
 40
0.5
 40
1.0
 40
1.0
 40
1.0
 40
1.0
 10
61.888800000000003
 20
-14.7522
 30
0.0
 10
61.888800000000003
 20
-14.7522
 30
0.0
 10
62.026400000000002
 20
-14.693200000000001
 30
0.0
 10
62.026400000000002
 20
-14.693200000000001
 30
0.0
 10
62.026400000000002
 20
-14.693200000000001
 30
0.0
 10
62.026400000000002
 20
-14.693200000000001
 30
0.0
 10
62.0854
 20
-14.496700000000001
 30
0.0
 10
62.0854
 20
-14.496700000000001
 30
0.0
  0
SPLINE
  5
25E
100
AcDbEntity
  8
Ebene 1
370
    20
 62
     0
100
AcDbSpline
210
0.0
220
0.0
230
1.0
 70
     0
 71
     3
 72
     8
 73
     4
 74
     0
 42
0.0000000001
 43
0.0000000001
 40
0.0
 40
0.0
 40
0.0
 40
0.0
 40
1.0
 40
1.0
 40
1.0
 40
1.0
 10
62.0854
 20
-14.496700000000001
 30
0.0
 10
62.0854
 20
-14.496700000000001
 30
0.0
 10
62.0854
 20
-13.769600000000001
 30
0.0
 10
62.0854
 20
-13.769600000000001
 30
0.0
  0
SPLINE
  5
25F
100
AcDbEntity
  8
Ebene 1
370
    20
 62
     0
100
AcDbSpline
210
0.0
220
0.0
230
1.0
 70
     0
 71
     3
 72
     8
 73
     4
 74
     0
 42
0.0000000001
 43
0.0000000001
 40
0.0
 40
0.0
 40
0.0
 40
0.0
 40
1.0
 40
1.0
 40
1.0
 40
1.0
 10
61.5548
 20
-14.437800000000001
 30
0.0
 10
61.5548
 20
-14.437800000000001
 30
0.0
 10
61.5548
 20
-13.8482
 30
0.0
 10
61.5548
 20
-13.8482
 30
0.0
  0
SPLINE
  5
260
100
AcDbEntity
  8
Ebene 1
370
    20
 62
     0
100
AcDbSpline
210
0.0
220
0.0
230
1.0
 70
     0
 71
     3
 72
     8
 73
     4
 74
     0
 42
0.0000000001
 43
0.0000000001
 40
0.0
 40
0.0
 40
0.0
 40
0.0
 40
1.0
 40
1.0
 40
1.0
 40
1.0
 10
61.5548
 20
-13.8482
 30
0.0
 10
61.5548
 20
-13.8482
 30
0.0
 10
61.692300000000003
 20
-13.8482
 30
0.0
 10
61.692300000000003
 20
-13.8482
 30
0.0
  0
SPLINE
  5
261
100
AcDbEntity
  8
Ebene 1
370
    20
 62
     0
100
AcDbSpline
210
0.0
220
0.0
230
1.0
 70
     0
 71
     3
 72
    12
 73
     8
 74
     0
 42
0.0000000001
 43
0.0000000001
 40
0.0
 40
0.0
 40
0.0
 40
0.0
 40
0.5
 40
0.5
 40
0.5
 40
0.5
 40
1.0
 40
1.0
 40
1.0
 40
1.0
 10
62.0854
 20
-13.769600000000001
 30
0.0
 10
62.0854
 20
-13.769600000000001
 30
0.0
 10
62.026400000000002
 20
-13.5731
 30
0.0
 10
62.026400000000002
 20
-13.5731
 30
0.0
 10
62.026400000000002
 20
-13.5731
 30
0.0
 10
62.026400000000002
 20
-13.5731
 30
0.0
 10
61.888800000000003
 20
-13.514100000000001
 30
0.0
 10
61.888800000000003
 20
-13.514100000000001
 30
0.0
  0
SPLINE
  5
262
100
AcDbEntity
  8
Ebene 1
370
    20
 62
     0
100
AcDbSpline
210
0.0
220
0.0
230
1.0
 70
     0
 71
     3
 72
     8
 73
     4
 74
     0
 42
0.0000000001
 43
0.0000000001
 40
0.0
 40
0.0
 40
0.0
 40
0.0
 40
1.0
 40
1.0
 40
1.0
 40
1.0
 10
61.751300000000001
 20
-14.3002
 30
0.0
 10
61.751300000000001
 20
-14.3002
 30
0.0
 10
61.751300000000001
 20
-13.966100000000001
 30
0.0
 10
61.751300000000001
 20
-13.966100000000001
 30
0.0
  0
SPLINE
  5
263
100
AcDbEntity
  8
Ebene 1
370
    20
 62
     0
100
AcDbSpline
210
0.0
220
0.0
230
1.0
 70
     0
 71
     3
 72
    12
 73
     8
 74
     0
 42
0.0000000001
 43
0.0000000001
 40
0.0
 40
0.0
 40
0.0
 40
0.0
 40
0.5
 40
0.5
 40
0.5
 40
0.5
 40
1.0
 40
1.0
 40
1.0
 40
1.0
 10
61.751300000000001
 20
-13.966100000000001
 30
0.0
 10
61.751300000000001
 20
-13.966100000000001
 30
0.0
 10
61.751300000000001
 20
-13.907200000000001
 30
0.0
 10
61.751300000000001
 20
-13.907200000000001
 30
0.0
 10
61.751300000000001
 20
-13.907200000000001
 30
0.0
 10
61.751300000000001
 20
-13.907200000000001
 30
0.0
 10
61.692300000000003
 20
-13.8482
 30
0.0
 10
61.692300000000003
 20
-13.8482
 30
0.0
  0
SPLINE
  5
264
100
AcDbEntity
  8
Ebene 1
370
    20
 62
     0
100
AcDbSpline
210
0.0
220
0.0
230
1.0
 70
     0
 71
     3
 72
     8
 73
     4
 74
     0
 42
0.0000000001
 43
0.0000000001
 40
0.0
 40
0.0
 40
0.0
 40
0.0
 40
1.0
 40
1.0
 40
1.0
 40
1.0
 10
61.240300000000005
 20
-14.7522
 30
0.0
 10
61.240300000000005
 20
-14.7522
 30
0.0
 10
61.240300000000005
 20
-13.514100000000001
 30
0.0
 10
61.240300000000005
 20
-13.514100000000001
 30
0.0
  0
ENDSEC
  0
SECTION
  2
OBJECTS
  0
DICTIONARY
  5
19
100
AcDbDictionary
280
     0
281
     1
  3
ACAD_GROUP
350
1A
  3
ACAD_MLINESTYLE
350
1B
  3
ACAD_LAYOUT
350
1E
  3
ACAD_PLOTSETTINGS
350
22
  3
ACAD_PLOTSTYLENAME
350
1F
  3
ACAD_WIPEOUT_VARS
350
23
  0
DICTIONARY
  5
1A
102
{ACAD_REACTORS
330
19
102
}
100
AcDbDictionary
280
     0
281
     1
  0
DICTIONARY
  5
1B
102
{ACAD_REACTORS
330
19
102
}
100
AcDbDictionary
280
     0
281
     1
  3
Standard
350
1C
  0
MLINESTYLE
  5
1C
102
{ACAD_REACTORS
330
1B
102
}
100
AcDbMlineStyle
  2
Standard
 70
     0
  3

 62
     0
 51
90.0
 52
90.0
 71
     2
 49
0.5
 62
   256
  6
BYLAYER
 49
-0.5
 62
   256
  6
BYLAYER
  0
ACDBDICTIONARYWDFLT
  5
1F
102
{ACAD_REACTORS
330
19
102
}
100
AcDbDictionary
281
     1
  3
Normal
350
1D
100
AcDbDictionaryWithDefault
340
1D
  0
ACDBPLACEHOLDER
  5
1D
102
{ACAD_REACTORS
330
1F
102
}
  0
LAYOUT
  5
20
102
{ACAD_REACTORS
330
1E
102
}
100
AcDbPlotSettings
  1

  2

  4

  6

 40
0.0
 41
0.0
 42
0.0
 43
0.0
 44
0.0
 45
0.0
 46
0.0
 47
0.0
 48
0.0
 49
0.0
140
0.0
141
0.0
142
1.0
143
1.0
 70
  1024
 72
     0
 73
     0
 74
     0
  7

 75
     0
147
1.0
148
0.0
149
0.0
100
AcDbLayout
  1
Model
 70
     0
 71
     0
 10
0.0
 20
0.0
 11
0.0
 21
0.0
 12
0.0
 22
0.0
 32
0.0
 14
0.0
 24
0.0
 34
0.0
 15
0.0
 25
0.0
 35
0.0
146
0.0
 13
0.0
 23
0.0
 33
0.0
 16
0.0
 26
0.0
 36
0.0
 17
0.0
 27
0.0
 37
0.0
 76
     0
330
A
331
0
345
0
346
0
  0
LAYOUT
  5
21
102
{ACAD_REACTORS
330
1E
102
}
100
AcDbPlotSettings
  1

  2

  4

  6

 40
0.0
 41
0.0
 42
0.0
 43
0.0
 44
0.0
 45
0.0
 46
0.0
 47
0.0
 48
0.0
 49
0.0
140
0.0
141
0.0
142
1.0
143
1.0
 70
     0
 72
     0
 73
     0
 74
     0
  7

 75
     0
147
1.0
148
0.0
149
0.0
100
AcDbLayout
  1
Layout1
 70
     0
 71
     0
 10
0.0
 20
0.0
 11
0.0
 21
0.0
 12
0.0
 22
0.0
 32
0.0
 14
0.0
 24
0.0
 34
0.0
 15
0.0
 25
0.0
 35
0.0
146
0.0
 13
0.0
 23
0.0
 33
0.0
 16
0.0
 26
0.0
 36
0.0
 17
0.0
 27
0.0
 37
0.0
 76
     0
330
B
331
0
345
0
346
0
  0
DICTIONARY
  5
1E
102
{ACAD_REACTORS
330
19
102
}
100
AcDbDictionary
280
     0
281
     1
  3
Layout1
350
21
  3
Model
350
20
  0
DICTIONARY
  5
22
102
{ACAD_REACTORS
330
19
102
}
100
AcDbDictionary
280
     0
281
     1
  0
WIPEOUTVARIABLES
  5
23
100
AcDbWipeoutVariables
 70
     1
  0
ENDSEC
  0
EOF
