  0
SECTION
  2
HEADER
  9
$ACADVER
  1
AC1015
  9
$ACADMAINTVER
 70
     6
  9
$DWGCODEPAGE
  3
DOS850
  9
$INSBASE
 10
0.0
 20
0.0
 30
0.0
  9
$EXTMIN
 10
-86.2825
 20
-9.7335
 30
1.000000E+20
  9
$EXTMAX
 10
96.8174
 20
61.0168
 30
-1.000000E+20
  9
$LIMMIN
 10
0.0
 20
0.0
  9
$LIMMAX
 10
0.0
 20
0.0
  9
$ORTHOMODE
 70
     0
  9
$REGENMODE
 70
     1
  9
$FILLMODE
 70
     1
  9
$QTEXTMODE
 70
     0
  9
$MIRRTEXT
 70
     1
  9
$LTSCALE
 40
1.0
  9
$ATTMODE
 70
     1
  9
$TEXTSIZE
 40
0.2
  9
$TRACEWID
 40
0.05
  9
$TEXTSTYLE
  7
Standard
  9
$CLAYER
  8
0
  9
$CELTYPE
  6
Continuous
  9
$CECOLOR
 62
   256
  9
$CELTSCALE
 40
1.0
  9
$DISPSILH
 70
     0
  9
$DIMSCALE
 40
1.0
  9
$DIMASZ
 40
0.18
  9
$DIMEXO
 40
0.0625
  9
$DIMDLI
 40
0.38
  9
$DIMRND
 40
0.0
  9
$DIMDLE
 40
0.0
  9
$DIMEXE
 40
0.18
  9
$DIMTP
 40
0.0
  9
$DIMTM
 40
0.0
  9
$DIMTXT
 40
0.18
  9
$DIMCEN
 40
0.09
  9
$DIMTSZ
 40
0.0
  9
$DIMTOL
 70
     0
  9
$DIMLIM
 70
     0
  9
$DIMTIH
 70
     1
  9
$DIMTOH
 70
     1
  9
$DIMSE1
 70
     0
  9
$DIMSE2
 70
     0
  9
$DIMTAD
 70
     0
  9
$DIMZIN
 70
     0
  9
$DIMBLK
  1

  9
$DIMASO
 70
     1
  9
$DIMSHO
 70
     1
  9
$DIMPOST
  1

  9
$DIMAPOST
  1

  9
$DIMALT
 70
     0
  9
$DIMALTD
 70
     2
  9
$DIMALTF
 40
25.4
  9
$DIMLFAC
 40
1.0
  9
$DIMTOFL
 70
     0
  9
$DIMTVP
 40
0.0
  9
$DIMTIX
 70
     0
  9
$DIMSOXD
 70
     0
  9
$DIMSAH
 70
     0
  9
$DIMBLK1
  1

  9
$DIMBLK2
  1

  9
$DIMSTYLE
  2
Standard
  9
$DIMCLRD
 70
     0
  9
$DIMCLRE
 70
     0
  9
$DIMCLRT
 70
     0
  9
$DIMTFAC
 40
1.0
  9
$DIMGAP
 40
0.09
  9
$DIMJUST
 70
     0
  9
$DIMSD1
 70
     0
  9
$DIMSD2
 70
     0
  9
$DIMTOLJ
 70
     1
  9
$DIMTZIN
 70
     0
  9
$DIMALTZ
 70
     0
  9
$DIMALTTZ
 70
     0
  9
$DIMUPT
 70
     0
  9
$DIMDEC
 70
     4
  9
$DIMTDEC
 70
     4
  9
$DIMALTU
 70
     2
  9
$DIMALTTD
 70
     2
  9
$DIMTXSTY
  7
Standard
  9
$DIMAUNIT
 70
     0
  9
$DIMADEC
 70
     0
  9
$DIMALTRND
 40
0.0
  9
$DIMAZIN
 70
     0
  9
$DIMDSEP
 70
     0
  9
$DIMATFIT
 70
     3
  9
$DIMFRAC
 70
     0
  9
$DIMLDRBLK
  1

  9
$DIMLUNIT
 70
     2
  9
$DIMLWD
 70
     0
  9
$DIMLWE
 70
     0
  9
$DIMTMOVE
 70
     0
  9
$LUNITS
 70
     2
  9
$LUPREC
 70
     4
  9
$SKETCHINC
 40
0.1
  9
$FILLETRAD
 40
0.0
  9
$AUNITS
 70
     0
  9
$AUPREC
 70
     0
  9
$MENU
  1
acad
  9
$ELEVATION
 40
0.0
  9
$PELEVATION
 40
0.0
  9
$THICKNESS
 40
0.0
  9
$LIMCHECK
 70
     0
  9
$CHAMFERA
 40
0.0
  9
$CHAMFERB
 40
0.0
  9
$CHAMFERC
 40
0.0
  9
$CHAMFERD
 40
0.0
  9
$SKPOLY
 70
     0
  9
$TDCREATE
 40
0.000000000
  9
$TDUCREATE
 40
0.000000000
  9
$TDUPDATE
 40
0.000000000
  9
$TDUUPDATE
 40
0.000000000
  9
$TDINDWG
 40
0.0000000000
  9
$TDUSRTIMER
 40
0.0000000000
  9
$USRTIMER
 70
     1
  9
$ANGBASE
 50
0.0
  9
$ANGDIR
 70
     0
  9
$PDMODE
 70
     0
  9
$PDSIZE
 40
0.0
  9
$PLINEWID
 40
0.0
  9
$SPLFRAME
 70
     0
  9
$SPLINETYPE
 70
     6
  9
$SPLINESEGS
 70
     8
  9
$HANDSEED
  5
195
  9
$SURFTAB1
 70
     6
  9
$SURFTAB2
 70
     6
  9
$SURFTYPE
 70
     6
  9
$SURFU
 70
     6
  9
$SURFV
 70
     6
  9
$UCSBASE
  2

  9
$UCSNAME
  2

  9
$UCSORG
 10
0.0
 20
0.0
 30
0.0
  9
$UCSXDIR
 10
1.0
 20
0.0
 30
0.0
  9
$UCSYDIR
 10
0.0
 20
1.0
 30
0.0
  9
$UCSORTHOREF
  2

  9
$UCSORTHOVIEW
 70
     0
  9
$UCSORGTOP
 10
0.0
 20
0.0
 30
0.0
  9
$UCSORGBOTTOM
 10
0.0
 20
0.0
 30
0.0
  9
$UCSORGLEFT
 10
0.0
 20
0.0
 30
0.0
  9
$UCSORGRIGHT
 10
0.0
 20
0.0
 30
0.0
  9
$UCSORGFRONT
 10
0.0
 20
0.0
 30
0.0
  9
$UCSORGBACK
 10
0.0
 20
0.0
 30
0.0
  9
$PUCSBASE
  2

  9
$PUCSNAME
  2

  9
$PUCSORG
 10
0.0
 20
0.0
 30
0.0
  9
$PUCSXDIR
 10
1.0
 20
0.0
 30
0.0
  9
$PUCSYDIR
 10
0.0
 20
1.0
 30
0.0
  9
$PUCSORTHOREF
  2

  9
$PUCSORTHOVIEW
 70
     0
  9
$PUCSORGTOP
 10
0.0
 20
0.0
 30
0.0
  9
$PUCSORGBOTTOM
 10
0.0
 20
0.0
 30
0.0
  9
$PUCSORGLEFT
 10
0.0
 20
0.0
 30
0.0
  9
$PUCSORGRIGHT
 10
0.0
 20
0.0
 30
0.0
  9
$PUCSORGFRONT
 10
0.0
 20
0.0
 30
0.0
  9
$PUCSORGBACK
 10
0.0
 20
0.0
 30
0.0
  9
$USERI1
 70
     0
  9
$USERI2
 70
     0
  9
$USERI3
 70
     0
  9
$USERI4
 70
     0
  9
$USERI5
 70
     0
  9
$USERR1
 40
0.0
  9
$USERR2
 40
0.0
  9
$USERR3
 40
0.0
  9
$USERR4
 40
0.0
  9
$USERR5
 40
0.0
  9
$WORLDVIEW
 70
     1
  9
$SHADEDGE
 70
     3
  9
$SHADEDIF
 70
    70
  9
$TILEMODE
 70
     1
  9
$MAXACTVP
 70
    16
  9
$PINSBASE
 10
0.0
 20
0.0
 30
0.0
  9
$PLIMCHECK
 70
     0
  9
$PEXTMIN
 10
1.000000E+20
 20
1.000000E+20
 30
1.000000E+20
  9
$PEXTMAX
 10
-1.000000E+20
 20
-1.000000E+20
 30
-1.000000E+20
  9
$PLIMMIN
 10
0.0
 20
0.0
  9
$PLIMMAX
 10
12.0
 20
9.0
  9
$UNITMODE
 70
     0
  9
$VISRETAIN
 70
     0
  9
$PLINEGEN
 70
     1
  9
$PSLTSCALE
 70
     0
  9
$TREEDEPTH
 70
  3020
  9
$CMLSTYLE
  2
Standard
  9
$CMLJUST
 70
     0
  9
$CMLSCALE
 40
1.0
  9
$PROXYGRAPHICS
 70
     0
  9
$MEASUREMENT
 70
     0
  9
$CELWEIGHT
370
     0
  9
$ENDCAPS
280
     0
  9
$JOINSTYLE
280
     0
  9
$LWDISPLAY
290
     0
  9
$INSUNITS
 70
     4
  9
$HYPERLINKBASE
  1

  9
$XEDIT
290
     1
  9
$CEPSNTYPE
380
     0
  9
$PSTYLEMODE
290
     1
  9
$FINGERPRINTGUID
  2

  9
$VERSIONGUID
  2

  9
$EXTNAMES
290
     1
  9
$PSVPSCALE
 40
0.0
  0
ENDSEC
  0
SECTION
  2
CLASSES
  0
CLASS
  1
LWPOLYLINE
  2
AcDbPolyline
  3
AutoCAD 2000
 90
    32768
280
     0
281
     1
  0
CLASS
  1
IMAGE
  2
AcDbRasterImage
  3
ISM
 90
    32895
280
     0
281
     1
  0
CLASS
  1
OLE2FRAME
  2
AcDbOle2Frame
  3
AutoCAD 2000
 90
    32768
280
     0
281
     1
  0
CLASS
  1
HATCH
  2
AcDbHatch
  3
AutoCAD 2000
 90
    32768
280
     0
281
     1
  0
CLASS
  1
DICTIONARYVAR
  2
AcDbDictionaryVar
  3
AutoCAD 2000
 90
    32768
280
     0
281
     0
  0
CLASS
  1
RASTERVARIABLES
  2
AcDbRasterVariables
  3
ISM
 90
    32768
280
     0
281
     0
  0
CLASS
  1
IMAGEDEF
  2
AcDbRasterImageDef
  3
ISM
 90
    32768
280
     0
281
     0
  0
CLASS
  1
IMAGEDEF_REACTOR
  2
AcDbRasterImageDefReactor
  3
ISM
 90
    32769
280
     0
281
     0
  0
CLASS
  1
IDBUFFER
  2
AcDbIdBuffer
  3
AutoCAD 2000
 90
    32768
280
     0
281
     0
  0
CLASS
  1
SPATIAL_FILTER
  2
AcDbSpatialFilter
  3
AutoCAD 2000
 90
    32768
280
     0
281
     0
  0
CLASS
  1
XRECORD
  2
AcDbXrecord
  3
AutoCAD 2000
 90
    32768
280
     0
281
     0
  0
CLASS
  1
SORTENTSTABLE
  2
AcDbSortentsTable
  3
AutoCAD 2000
 90
    32768
280
     0
281
     0
  0
CLASS
  1
LAYER_INDEX
  2
AcDbLayerIndex
  3
AutoCAD 2000
 90
    32768
280
     0
281
     0
  0
CLASS
  1
SPATIAL_INDEX
  2
AcDbSpatialIndex
  3
AutoCAD 2000
 90
    32768
280
     0
281
     0
  0
CLASS
  1
OBJECT_PTR
  2
CAseDLPNTableRecord
  3
"ASE-LPNTableRecord"
 90
    32769
280
     0
281
     0
  0
CLASS
  1
LAYOUT
  2
AcDbLayout
  3
AutoCAD 2000
 90
        0
280
     0
281
     0
  0
CLASS
  1
PLOTSETTINGS
  2
AcDbPlotSettings
  3
AutoCAD 2000
 90
    32768
280
     0
281
     0
  0
CLASS
  1
ACDBDICTIONARYWDFLT
  2
AcDbDictionaryWithDefault
  3
AutoCAD 2000
 90
        0
280
     0
281
     0
  0
CLASS
  1
ACDBPLACEHOLDER
  2
AcDbPlaceHolder
  3
AutoCAD 2000
 90
        0
280
     0
281
     0
  0
CLASS
  1
VBA_PROJECT
  2
AcDbVbaProject
  3
acadvba
 90
    32768
280
     0
281
     0
  0
CLASS
  1
WIPEOUT
  2
AcDbWipeout
  3
WipeOut|AutoCAD Express Tool|expresstools@autodesk.com
 90
    32895
280
     0
281
     1
  0
CLASS
  1
WIPEOUTVARIABLES
  2
AcDbWipeoutVariables
  3
WipeOut|AutoCAD Express Tool|expresstools@autodesk.com
 90
        0
280
     0
281
     0
  0
CLASS
  1
RTEXT
  2
RText
  3
RText|AutoCAD Express Tool|expresstools@autodesk.com
 90
    32768
280
     0
281
     1
  0
CLASS
  1
ARCALIGNEDTEXT
  2
AcDbArcAlignedText
  3
ATEXT|AutoCAD Express Tool|expresstools@autodesk.com
 90
    32768
280
     0
281
     1
  0
ENDSEC
  0
SECTION
  2
TABLES
  0
TABLE
  2
VPORT
  5
7
100
AcDbSymbolTable
 70
     1
  0
VPORT
  5
15
100
AcDbSymbolTableRecord
100
AcDbViewportTableRecord
  2
*ACTIVE
 70
     0
 10
0.0
 20
0.0
 11
1.0
 21
1.0
 12
6.591288
 22
4.579184
 13
0.0
 23
0.0
 14
1.0
 24
1.0
 15
0.0
 25
0.0
 16
0.0
 26
0.0
 36
1.0
 17
0.0
 27
0.0
 37
0.0
 40
9.158369
 41
0.688564
 42
50.0
 43
0.0
 44
0.0
 50
0.0
 51
0.0
 71
     0
 72
   100
 73
     1
 74
     1
 75
     0
 76
     0
 77
     0
 78
     0
281
     0
 65
     0
110
0.0
120
0.0
130
0.0
111
1.0
121
0.0
131
0.0
112
0.0
122
1.0
132
0.0
345
0
346
0
 79
     0
146
0.0
  0
ENDTAB
  0
TABLE
  2
LTYPE
  5
4
100
AcDbSymbolTable
 70
     4
  0
LTYPE
  5
11
100
AcDbSymbolTableRecord
100
AcDbLinetypeTableRecord
  2
ByBlock
 70
    64
  3

 72
    65
 73
     0
 40
0.0
  0
LTYPE
  5
12
100
AcDbSymbolTableRecord
100
AcDbLinetypeTableRecord
  2
ByLayer
 70
    64
  3

 72
    65
 73
     0
 40
0.0
  0
LTYPE
  5
13
100
AcDbSymbolTableRecord
100
AcDbLinetypeTableRecord
  2
Continuous
 70
    64
  3
Solid line
 72
    65
 73
     0
 40
0.0
  0
LTYPE
  5
41
100
AcDbSymbolTableRecord
100
AcDbLinetypeTableRecord
  2
New Line1
 70
    65
  3

 72
    64
 73
     4
 40
1.2
 49
0.5
 74
     0
 49
-0.3
 74
     0
 49
0.1
 74
     0
 49
-0.3
 74
     0
  0
ENDTAB
  0
TABLE
  2
LAYER
  5
2
100
AcDbSymbolTable
 70
     2
  0
LAYER
  5
14
100
AcDbSymbolTableRecord
100
AcDbLayerTableRecord
  2
0
 70
     0
 62
     7
  6
Continuous
290
     1
370
    -3
390
1D
  0
LAYER
  5
24
100
AcDbSymbolTableRecord
100
AcDbLayerTableRecord
  2
LC-006-002-RND-0
 70
     0
 62
     7
  6
Continuous
290
     1
370
    -3
390
1F
  0
ENDTAB
  0
TABLE
  2
STYLE
  5
3
100
AcDbSymbolTable
 70
     1
  0
STYLE
  5
17
100
AcDbSymbolTableRecord
100
AcDbTextStyleTableRecord
  2
Standard
 70
     0
 40
0.0
 41
1.0
 50
0.0
 71
     0
 42
0.0
  3
txt
  4

  0
ENDTAB
  0
TABLE
  2
VIEW
  5
5
100
AcDbSymbolTable
 70
     0
  0
ENDTAB
  0
TABLE
  2
UCS
  5
6
100
AcDbSymbolTable
 70
     0
  0
ENDTAB
  0
TABLE
  2
APPID
  5
8
100
AcDbSymbolTable
 70
     1
  0
APPID
  5
16
100
AcDbSymbolTableRecord
100
AcDbRegAppTableRecord
  2
ACAD
 70
     0
  0
ENDTAB
  0
TABLE
  2
DIMSTYLE
  5
9
100
AcDbSymbolTable
 70
     1
100
AcDbDimStyleTable
 71
     0
  0
DIMSTYLE
105
18
100
AcDbSymbolTableRecord
100
AcDbDimStyleTableRecord
  2
Standard
 70
     0
  3

  4

 40
1.0
 41
0.18
 42
0.0625
 43
0.38
 44
0.18
 45
0.0
 46
0.0
 47
0.0
 48
0.0
 71
     0
 72
     0
 73
     1
 74
     1
 75
     0
 76
     0
 77
     0
 78
     0
 79
     0
140
0.18
141
0.09
142
0.0
143
25.4
144
1.0
145
0.0
146
1.0
147
0.09
148
0.0
170
     0
171
     2
172
     0
173
     0
174
     0
175
     0
176
     0
177
     0
178
     0
179
     0
271
     4
272
     4
273
     2
274
     2
275
     0
276
     0
277
     2
278
    46
279
     0
280
     0
281
     0
282
     0
283
     1
284
     0
285
     0
286
     0
288
     0
340
17
341
0
342
0
343
0
344
0
371
    -2
372
    -2
  0
ENDTAB
  0
TABLE
  2
BLOCK_RECORD
  5
1
100
AcDbSymbolTable
 70
     0
  0
BLOCK_RECORD
  5
A
100
AcDbSymbolTableRecord
100
AcDbBlockTableRecord
  2
*MODEL_SPACE
340
20
  0
BLOCK_RECORD
  5
B
100
AcDbSymbolTableRecord
100
AcDbBlockTableRecord
  2
*PAPER_SPACE
340
21
  0
ENDTAB
  0
ENDSEC
  0
SECTION
  2
BLOCKS
  0
BLOCK
  5
D
100
AcDbEntity
  8
0
100
AcDbBlockBegin
  2
*MODEL_SPACE
 70
     0
 10
0.0
 20
0.0
 30
0.0
  3
*MODEL_SPACE
  1

  0
ENDBLK
  5
E
100
AcDbEntity
  8
0
100
AcDbBlockEnd
  0
BLOCK
  5
F
100
AcDbEntity
 67
     1
  8
0
100
AcDbBlockBegin
  2
*PAPER_SPACE
 70
     0
 10
0.0
 20
0.0
 30
0.0
  3
*PAPER_SPACE
  1

  0
ENDBLK
  5
10
100
AcDbEntity
 67
     1
  8
0
100
AcDbBlockEnd
  0
ENDSEC
  0
SECTION
  2
ENTITIES
  0
SPLINE
  5
25
100
AcDbEntity
  8
LC-006-002-RND-0
100
AcDbSpline
210
0.0
220
0.0
230
1.0
 70
     1
 71
     3
 72
    76
 73
    72
 74
     0
 42
0.0000000001
 43
0.0000000001
 40
0.0
 40
0.0
 40
0.0
 40
0.0
 40
0.0555555555555556
 40
0.0555555555555556
 40
0.0555555555555556
 40
0.0555555555555556
 40
0.1111111111111111
 40
0.1111111111111111
 40
0.1111111111111111
 40
0.1111111111111111
 40
0.1666666666666667
 40
0.1666666666666667
 40
0.1666666666666667
 40
0.1666666666666667
 40
0.2222222222222222
 40
0.2222222222222222
 40
0.2222222222222222
 40
0.2222222222222222
 40
0.2777777777777778
 40
0.2777777777777778
 40
0.2777777777777778
 40
0.2777777777777778
 40
0.3333333333333334
 40
0.3333333333333334
 40
0.3333333333333334
 40
0.3333333333333334
 40
0.388888888888889
 40
0.388888888888889
 40
0.388888888888889
 40
0.388888888888889
 40
0.4444444444444445
 40
0.4444444444444445
 40
0.4444444444444445
 40
0.4444444444444445
 40
0.5000000000000001
 40
0.5000000000000001
 40
0.5000000000000001
 40
0.5000000000000001
 40
0.5555555555555557
 40
0.5555555555555557
 40
0.5555555555555557
 40
0.5555555555555557
 40
0.6111111111111113
 40
0.6111111111111113
 40
0.6111111111111113
 40
0.6111111111111113
 40
0.6666666666666669
 40
0.6666666666666669
 40
0.6666666666666669
 40
0.6666666666666669
 40
0.7222222222222224
 40
0.7222222222222224
 40
0.7222222222222224
 40
0.7222222222222224
 40
0.777777777777778
 40
0.777777777777778
 40
0.777777777777778
 40
0.777777777777778
 40
0.8333333333333336
 40
0.8333333333333336
 40
0.8333333333333336
 40
0.8333333333333336
 40
0.8888888888888892
 40
0.8888888888888892
 40
0.8888888888888892
 40
0.8888888888888892
 40
0.9444444444444448
 40
0.9444444444444448
 40
0.9444444444444448
 40
0.9444444444444448
 40
1.0
 40
1.0
 40
1.0
 40
1.0
 10
-39.708100000000002
 20
52.766600000000004
 30
0.0
 10
-40.255800000000001
 20
53.416200000000003
 30
0.0
 10
-40.528800000000004
 20
54.2423
 30
0.0
 10
-40.528800000000004
 20
55.244900000000001
 30
0.0
 10
-40.528800000000004
 20
55.244900000000001
 30
0.0
 10
-40.528800000000004
 20
55.923700000000004
 30
0.0
 10
-40.399500000000003
 20
56.573300000000003
 30
0.0
 10
-40.139299999999999
 20
57.190100000000001
 30
0.0
 10
-40.139299999999999
 20
57.190100000000001
 30
0.0
 10
-39.926400000000001
 20
57.703200000000002
 30
0.0
 10
-39.6462
 20
58.143599999999999
 30
0.0
 10
-39.3005
 20
58.514800000000001
 30
0.0
 10
-39.3005
 20
58.514800000000001
 30
0.0
 10
-38.953000000000003
 20
58.886000000000003
 30
0.0
 10
-38.576300000000003
 20
59.173500000000004
 30
0.0
 10
-38.166900000000005
 20
59.377300000000005
 30
0.0
 10
-38.166900000000005
 20
59.377300000000005
 30
0.0
 10
-37.622800000000005
 20
59.646500000000003
 30
0.0
 10
-37.038699999999999
 20
59.781200000000005
 30
0.0
 10
-36.412700000000001
 20
59.781200000000005
 30
0.0
 10
-36.412700000000001
 20
59.781200000000005
 30
0.0
 10
-35.610300000000002
 20
59.781200000000005
 30
0.0
 10
-34.931600000000003
 20
59.573800000000006
 30
0.0
 10
-34.376600000000003
 20
59.1571
 30
0.0
 10
-34.376600000000003
 20
59.1571
 30
0.0
 10
-34.376600000000003
 20
59.1571
 30
0.0
 10
-33.524999999999999
 20
60.181600000000003
 30
0.0
 10
-33.524999999999999
 20
60.181600000000003
 30
0.0
 10
-33.524999999999999
 20
60.181600000000003
 30
0.0
 10
-33.524999999999999
 20
60.181600000000003
 30
0.0
 10
-33.0501
 20
59.759399999999999
 30
0.0
 10
-33.0501
 20
59.759399999999999
 30
0.0
 10
-33.0501
 20
59.759399999999999
 30
0.0
 10
-33.0501
 20
59.759399999999999
 30
0.0
 10
-33.912600000000005
 20
58.720400000000005
 30
0.0
 10
-33.912600000000005
 20
58.720400000000005
 30
0.0
 10
-33.912600000000005
 20
58.720400000000005
 30
0.0
 10
-33.366700000000002
 20
58.0944
 30
0.0
 10
-33.091900000000003
 20
57.272000000000006
 30
0.0
 10
-33.091900000000003
 20
56.252900000000004
 30
0.0
 10
-33.091900000000003
 20
56.252900000000004
 30
0.0
 10
-33.091900000000003
 20
55.516000000000005
 30
0.0
 10
-33.243000000000002
 20
54.8264
 30
0.0
 10
-33.545000000000002
 20
54.178600000000003
 30
0.0
 10
-33.545000000000002
 20
54.178600000000003
 30
0.0
 10
-33.7761
 20
53.685500000000005
 30
0.0
 10
-34.069099999999999
 20
53.261500000000005
 30
0.0
 10
-34.425699999999999
 20
52.906700000000001
 30
0.0
 10
-34.425699999999999
 20
52.906700000000001
 30
0.0
 10
-34.780500000000004
 20
52.553699999999999
 30
0.0
 10
-35.158999999999999
 20
52.2789
 30
0.0
 10
-35.561100000000003
 20
52.084300000000006
 30
0.0
 10
-35.561100000000003
 20
52.084300000000006
 30
0.0
 10
-36.094300000000004
 20
51.827600000000004
 30
0.0
 10
-36.6584
 20
51.700300000000006
 30
0.0
 10
-37.255200000000002
 20
51.700300000000006
 30
0.0
 10
-37.255200000000002
 20
51.700300000000006
 30
0.0
 10
-38.008600000000001
 20
51.700300000000006
 30
0.0
 10
-38.6691
 20
51.907700000000006
 30
0.0
 10
-39.233200000000004
 20
52.324400000000004
 30
0.0
 10
-39.233200000000004
 20
52.324400000000004
 30
0.0
 10
-39.233200000000004
 20
52.324400000000004
 30
0.0
 10
-40.091999999999999
 20
51.2836
 30
0.0
 10
-40.091999999999999
 20
51.2836
 30
0.0
 10
-40.091999999999999
 20
51.2836
 30
0.0
 10
-40.091999999999999
 20
51.2836
 30
0.0
 10
-40.597900000000003
 20
51.705800000000004
 30
0.0
 10
-40.597900000000003
 20
51.705800000000004
 30
0.0
 10
-40.597900000000003
 20
51.705800000000004
 30
0.0
 10
-40.597900000000003
 20
51.705800000000004
 30
0.0
 10
-39.708100000000002
 20
52.766600000000004
 30
0.0
 10
-39.708100000000002
 20
52.766600000000004
 30
0.0
  0
SPLINE
  5
26
100
AcDbEntity
  8
LC-006-002-RND-0
100
AcDbSpline
210
0.0
220
0.0
230
1.0
 70
     1
 71
     3
 72
    28
 73
    24
 74
     0
 42
0.0000000001
 43
0.0000000001
 40
0.0
 40
0.0
 40
0.0
 40
0.0
 40
0.1666666666666667
 40
0.1666666666666667
 40
0.1666666666666667
 40
0.1666666666666667
 40
0.3333333333333333
 40
0.3333333333333333
 40
0.3333333333333333
 40
0.3333333333333333
 40
0.5
 40
0.5
 40
0.5
 40
0.5
 40
0.6666666666666666
 40
0.6666666666666666
 40
0.6666666666666666
 40
0.6666666666666666
 40
0.8333333333333333
 40
0.8333333333333333
 40
0.8333333333333333
 40
0.8333333333333333
 40
1.0
 40
1.0
 40
1.0
 40
1.0
 10
-39.062100000000001
 20
53.539900000000003
 30
0.0
 10
-39.062100000000001
 20
53.539900000000003
 30
0.0
 10
-35.000700000000002
 20
58.411000000000001
 30
0.0
 10
-35.000700000000002
 20
58.411000000000001
 30
0.0
 10
-35.000700000000002
 20
58.411000000000001
 30
0.0
 10
-35.406500000000001
 20
58.745900000000006
 30
0.0
 10
-35.868700000000004
 20
58.913200000000003
 30
0.0
 10
-36.387300000000003
 20
58.913200000000003
 30
0.0
 10
-36.387300000000003
 20
58.913200000000003
 30
0.0
 10
-36.909500000000001
 20
58.913200000000003
 30
0.0
 10
-37.413499999999999
 20
58.758600000000001
 30
0.0
 10
-37.901200000000003
 20
58.449200000000005
 30
0.0
 10
-37.901200000000003
 20
58.449200000000005
 30
0.0
 10
-38.387100000000004
 20
58.139900000000004
 30
0.0
 10
-38.776499999999999
 20
57.688700000000004
 30
0.0
 10
-39.067599999999999
 20
57.095500000000001
 30
0.0
 10
-39.067599999999999
 20
57.095500000000001
 30
0.0
 10
-39.360500000000002
 20
56.500500000000002
 30
0.0
 10
-39.506100000000004
 20
55.863500000000002
 30
0.0
 10
-39.506100000000004
 20
55.181200000000004
 30
0.0
 10
-39.506100000000004
 20
55.181200000000004
 30
0.0
 10
-39.506100000000004
 20
54.524300000000004
 30
0.0
 10
-39.358699999999999
 20
53.976600000000005
 30
0.0
 10
-39.062100000000001
 20
53.539900000000003
 30
0.0
  0
SPLINE
  5
27
100
AcDbEntity
  8
LC-006-002-RND-0
100
AcDbSpline
210
0.0
220
0.0
230
1.0
 70
     1
 71
     3
 72
    32
 73
    28
 74
     0
 42
0.0000000001
 43
0.0000000001
 40
0.0
 40
0.0
 40
0.0
 40
0.0
 40
0.1428571428571429
 40
0.1428571428571429
 40
0.1428571428571429
 40
0.1428571428571429
 40
0.2857142857142857
 40
0.2857142857142857
 40
0.2857142857142857
 40
0.2857142857142857
 40
0.4285714285714286
 40
0.4285714285714286
 40
0.4285714285714286
 40
0.4285714285714286
 40
0.5714285714285714
 40
0.5714285714285714
 40
0.5714285714285714
 40
0.5714285714285714
 40
0.7142857142857142
 40
0.7142857142857142
 40
0.7142857142857142
 40
0.7142857142857142
 40
0.857142857142857
 40
0.857142857142857
 40
0.857142857142857
 40
0.857142857142857
 40
1.0
 40
1.0
 40
1.0
 40
1.0
 10
-34.564
 20
57.938000000000002
 30
0.0
 10
-34.564
 20
57.938000000000002
 30
0.0
 10
-38.6145
 20
53.065000000000005
 30
0.0
 10
-38.6145
 20
53.065000000000005
 30
0.0
 10
-38.6145
 20
53.065000000000005
 30
0.0
 10
-38.185099999999998
 20
52.730200000000004
 30
0.0
 10
-37.704700000000003
 20
52.562800000000003
 30
0.0
 10
-37.1751
 20
52.562800000000003
 30
0.0
 10
-37.1751
 20
52.562800000000003
 30
0.0
 10
-36.774799999999999
 20
52.562800000000003
 30
0.0
 10
-36.392700000000005
 20
52.659200000000006
 30
0.0
 10
-36.028800000000004
 20
52.848400000000005
 30
0.0
 10
-36.028800000000004
 20
52.848400000000005
 30
0.0
 10
-35.666699999999999
 20
53.039500000000004
 30
0.0
 10
-35.342800000000004
 20
53.303400000000003
 30
0.0
 10
-35.057099999999998
 20
53.643599999999999
 30
0.0
 10
-35.057099999999998
 20
53.643599999999999
 30
0.0
 10
-34.7714
 20
53.982100000000003
 30
0.0
 10
-34.5458
 20
54.400600000000004
 30
0.0
 10
-34.380200000000002
 20
54.895600000000002
 30
0.0
 10
-34.380200000000002
 20
54.895600000000002
 30
0.0
 10
-34.214700000000001
 20
55.392300000000006
 30
0.0
 10
-34.1327
 20
55.879899999999999
 30
0.0
 10
-34.1327
 20
56.358600000000003
 30
0.0
 10
-34.1327
 20
56.358600000000003
 30
0.0
 10
-34.1327
 20
56.959000000000003
 30
0.0
 10
-34.276499999999999
 20
57.4848
 30
0.0
 10
-34.564
 20
57.938000000000002
 30
0.0
  0
SPLINE
  5
28
100
AcDbEntity
  8
LC-006-002-RND-0
100
AcDbSpline
210
0.0
220
0.0
230
1.0
 70
     1
 71
     3
 72
    40
 73
    36
 74
     0
 42
0.0000000001
 43
0.0000000001
 40
0.0
 40
0.0
 40
0.0
 40
0.0
 40
0.1111111111111111
 40
0.1111111111111111
 40
0.1111111111111111
 40
0.1111111111111111
 40
0.2222222222222222
 40
0.2222222222222222
 40
0.2222222222222222
 40
0.2222222222222222
 40
0.3333333333333333
 40
0.3333333333333333
 40
0.3333333333333333
 40
0.3333333333333333
 40
0.4444444444444444
 40
0.4444444444444444
 40
0.4444444444444444
 40
0.4444444444444444
 40
0.5555555555555556
 40
0.5555555555555556
 40
0.5555555555555556
 40
0.5555555555555556
 40
0.6666666666666667
 40
0.6666666666666667
 40
0.6666666666666667
 40
0.6666666666666667
 40
0.7777777777777779
 40
0.7777777777777779
 40
0.7777777777777779
 40
0.7777777777777779
 40
0.8888888888888891
 40
0.8888888888888891
 40
0.8888888888888891
 40
0.8888888888888891
 40
1.0
 40
1.0
 40
1.0
 40
1.0
 10
-30.406100000000002
 20
51.833100000000002
 30
0.0
 10
-30.406100000000002
 20
51.833100000000002
 30
0.0
 10
-29.168800000000001
 20
57.734100000000005
 30
0.0
 10
-29.168800000000001
 20
57.734100000000005
 30
0.0
 10
-29.168800000000001
 20
57.734100000000005
 30
0.0
 10
-29.702000000000002
 20
57.315600000000003
 30
0.0
 10
-30.451600000000003
 20
56.978999999999999
 30
0.0
 10
-31.417900000000003
 20
56.726100000000002
 30
0.0
 10
-31.417900000000003
 20
56.726100000000002
 30
0.0
 10
-31.417900000000003
 20
56.726100000000002
 30
0.0
 10
-31.2377
 20
57.601400000000005
 30
0.0
 10
-31.2377
 20
57.601400000000005
 30
0.0
 10
-31.2377
 20
57.601400000000005
 30
0.0
 10
-30.757300000000001
 20
57.792400000000001
 30
0.0
 10
-30.284300000000002
 20
58.043500000000002
 30
0.0
 10
-29.816600000000001
 20
58.352800000000002
 30
0.0
 10
-29.816600000000001
 20
58.352800000000002
 30
0.0
 10
-29.3489
 20
58.662200000000006
 30
0.0
 10
-28.997800000000002
 20
58.9315
 30
0.0
 10
-28.763000000000002
 20
59.162600000000005
 30
0.0
 10
-28.763000000000002
 20
59.162600000000005
 30
0.0
 10
-28.621100000000002
 20
59.304500000000004
 30
0.0
 10
-28.4864
 20
59.4773
 30
0.0
 10
-28.359100000000002
 20
59.681100000000001
 30
0.0
 10
-28.359100000000002
 20
59.681100000000001
 30
0.0
 10
-28.359100000000002
 20
59.681100000000001
 30
0.0
 10
-27.7986
 20
59.681100000000001
 30
0.0
 10
-27.7986
 20
59.681100000000001
 30
0.0
 10
-27.7986
 20
59.681100000000001
 30
0.0
 10
-27.7986
 20
59.681100000000001
 30
0.0
 10
-29.4344
 20
51.833100000000002
 30
0.0
 10
-29.4344
 20
51.833100000000002
 30
0.0
 10
-29.4344
 20
51.833100000000002
 30
0.0
 10
-29.4344
 20
51.833100000000002
 30
0.0
 10
-30.406100000000002
 20
51.833100000000002
 30
0.0
 10
-30.406100000000002
 20
51.833100000000002
 30
0.0
  0
SPLINE
  5
29
100
AcDbEntity
  8
LC-006-002-RND-0
100
AcDbSpline
210
0.0
220
0.0
230
1.0
 70
     1
 71
     3
 72
   120
 73
   116
 74
     0
 42
0.0000000001
 43
0.0000000001
 40
0.0
 40
0.0
 40
0.0
 40
0.0
 40
0.0344827586206897
 40
0.0344827586206897
 40
0.0344827586206897
 40
0.0344827586206897
 40
0.0689655172413793
 40
0.0689655172413793
 40
0.0689655172413793
 40
0.0689655172413793
 40
0.103448275862069
 40
0.103448275862069
 40
0.103448275862069
 40
0.103448275862069
 40
0.1379310344827586
 40
0.1379310344827586
 40
0.1379310344827586
 40
0.1379310344827586
 40
0.1724137931034483
 40
0.1724137931034483
 40
0.1724137931034483
 40
0.1724137931034483
 40
0.206896551724138
 40
0.206896551724138
 40
0.206896551724138
 40
0.206896551724138
 40
0.2413793103448276
 40
0.2413793103448276
 40
0.2413793103448276
 40
0.2413793103448276
 40
0.2758620689655173
 40
0.2758620689655173
 40
0.2758620689655173
 40
0.2758620689655173
 40
0.310344827586207
 40
0.310344827586207
 40
0.310344827586207
 40
0.310344827586207
 40
0.3448275862068966
 40
0.3448275862068966
 40
0.3448275862068966
 40
0.3448275862068966
 40
0.3793103448275863
 40
0.3793103448275863
 40
0.3793103448275863
 40
0.3793103448275863
 40
0.413793103448276
 40
0.413793103448276
 40
0.413793103448276
 40
0.413793103448276
 40
0.4482758620689656
 40
0.4482758620689656
 40
0.4482758620689656
 40
0.4482758620689656
 40
0.4827586206896553
 40
0.4827586206896553
 40
0.4827586206896553
 40
0.4827586206896553
 40
0.517241379310345
 40
0.517241379310345
 40
0.517241379310345
 40
0.517241379310345
 40
0.5517241379310346
 40
0.5517241379310346
 40
0.5517241379310346
 40
0.5517241379310346
 40
0.5862068965517242
 40
0.5862068965517242
 40
0.5862068965517242
 40
0.5862068965517242
 40
0.6206896551724138
 40
0.6206896551724138
 40
0.6206896551724138
 40
0.6206896551724138
 40
0.6551724137931034
 40
0.6551724137931034
 40
0.6551724137931034
 40
0.6551724137931034
 40
0.689655172413793
 40
0.689655172413793
 40
0.689655172413793
 40
0.689655172413793
 40
0.7241379310344827
 40
0.7241379310344827
 40
0.7241379310344827
 40
0.7241379310344827
 40
0.7586206896551723
 40
0.7586206896551723
 40
0.7586206896551723
 40
0.7586206896551723
 40
0.7931034482758619
 40
0.7931034482758619
 40
0.7931034482758619
 40
0.7931034482758619
 40
0.8275862068965515
 40
0.8275862068965515
 40
0.8275862068965515
 40
0.8275862068965515
 40
0.8620689655172411
 40
0.8620689655172411
 40
0.8620689655172411
 40
0.8620689655172411
 40
0.8965517241379307
 40
0.8965517241379307
 40
0.8965517241379307
 40
0.8965517241379307
 40
0.9310344827586203
 40
0.9310344827586203
 40
0.9310344827586203
 40
0.9310344827586203
 40
0.9655172413793099
 40
0.9655172413793099
 40
0.9655172413793099
 40
0.9655172413793099
 40
1.0
 40
1.0
 40
1.0
 40
1.0
 10
-26.199200000000001
 20
54.067600000000006
 30
0.0
 10
-26.199200000000001
 20
54.067600000000006
 30
0.0
 10
-25.218400000000003
 20
54.162300000000002
 30
0.0
 10
-25.218400000000003
 20
54.162300000000002
 30
0.0
 10
-25.218400000000003
 20
54.162300000000002
 30
0.0
 10
-25.2257
 20
54.023900000000005
 30
0.0
 10
-25.229300000000002
 20
53.940200000000004
 30
0.0
 10
-25.229300000000002
 20
53.913000000000004
 30
0.0
 10
-25.229300000000002
 20
53.913000000000004
 30
0.0
 10
-25.229300000000002
 20
53.678200000000004
 30
0.0
 10
-25.1693
 20
53.441600000000001
 30
0.0
 10
-25.051000000000002
 20
53.203300000000006
 30
0.0
 10
-25.051000000000002
 20
53.203300000000006
 30
0.0
 10
-24.930900000000001
 20
52.965000000000003
 30
0.0
 10
-24.768900000000002
 20
52.783000000000001
 30
0.0
 10
-24.565200000000001
 20
52.657400000000003
 30
0.0
 10
-24.565200000000001
 20
52.657400000000003
 30
0.0
 10
-24.3614
 20
52.530100000000004
 30
0.0
 10
-24.1448
 20
52.468200000000003
 30
0.0
 10
-23.917400000000001
 20
52.468200000000003
 30
0.0
 10
-23.917400000000001
 20
52.468200000000003
 30
0.0
 10
-23.619
 20
52.468200000000003
 30
0.0
 10
-23.315100000000001
 20
52.570100000000004
 30
0.0
 10
-23.005800000000001
 20
52.777500000000003
 30
0.0
 10
-23.005800000000001
 20
52.777500000000003
 30
0.0
 10
-22.696400000000001
 20
52.9831
 30
0.0
 10
-22.447100000000002
 20
53.283300000000004
 30
0.0
 10
-22.254300000000001
 20
53.678200000000004
 30
0.0
 10
-22.254300000000001
 20
53.678200000000004
 30
0.0
 10
-22.063200000000002
 20
54.071300000000001
 30
0.0
 10
-21.966800000000003
 20
54.462500000000006
 30
0.0
 10
-21.966800000000003
 20
54.850100000000005
 30
0.0
 10
-21.966800000000003
 20
54.850100000000005
 30
0.0
 10
-21.966800000000003
 20
55.286799999999999
 30
0.0
 10
-22.096
 20
55.637900000000002
 30
0.0
 10
-22.352500000000003
 20
55.900000000000006
 30
0.0
 10
-22.352500000000003
 20
55.900000000000006
 30
0.0
 10
-22.610900000000001
 20
56.163800000000002
 30
0.0
 10
-22.949400000000001
 20
56.294800000000002
 30
0.0
 10
-23.367800000000003
 20
56.294800000000002
 30
0.0
 10
-23.367800000000003
 20
56.294800000000002
 30
0.0
 10
-23.649900000000002
 20
56.294800000000002
 30
0.0
 10
-23.915600000000001
 20
56.227499999999999
 30
0.0
 10
-24.1648
 20
56.0929
 30
0.0
 10
-24.1648
 20
56.0929
 30
0.0
 10
-24.416
 20
55.958200000000005
 30
0.0
 10
-24.648900000000001
 20
55.754400000000004
 30
0.0
 10
-24.8672
 20
55.485100000000003
 30
0.0
 10
-24.8672
 20
55.485100000000003
 30
0.0
 10
-24.8672
 20
55.485100000000003
 30
0.0
 10
-25.709700000000002
 20
55.543300000000002
 30
0.0
 10
-25.709700000000002
 20
55.543300000000002
 30
0.0
 10
-25.709700000000002
 20
55.543300000000002
 30
0.0
 10
-25.709700000000002
 20
55.543300000000002
 30
0.0
 10
-24.5306
 20
59.541000000000004
 30
0.0
 10
-24.5306
 20
59.541000000000004
 30
0.0
 10
-24.5306
 20
59.541000000000004
 30
0.0
 10
-24.5306
 20
59.541000000000004
 30
0.0
 10
-20.713000000000001
 20
59.541000000000004
 30
0.0
 10
-20.713000000000001
 20
59.541000000000004
 30
0.0
 10
-20.713000000000001
 20
59.541000000000004
 30
0.0
 10
-20.713000000000001
 20
59.541000000000004
 30
0.0
 10
-20.900400000000001
 20
58.656700000000001
 30
0.0
 10
-20.900400000000001
 20
58.656700000000001
 30
0.0
 10
-20.900400000000001
 20
58.656700000000001
 30
0.0
 10
-20.900400000000001
 20
58.656700000000001
 30
0.0
 10
-23.870100000000001
 20
58.656700000000001
 30
0.0
 10
-23.870100000000001
 20
58.656700000000001
 30
0.0
 10
-23.870100000000001
 20
58.656700000000001
 30
0.0
 10
-23.870100000000001
 20
58.656700000000001
 30
0.0
 10
-24.456
 20
56.667900000000003
 30
0.0
 10
-24.456
 20
56.667900000000003
 30
0.0
 10
-24.456
 20
56.667900000000003
 30
0.0
 10
-24.235800000000001
 20
56.828000000000003
 30
0.0
 10
-24.008300000000002
 20
56.948100000000004
 30
0.0
 10
-23.7773
 20
57.028100000000002
 30
0.0
 10
-23.7773
 20
57.028100000000002
 30
0.0
 10
-23.5443
 20
57.108200000000004
 30
0.0
 10
-23.304200000000002
 20
57.148300000000006
 30
0.0
 10
-23.058500000000002
 20
57.148300000000006
 30
0.0
 10
-23.058500000000002
 20
57.148300000000006
 30
0.0
 10
-22.4617
 20
57.148300000000006
 30
0.0
 10
-21.972200000000001
 20
56.951800000000006
 30
0.0
 10
-21.5883
 20
56.556900000000006
 30
0.0
 10
-21.5883
 20
56.556900000000006
 30
0.0
 10
-21.2043
 20
56.162000000000006
 30
0.0
 10
-21.011500000000002
 20
55.621600000000001
 30
0.0
 10
-21.011500000000002
 20
54.935600000000001
 30
0.0
 10
-21.011500000000002
 20
54.935600000000001
 30
0.0
 10
-21.011500000000002
 20
54.335100000000004
 30
0.0
 10
-21.144200000000001
 20
53.7819
 30
0.0
 10
-21.406300000000002
 20
53.274300000000004
 30
0.0
 10
-21.406300000000002
 20
53.274300000000004
 30
0.0
 10
-21.670100000000001
 20
52.7684
 30
0.0
 10
-22.0322
 20
52.379000000000005
 30
0.0
 10
-22.4908
 20
52.107900000000001
 30
0.0
 10
-22.4908
 20
52.107900000000001
 30
0.0
 10
-22.9511
 20
51.835000000000001
 30
0.0
 10
-23.447900000000001
 20
51.700300000000006
 30
0.0
 10
-23.981100000000001
 20
51.700300000000006
 30
0.0
 10
-23.981100000000001
 20
51.700300000000006
 30
0.0
 10
-24.428700000000003
 20
51.700300000000006
 30
0.0
 10
-24.825300000000002
 20
51.800400000000003
 30
0.0
 10
-25.171100000000003
 20
52.004200000000004
 30
0.0
 10
-25.171100000000003
 20
52.004200000000004
 30
0.0
 10
-25.515000000000001
 20
52.206099999999999
 30
0.0
 10
-25.773400000000002
 20
52.4846
 30
0.0
 10
-25.946300000000001
 20
52.841200000000001
 30
0.0
 10
-25.946300000000001
 20
52.841200000000001
 30
0.0
 10
-26.1191
 20
53.196000000000005
 30
0.0
 10
-26.204600000000003
 20
53.550800000000002
 30
0.0
 10
-26.204600000000003
 20
53.907500000000006
 30
0.0
 10
-26.204600000000003
 20
53.907500000000006
 30
0.0
 10
-26.204600000000003
 20
53.942100000000003
 30
0.0
 10
-26.2028
 20
53.994800000000005
 30
0.0
 10
-26.199200000000001
 20
54.067600000000006
 30
0.0
  0
SPLINE
  5
2A
100
AcDbEntity
  8
LC-006-002-RND-0
100
AcDbSpline
210
0.0
220
0.0
230
1.0
 70
     1
 71
     3
 72
   120
 73
   116
 74
     0
 42
0.0000000001
 43
0.0000000001
 40
0.0
 40
0.0
 40
0.0
 40
0.0
 40
0.0344827586206897
 40
0.0344827586206897
 40
0.0344827586206897
 40
0.0344827586206897
 40
0.0689655172413793
 40
0.0689655172413793
 40
0.0689655172413793
 40
0.0689655172413793
 40
0.103448275862069
 40
0.103448275862069
 40
0.103448275862069
 40
0.103448275862069
 40
0.1379310344827586
 40
0.1379310344827586
 40
0.1379310344827586
 40
0.1379310344827586
 40
0.1724137931034483
 40
0.1724137931034483
 40
0.1724137931034483
 40
0.1724137931034483
 40
0.206896551724138
 40
0.206896551724138
 40
0.206896551724138
 40
0.206896551724138
 40
0.2413793103448276
 40
0.2413793103448276
 40
0.2413793103448276
 40
0.2413793103448276
 40
0.2758620689655173
 40
0.2758620689655173
 40
0.2758620689655173
 40
0.2758620689655173
 40
0.310344827586207
 40
0.310344827586207
 40
0.310344827586207
 40
0.310344827586207
 40
0.3448275862068966
 40
0.3448275862068966
 40
0.3448275862068966
 40
0.3448275862068966
 40
0.3793103448275863
 40
0.3793103448275863
 40
0.3793103448275863
 40
0.3793103448275863
 40
0.413793103448276
 40
0.413793103448276
 40
0.413793103448276
 40
0.413793103448276
 40
0.4482758620689656
 40
0.4482758620689656
 40
0.4482758620689656
 40
0.4482758620689656
 40
0.4827586206896553
 40
0.4827586206896553
 40
0.4827586206896553
 40
0.4827586206896553
 40
0.517241379310345
 40
0.517241379310345
 40
0.517241379310345
 40
0.517241379310345
 40
0.5517241379310346
 40
0.5517241379310346
 40
0.5517241379310346
 40
0.5517241379310346
 40
0.5862068965517242
 40
0.5862068965517242
 40
0.5862068965517242
 40
0.5862068965517242
 40
0.6206896551724138
 40
0.6206896551724138
 40
0.6206896551724138
 40
0.6206896551724138
 40
0.6551724137931034
 40
0.6551724137931034
 40
0.6551724137931034
 40
0.6551724137931034
 40
0.689655172413793
 40
0.689655172413793
 40
0.689655172413793
 40
0.689655172413793
 40
0.7241379310344827
 40
0.7241379310344827
 40
0.7241379310344827
 40
0.7241379310344827
 40
0.7586206896551723
 40
0.7586206896551723
 40
0.7586206896551723
 40
0.7586206896551723
 40
0.7931034482758619
 40
0.7931034482758619
 40
0.7931034482758619
 40
0.7931034482758619
 40
0.8275862068965515
 40
0.8275862068965515
 40
0.8275862068965515
 40
0.8275862068965515
 40
0.8620689655172411
 40
0.8620689655172411
 40
0.8620689655172411
 40
0.8620689655172411
 40
0.8965517241379307
 40
0.8965517241379307
 40
0.8965517241379307
 40
0.8965517241379307
 40
0.9310344827586203
 40
0.9310344827586203
 40
0.9310344827586203
 40
0.9310344827586203
 40
0.9655172413793099
 40
0.9655172413793099
 40
0.9655172413793099
 40
0.9655172413793099
 40
1.0
 40
1.0
 40
1.0
 40
1.0
 10
-20.127100000000002
 20
54.067600000000006
 30
0.0
 10
-20.127100000000002
 20
54.067600000000006
 30
0.0
 10
-19.1463
 20
54.162300000000002
 30
0.0
 10
-19.1463
 20
54.162300000000002
 30
0.0
 10
-19.1463
 20
54.162300000000002
 30
0.0
 10
-19.153600000000001
 20
54.023900000000005
 30
0.0
 10
-19.1572
 20
53.940200000000004
 30
0.0
 10
-19.1572
 20
53.913000000000004
 30
0.0
 10
-19.1572
 20
53.913000000000004
 30
0.0
 10
-19.1572
 20
53.678200000000004
 30
0.0
 10
-19.097200000000001
 20
53.441600000000001
 30
0.0
 10
-18.978999999999999
 20
53.203300000000006
 30
0.0
 10
-18.978999999999999
 20
53.203300000000006
 30
0.0
 10
-18.858800000000002
 20
52.965000000000003
 30
0.0
 10
-18.696899999999999
 20
52.783000000000001
 30
0.0
 10
-18.493100000000002
 20
52.657400000000003
 30
0.0
 10
-18.493100000000002
 20
52.657400000000003
 30
0.0
 10
-18.289300000000001
 20
52.530100000000004
 30
0.0
 10
-18.072700000000001
 20
52.468200000000003
 30
0.0
 10
-17.845300000000002
 20
52.468200000000003
 30
0.0
 10
-17.845300000000002
 20
52.468200000000003
 30
0.0
 10
-17.546900000000001
 20
52.468200000000003
 30
0.0
 10
-17.243000000000002
 20
52.570100000000004
 30
0.0
 10
-16.933700000000002
 20
52.777500000000003
 30
0.0
 10
-16.933700000000002
 20
52.777500000000003
 30
0.0
 10
-16.624400000000001
 20
52.9831
 30
0.0
 10
-16.3751
 20
53.283300000000004
 30
0.0
 10
-16.182200000000002
 20
53.678200000000004
 30
0.0
 10
-16.182200000000002
 20
53.678200000000004
 30
0.0
 10
-15.991100000000001
 20
54.071300000000001
 30
0.0
 10
-15.8947
 20
54.462500000000006
 30
0.0
 10
-15.8947
 20
54.850100000000005
 30
0.0
 10
-15.8947
 20
54.850100000000005
 30
0.0
 10
-15.8947
 20
55.286799999999999
 30
0.0
 10
-16.023900000000001
 20
55.637900000000002
 30
0.0
 10
-16.2804
 20
55.900000000000006
 30
0.0
 10
-16.2804
 20
55.900000000000006
 30
0.0
 10
-16.538800000000002
 20
56.163800000000002
 30
0.0
 10
-16.877300000000002
 20
56.294800000000002
 30
0.0
 10
-17.2958
 20
56.294800000000002
 30
0.0
 10
-17.2958
 20
56.294800000000002
 30
0.0
 10
-17.5778
 20
56.294800000000002
 30
0.0
 10
-17.843500000000002
 20
56.227499999999999
 30
0.0
 10
-18.0928
 20
56.0929
 30
0.0
 10
-18.0928
 20
56.0929
 30
0.0
 10
-18.343900000000001
 20
55.958200000000005
 30
0.0
 10
-18.576800000000002
 20
55.754400000000004
 30
0.0
 10
-18.795100000000001
 20
55.485100000000003
 30
0.0
 10
-18.795100000000001
 20
55.485100000000003
 30
0.0
 10
-18.795100000000001
 20
55.485100000000003
 30
0.0
 10
-19.637600000000003
 20
55.543300000000002
 30
0.0
 10
-19.637600000000003
 20
55.543300000000002
 30
0.0
 10
-19.637600000000003
 20
55.543300000000002
 30
0.0
 10
-19.637600000000003
 20
55.543300000000002
 30
0.0
 10
-18.458500000000001
 20
59.541000000000004
 30
0.0
 10
-18.458500000000001
 20
59.541000000000004
 30
0.0
 10
-18.458500000000001
 20
59.541000000000004
 30
0.0
 10
-18.458500000000001
 20
59.541000000000004
 30
0.0
 10
-14.6409
 20
59.541000000000004
 30
0.0
 10
-14.6409
 20
59.541000000000004
 30
0.0
 10
-14.6409
 20
59.541000000000004
 30
0.0
 10
-14.6409
 20
59.541000000000004
 30
0.0
 10
-14.8284
 20
58.656700000000001
 30
0.0
 10
-14.8284
 20
58.656700000000001
 30
0.0
 10
-14.8284
 20
58.656700000000001
 30
0.0
 10
-14.8284
 20
58.656700000000001
 30
0.0
 10
-17.798000000000002
 20
58.656700000000001
 30
0.0
 10
-17.798000000000002
 20
58.656700000000001
 30
0.0
 10
-17.798000000000002
 20
58.656700000000001
 30
0.0
 10
-17.798000000000002
 20
58.656700000000001
 30
0.0
 10
-18.383900000000001
 20
56.667900000000003
 30
0.0
 10
-18.383900000000001
 20
56.667900000000003
 30
0.0
 10
-18.383900000000001
 20
56.667900000000003
 30
0.0
 10
-18.163700000000002
 20
56.828000000000003
 30
0.0
 10
-17.936199999999999
 20
56.948100000000004
 30
0.0
 10
-17.705200000000001
 20
57.028100000000002
 30
0.0
 10
-17.705200000000001
 20
57.028100000000002
 30
0.0
 10
-17.472300000000001
 20
57.108200000000004
 30
0.0
 10
-17.232099999999999
 20
57.148300000000006
 30
0.0
 10
-16.9864
 20
57.148300000000006
 30
0.0
 10
-16.9864
 20
57.148300000000006
 30
0.0
 10
-16.389600000000002
 20
57.148300000000006
 30
0.0
 10
-15.9001
 20
56.951800000000006
 30
0.0
 10
-15.516200000000001
 20
56.556900000000006
 30
0.0
 10
-15.516200000000001
 20
56.556900000000006
 30
0.0
 10
-15.132200000000001
 20
56.162000000000006
 30
0.0
 10
-14.939400000000001
 20
55.621600000000001
 30
0.0
 10
-14.939400000000001
 20
54.935600000000001
 30
0.0
 10
-14.939400000000001
 20
54.935600000000001
 30
0.0
 10
-14.939400000000001
 20
54.335100000000004
 30
0.0
 10
-15.0722
 20
53.7819
 30
0.0
 10
-15.334200000000001
 20
53.274300000000004
 30
0.0
 10
-15.334200000000001
 20
53.274300000000004
 30
0.0
 10
-15.598000000000001
 20
52.7684
 30
0.0
 10
-15.960100000000001
 20
52.379000000000005
 30
0.0
 10
-16.418700000000001
 20
52.107900000000001
 30
0.0
 10
-16.418700000000001
 20
52.107900000000001
 30
0.0
 10
-16.879100000000001
 20
51.835000000000001
 30
0.0
 10
-17.375900000000001
 20
51.700300000000006
 30
0.0
 10
-17.909000000000002
 20
51.700300000000006
 30
0.0
 10
-17.909000000000002
 20
51.700300000000006
 30
0.0
 10
-18.3566
 20
51.700300000000006
 30
0.0
 10
-18.753299999999999
 20
51.800400000000003
 30
0.0
 10
-19.099
 20
52.004200000000004
 30
0.0
 10
-19.099
 20
52.004200000000004
 30
0.0
 10
-19.442900000000002
 20
52.206099999999999
 30
0.0
 10
-19.7013
 20
52.4846
 30
0.0
 10
-19.874200000000002
 20
52.841200000000001
 30
0.0
 10
-19.874200000000002
 20
52.841200000000001
 30
0.0
 10
-20.0471
 20
53.196000000000005
 30
0.0
 10
-20.1325
 20
53.550800000000002
 30
0.0
 10
-20.1325
 20
53.907500000000006
 30
0.0
 10
-20.1325
 20
53.907500000000006
 30
0.0
 10
-20.1325
 20
53.942100000000003
 30
0.0
 10
-20.130800000000001
 20
53.994800000000005
 30
0.0
 10
-20.127100000000002
 20
54.067600000000006
 30
0.0
  0
SPLINE
  5
2B
100
AcDbEntity
  8
LC-006-002-RND-0
100
AcDbSpline
210
0.0
220
0.0
230
1.0
 70
     1
 71
     3
 72
    44
 73
    40
 74
     0
 42
0.0000000001
 43
0.0000000001
 40
0.0
 40
0.0
 40
0.0
 40
0.0
 40
0.1
 40
0.1
 40
0.1
 40
0.1
 40
0.2
 40
0.2
 40
0.2
 40
0.2
 40
0.3
 40
0.3
 40
0.3
 40
0.3
 40
0.4
 40
0.4
 40
0.4
 40
0.4
 40
0.5
 40
0.5
 40
0.5
 40
0.5
 40
0.6
 40
0.6
 40
0.6
 40
0.6
 40
0.7
 40
0.7
 40
0.7
 40
0.7
 40
0.7999999999999999
 40
0.7999999999999999
 40
0.7999999999999999
 40
0.7999999999999999
 40
0.8999999999999999
 40
0.8999999999999999
 40
0.8999999999999999
 40
0.8999999999999999
 40
1.0
 40
1.0
 40
1.0
 40
1.0
 10
-78.574600000000004
 20
14.473800000000001
 30
0.0
 10
-79.100499999999997
 20
14.5593
 30
0.0
 10
-79.733699999999999
 20
14.741300000000001
 30
0.0
 10
-80.472500000000011
 20
15.017900000000001
 30
0.0
 10
-80.472500000000011
 20
15.017900000000001
 30
0.0
 10
-81.364100000000008
 20
15.349
 30
0.0
 10
-82.250200000000007
 20
15.782100000000002
 30
0.0
 10
-83.129100000000008
 20
16.318899999999999
 30
0.0
 10
-83.129100000000008
 20
16.318899999999999
 30
0.0
 10
-84.009799999999998
 20
16.855700000000002
 30
0.0
 10
-84.765000000000001
 20
17.4526
 30
0.0
 10
-85.398200000000003
 20
18.109400000000001
 30
0.0
 10
-85.398200000000003
 20
18.109400000000001
 30
0.0
 10
-85.398200000000003
 20
18.109400000000001
 30
0.0
 10
-85.398200000000003
 20
14.213600000000001
 30
0.0
 10
-85.398200000000003
 20
14.213600000000001
 30
0.0
 10
-85.398200000000003
 20
14.213600000000001
 30
0.0
 10
-85.398200000000003
 20
14.213600000000001
 30
0.0
 10
-86.282499999999999
 20
14.3992
 30
0.0
 10
-86.282499999999999
 20
14.3992
 30
0.0
 10
-86.282499999999999
 20
14.3992
 30
0.0
 10
-86.282499999999999
 20
14.3992
 30
0.0
 10
-86.282499999999999
 20
19.3887
 30
0.0
 10
-86.282499999999999
 20
19.3887
 30
0.0
 10
-86.282499999999999
 20
19.3887
 30
0.0
 10
-86.282499999999999
 20
19.3887
 30
0.0
 10
-85.398200000000003
 20
19.208500000000001
 30
0.0
 10
-85.398200000000003
 20
19.208500000000001
 30
0.0
 10
-85.398200000000003
 20
19.208500000000001
 30
0.0
 10
-84.655799999999999
 20
18.362300000000001
 30
0.0
 10
-83.696899999999999
 20
17.6236
 30
0.0
 10
-82.525000000000006
 20
16.990300000000001
 30
0.0
 10
-82.525000000000006
 20
16.990300000000001
 30
0.0
 10
-81.171199999999999
 20
16.255300000000002
 30
0.0
 10
-79.853800000000007
 20
15.751200000000001
 30
0.0
 10
-78.574600000000004
 20
15.481900000000001
 30
0.0
 10
-78.574600000000004
 20
15.481900000000001
 30
0.0
 10
-78.574600000000004
 20
15.481900000000001
 30
0.0
 10
-78.574600000000004
 20
14.473800000000001
 30
0.0
 10
-78.574600000000004
 20
14.473800000000001
 30
0.0
  0
SPLINE
  5
2C
100
AcDbEntity
  8
LC-006-002-RND-0
100
AcDbSpline
210
0.0
220
0.0
230
1.0
 70
     1
 71
     3
 72
    76
 73
    72
 74
     0
 42
0.0000000001
 43
0.0000000001
 40
0.0
 40
0.0
 40
0.0
 40
0.0
 40
0.0555555555555556
 40
0.0555555555555556
 40
0.0555555555555556
 40
0.0555555555555556
 40
0.1111111111111111
 40
0.1111111111111111
 40
0.1111111111111111
 40
0.1111111111111111
 40
0.1666666666666667
 40
0.1666666666666667
 40
0.1666666666666667
 40
0.1666666666666667
 40
0.2222222222222222
 40
0.2222222222222222
 40
0.2222222222222222
 40
0.2222222222222222
 40
0.2777777777777778
 40
0.2777777777777778
 40
0.2777777777777778
 40
0.2777777777777778
 40
0.3333333333333334
 40
0.3333333333333334
 40
0.3333333333333334
 40
0.3333333333333334
 40
0.388888888888889
 40
0.388888888888889
 40
0.388888888888889
 40
0.388888888888889
 40
0.4444444444444445
 40
0.4444444444444445
 40
0.4444444444444445
 40
0.4444444444444445
 40
0.5000000000000001
 40
0.5000000000000001
 40
0.5000000000000001
 40
0.5000000000000001
 40
0.5555555555555557
 40
0.5555555555555557
 40
0.5555555555555557
 40
0.5555555555555557
 40
0.6111111111111113
 40
0.6111111111111113
 40
0.6111111111111113
 40
0.6111111111111113
 40
0.6666666666666669
 40
0.6666666666666669
 40
0.6666666666666669
 40
0.6666666666666669
 40
0.7222222222222224
 40
0.7222222222222224
 40
0.7222222222222224
 40
0.7222222222222224
 40
0.777777777777778
 40
0.777777777777778
 40
0.777777777777778
 40
0.777777777777778
 40
0.8333333333333336
 40
0.8333333333333336
 40
0.8333333333333336
 40
0.8333333333333336
 40
0.8888888888888892
 40
0.8888888888888892
 40
0.8888888888888892
 40
0.8888888888888892
 40
0.9444444444444448
 40
0.9444444444444448
 40
0.9444444444444448
 40
0.9444444444444448
 40
1.0
 40
1.0
 40
1.0
 40
1.0
 10
-43.575800000000001
 20
0.8076
 30
0.0
 10
-44.1235
 20
1.4572000000000001
 30
0.0
 10
-44.396500000000003
 20
2.2833000000000001
 30
0.0
 10
-44.396500000000003
 20
3.2859000000000003
 30
0.0
 10
-44.396500000000003
 20
3.2859000000000003
 30
0.0
 10
-44.396500000000003
 20
3.9647000000000001
 30
0.0
 10
-44.267299999999999
 20
4.6143000000000001
 30
0.0
 10
-44.007100000000001
 20
5.2311000000000005
 30
0.0
 10
-44.007100000000001
 20
5.2311000000000005
 30
0.0
 10
-43.794200000000004
 20
5.7442000000000002
 30
0.0
 10
-43.5139
 20
6.1846000000000005
 30
0.0
 10
-43.168199999999999
 20
6.5558000000000005
 30
0.0
 10
-43.168199999999999
 20
6.5558000000000005
 30
0.0
 10
-42.820700000000002
 20
6.9270000000000005
 30
0.0
 10
-42.444000000000003
 20
7.2145000000000001
 30
0.0
 10
-42.034600000000005
 20
7.4183000000000003
 30
0.0
 10
-42.034600000000005
 20
7.4183000000000003
 30
0.0
 10
-41.490500000000004
 20
7.6875
 30
0.0
 10
-40.906400000000005
 20
7.8222000000000005
 30
0.0
 10
-40.280500000000004
 20
7.8222000000000005
 30
0.0
 10
-40.280500000000004
 20
7.8222000000000005
 30
0.0
 10
-39.478000000000002
 20
7.8222000000000005
 30
0.0
 10
-38.799300000000002
 20
7.6148000000000007
 30
0.0
 10
-38.244300000000003
 20
7.1981000000000002
 30
0.0
 10
-38.244300000000003
 20
7.1981000000000002
 30
0.0
 10
-38.244300000000003
 20
7.1981000000000002
 30
0.0
 10
-37.392700000000005
 20
8.2225999999999999
 30
0.0
 10
-37.392700000000005
 20
8.2225999999999999
 30
0.0
 10
-37.392700000000005
 20
8.2225999999999999
 30
0.0
 10
-37.392700000000005
 20
8.2225999999999999
 30
0.0
 10
-36.9178
 20
7.8004000000000007
 30
0.0
 10
-36.9178
 20
7.8004000000000007
 30
0.0
 10
-36.9178
 20
7.8004000000000007
 30
0.0
 10
-36.9178
 20
7.8004000000000007
 30
0.0
 10
-37.780300000000004
 20
6.7614000000000001
 30
0.0
 10
-37.780300000000004
 20
6.7614000000000001
 30
0.0
 10
-37.780300000000004
 20
6.7614000000000001
 30
0.0
 10
-37.234400000000001
 20
6.1354000000000006
 30
0.0
 10
-36.959700000000005
 20
5.3130000000000006
 30
0.0
 10
-36.959700000000005
 20
4.2938999999999998
 30
0.0
 10
-36.959700000000005
 20
4.2938999999999998
 30
0.0
 10
-36.959700000000005
 20
3.5570000000000004
 30
0.0
 10
-37.110700000000001
 20
2.8673999999999999
 30
0.0
 10
-37.412800000000004
 20
2.2196000000000002
 30
0.0
 10
-37.412800000000004
 20
2.2196000000000002
 30
0.0
 10
-37.643900000000002
 20
1.7265000000000001
 30
0.0
 10
-37.936800000000005
 20
1.3025
 30
0.0
 10
-38.293500000000002
 20
0.9477000000000001
 30
0.0
 10
-38.293500000000002
 20
0.9477000000000001
 30
0.0
 10
-38.648299999999999
 20
0.5947
 30
0.0
 10
-39.026800000000001
 20
0.3199
 30
0.0
 10
-39.428899999999999
 20
0.1253
 30
0.0
 10
-39.428899999999999
 20
0.1253
 30
0.0
 10
-39.962000000000003
 20
-0.1314
 30
0.0
 10
-40.5261
 20
-0.2587
 30
0.0
 10
-41.123000000000005
 20
-0.2587
 30
0.0
 10
-41.123000000000005
 20
-0.2587
 30
0.0
 10
-41.876300000000001
 20
-0.2587
 30
0.0
 10
-42.536799999999999
 20
-0.0513
 30
0.0
 10
-43.100900000000003
 20
0.3654
 30
0.0
 10
-43.100900000000003
 20
0.3654
 30
0.0
 10
-43.100900000000003
 20
0.3654
 30
0.0
 10
-43.959700000000005
 20
-0.6754
 30
0.0
 10
-43.959700000000005
 20
-0.6754
 30
0.0
 10
-43.959700000000005
 20
-0.6754
 30
0.0
 10
-43.959700000000005
 20
-0.6754
 30
0.0
 10
-44.465600000000002
 20
-0.2532
 30
0.0
 10
-44.465600000000002
 20
-0.2532
 30
0.0
 10
-44.465600000000002
 20
-0.2532
 30
0.0
 10
-44.465600000000002
 20
-0.2532
 30
0.0
 10
-43.575800000000001
 20
0.8076
 30
0.0
 10
-43.575800000000001
 20
0.8076
 30
0.0
  0
SPLINE
  5
2D
100
AcDbEntity
  8
LC-006-002-RND-0
100
AcDbSpline
210
0.0
220
0.0
230
1.0
 70
     1
 71
     3
 72
    28
 73
    24
 74
     0
 42
0.0000000001
 43
0.0000000001
 40
0.0
 40
0.0
 40
0.0
 40
0.0
 40
0.1666666666666667
 40
0.1666666666666667
 40
0.1666666666666667
 40
0.1666666666666667
 40
0.3333333333333333
 40
0.3333333333333333
 40
0.3333333333333333
 40
0.3333333333333333
 40
0.5
 40
0.5
 40
0.5
 40
0.5
 40
0.6666666666666666
 40
0.6666666666666666
 40
0.6666666666666666
 40
0.6666666666666666
 40
0.8333333333333333
 40
0.8333333333333333
 40
0.8333333333333333
 40
0.8333333333333333
 40
1.0
 40
1.0
 40
1.0
 40
1.0
 10
-42.929900000000004
 20
1.5809
 30
0.0
 10
-42.929900000000004
 20
1.5809
 30
0.0
 10
-38.868500000000004
 20
6.452
 30
0.0
 10
-38.868500000000004
 20
6.452
 30
0.0
 10
-38.868500000000004
 20
6.452
 30
0.0
 10
-39.2742
 20
6.7869000000000002
 30
0.0
 10
-39.736400000000003
 20
6.9542000000000002
 30
0.0
 10
-40.255000000000003
 20
6.9542000000000002
 30
0.0
 10
-40.255000000000003
 20
6.9542000000000002
 30
0.0
 10
-40.777300000000004
 20
6.9542000000000002
 30
0.0
 10
-41.281300000000002
 20
6.7996000000000008
 30
0.0
 10
-41.768900000000002
 20
6.4902000000000006
 30
0.0
 10
-41.768900000000002
 20
6.4902000000000006
 30
0.0
 10
-42.254800000000003
 20
6.1809000000000003
 30
0.0
 10
-42.644200000000005
 20
5.7297000000000002
 30
0.0
 10
-42.935300000000005
 20
5.1364999999999998
 30
0.0
 10
-42.935300000000005
 20
5.1364999999999998
 30
0.0
 10
-43.228300000000004
 20
4.5415000000000001
 30
0.0
 10
-43.373800000000003
 20
3.9045000000000001
 30
0.0
 10
-43.373800000000003
 20
3.2222
 30
0.0
 10
-43.373800000000003
 20
3.2222
 30
0.0
 10
-43.373800000000003
 20
2.5653000000000001
 30
0.0
 10
-43.226400000000005
 20
2.0176000000000003
 30
0.0
 10
-42.929900000000004
 20
1.5809
 30
0.0
  0
SPLINE
  5
2E
100
AcDbEntity
  8
LC-006-002-RND-0
100
AcDbSpline
210
0.0
220
0.0
230
1.0
 70
     1
 71
     3
 72
    32
 73
    28
 74
     0
 42
0.0000000001
 43
0.0000000001
 40
0.0
 40
0.0
 40
0.0
 40
0.0
 40
0.1428571428571429
 40
0.1428571428571429
 40
0.1428571428571429
 40
0.1428571428571429
 40
0.2857142857142857
 40
0.2857142857142857
 40
0.2857142857142857
 40
0.2857142857142857
 40
0.4285714285714286
 40
0.4285714285714286
 40
0.4285714285714286
 40
0.4285714285714286
 40
0.5714285714285714
 40
0.5714285714285714
 40
0.5714285714285714
 40
0.5714285714285714
 40
0.7142857142857142
 40
0.7142857142857142
 40
0.7142857142857142
 40
0.7142857142857142
 40
0.857142857142857
 40
0.857142857142857
 40
0.857142857142857
 40
0.857142857142857
 40
1.0
 40
1.0
 40
1.0
 40
1.0
 10
-38.431699999999999
 20
5.9790000000000001
 30
0.0
 10
-38.431699999999999
 20
5.9790000000000001
 30
0.0
 10
-42.482199999999999
 20
1.1060000000000001
 30
0.0
 10
-42.482199999999999
 20
1.1060000000000001
 30
0.0
 10
-42.482199999999999
 20
1.1060000000000001
 30
0.0
 10
-42.052800000000005
 20
0.7712
 30
0.0
 10
-41.572400000000002
 20
0.6038
 30
0.0
 10
-41.042900000000003
 20
0.6038
 30
0.0
 10
-41.042900000000003
 20
0.6038
 30
0.0
 10
-40.642600000000002
 20
0.6038
 30
0.0
 10
-40.260400000000004
 20
0.7002
 30
0.0
 10
-39.896599999999999
 20
0.8894000000000001
 30
0.0
 10
-39.896599999999999
 20
0.8894000000000001
 30
0.0
 10
-39.534400000000005
 20
1.0805
 30
0.0
 10
-39.210500000000003
 20
1.3444
 30
0.0
 10
-38.924900000000001
 20
1.6846000000000001
 30
0.0
 10
-38.924900000000001
 20
1.6846000000000001
 30
0.0
 10
-38.639099999999999
 20
2.0230999999999999
 30
0.0
 10
-38.413499999999999
 20
2.4416000000000002
 30
0.0
 10
-38.248000000000005
 20
2.9366000000000003
 30
0.0
 10
-38.248000000000005
 20
2.9366000000000003
 30
0.0
 10
-38.0824
 20
3.4333
 30
0.0
 10
-38.000500000000002
 20
3.9209000000000001
 30
0.0
 10
-38.000500000000002
 20
4.3996000000000004
 30
0.0
 10
-38.000500000000002
 20
4.3996000000000004
 30
0.0
 10
-38.000500000000002
 20
5.0
 30
0.0
 10
-38.144200000000005
 20
5.5258000000000003
 30
0.0
 10
-38.431699999999999
 20
5.9790000000000001
 30
0.0
  0
SPLINE
  5
2F
100
AcDbEntity
  8
LC-006-002-RND-0
100
AcDbSpline
210
0.0
220
0.0
230
1.0
 70
     1
 71
     3
 72
    40
 73
    36
 74
     0
 42
0.0000000001
 43
0.0000000001
 40
0.0
 40
0.0
 40
0.0
 40
0.0
 40
0.1111111111111111
 40
0.1111111111111111
 40
0.1111111111111111
 40
0.1111111111111111
 40
0.2222222222222222
 40
0.2222222222222222
 40
0.2222222222222222
 40
0.2222222222222222
 40
0.3333333333333333
 40
0.3333333333333333
 40
0.3333333333333333
 40
0.3333333333333333
 40
0.4444444444444444
 40
0.4444444444444444
 40
0.4444444444444444
 40
0.4444444444444444
 40
0.5555555555555556
 40
0.5555555555555556
 40
0.5555555555555556
 40
0.5555555555555556
 40
0.6666666666666667
 40
0.6666666666666667
 40
0.6666666666666667
 40
0.6666666666666667
 40
0.7777777777777779
 40
0.7777777777777779
 40
0.7777777777777779
 40
0.7777777777777779
 40
0.8888888888888891
 40
0.8888888888888891
 40
0.8888888888888891
 40
0.8888888888888891
 40
1.0
 40
1.0
 40
1.0
 40
1.0
 10
-34.273800000000001
 20
-0.1259
 30
0.0
 10
-34.273800000000001
 20
-0.1259
 30
0.0
 10
-33.036500000000004
 20
5.7751000000000001
 30
0.0
 10
-33.036500000000004
 20
5.7751000000000001
 30
0.0
 10
-33.036500000000004
 20
5.7751000000000001
 30
0.0
 10
-33.569700000000005
 20
5.3566000000000003
 30
0.0
 10
-34.319299999999998
 20
5.0200000000000005
 30
0.0
 10
-35.285600000000002
 20
4.7671000000000001
 30
0.0
 10
-35.285600000000002
 20
4.7671000000000001
 30
0.0
 10
-35.285600000000002
 20
4.7671000000000001
 30
0.0
 10
-35.105400000000003
 20
5.6423000000000005
 30
0.0
 10
-35.105400000000003
 20
5.6423000000000005
 30
0.0
 10
-35.105400000000003
 20
5.6423000000000005
 30
0.0
 10
-34.625
 20
5.8334000000000001
 30
0.0
 10
-34.152000000000001
 20
6.0845000000000002
 30
0.0
 10
-33.6843
 20
6.3938000000000006
 30
0.0
 10
-33.6843
 20
6.3938000000000006
 30
0.0
 10
-33.216700000000003
 20
6.7032000000000007
 30
0.0
 10
-32.865500000000004
 20
6.9725000000000001
 30
0.0
 10
-32.630700000000004
 20
7.2036000000000007
 30
0.0
 10
-32.630700000000004
 20
7.2036000000000007
 30
0.0
 10
-32.488800000000005
 20
7.3455000000000004
 30
0.0
 10
-32.354100000000003
 20
7.5183
 30
0.0
 10
-32.226800000000004
 20
7.7221000000000002
 30
0.0
 10
-32.226800000000004
 20
7.7221000000000002
 30
0.0
 10
-32.226800000000004
 20
7.7221000000000002
 30
0.0
 10
-31.666300000000003
 20
7.7221000000000002
 30
0.0
 10
-31.666300000000003
 20
7.7221000000000002
 30
0.0
 10
-31.666300000000003
 20
7.7221000000000002
 30
0.0
 10
-31.666300000000003
 20
7.7221000000000002
 30
0.0
 10
-33.302199999999999
 20
-0.1259
 30
0.0
 10
-33.302199999999999
 20
-0.1259
 30
0.0
 10
-33.302199999999999
 20
-0.1259
 30
0.0
 10
-33.302199999999999
 20
-0.1259
 30
0.0
 10
-34.273800000000001
 20
-0.1259
 30
0.0
 10
-34.273800000000001
 20
-0.1259
 30
0.0
  0
SPLINE
  5
30
100
AcDbEntity
  8
LC-006-002-RND-0
100
AcDbSpline
210
0.0
220
0.0
230
1.0
 70
     1
 71
     3
 72
    96
 73
    92
 74
     0
 42
0.0000000001
 43
0.0000000001
 40
0.0
 40
0.0
 40
0.0
 40
0.0
 40
0.0434782608695652
 40
0.0434782608695652
 40
0.0434782608695652
 40
0.0434782608695652
 40
0.0869565217391304
 40
0.0869565217391304
 40
0.0869565217391304
 40
0.0869565217391304
 40
0.1304347826086957
 40
0.1304347826086957
 40
0.1304347826086957
 40
0.1304347826086957
 40
0.1739130434782609
 40
0.1739130434782609
 40
0.1739130434782609
 40
0.1739130434782609
 40
0.2173913043478261
 40
0.2173913043478261
 40
0.2173913043478261
 40
0.2173913043478261
 40
0.2608695652173913
 40
0.2608695652173913
 40
0.2608695652173913
 40
0.2608695652173913
 40
0.3043478260869565
 40
0.3043478260869565
 40
0.3043478260869565
 40
0.3043478260869565
 40
0.3478260869565217
 40
0.3478260869565217
 40
0.3478260869565217
 40
0.3478260869565217
 40
0.3913043478260869
 40
0.3913043478260869
 40
0.3913043478260869
 40
0.3913043478260869
 40
0.4347826086956521
 40
0.4347826086956521
 40
0.4347826086956521
 40
0.4347826086956521
 40
0.4782608695652173
 40
0.4782608695652173
 40
0.4782608695652173
 40
0.4782608695652173
 40
0.5217391304347825
 40
0.5217391304347825
 40
0.5217391304347825
 40
0.5217391304347825
 40
0.5652173913043477
 40
0.5652173913043477
 40
0.5652173913043477
 40
0.5652173913043477
 40
0.6086956521739129
 40
0.6086956521739129
 40
0.6086956521739129
 40
0.6086956521739129
 40
0.6521739130434781
 40
0.6521739130434781
 40
0.6521739130434781
 40
0.6521739130434781
 40
0.6956521739130432
 40
0.6956521739130432
 40
0.6956521739130432
 40
0.6956521739130432
 40
0.7391304347826084
 40
0.7391304347826084
 40
0.7391304347826084
 40
0.7391304347826084
 40
0.7826086956521736
 40
0.7826086956521736
 40
0.7826086956521736
 40
0.7826086956521736
 40
0.8260869565217388
 40
0.8260869565217388
 40
0.8260869565217388
 40
0.8260869565217388
 40
0.869565217391304
 40
0.869565217391304
 40
0.869565217391304
 40
0.869565217391304
 40
0.9130434782608692
 40
0.9130434782608692
 40
0.9130434782608692
 40
0.9130434782608692
 40
0.9565217391304344
 40
0.9565217391304344
 40
0.9565217391304344
 40
0.9565217391304344
 40
1.0
 40
1.0
 40
1.0
 40
1.0
 10
-30.188800000000001
 20
-0.1259
 30
0.0
 10
-30.090500000000002
 20
0.34
 30
0.0
 10
-29.952300000000001
 20
0.7294000000000001
 30
0.0
 10
-29.7758
 20
1.0441
 30
0.0
 10
-29.7758
 20
1.0441
 30
0.0
 10
-29.601100000000002
 20
1.3589
 30
0.0
 10
-29.366300000000003
 20
1.6573
 30
0.0
 10
-29.075200000000002
 20
1.9393
 30
0.0
 10
-29.075200000000002
 20
1.9393
 30
0.0
 10
-28.784100000000002
 20
2.2232000000000003
 30
0.0
 10
-28.221800000000002
 20
2.6962999999999999
 30
0.0
 10
-27.3902
 20
3.3605
 30
0.0
 10
-27.3902
 20
3.3605
 30
0.0
 10
-26.886200000000002
 20
3.7626000000000004
 30
0.0
 10
-26.542300000000001
 20
4.0593000000000004
 30
0.0
 10
-26.3567
 20
4.2503000000000002
 30
0.0
 10
-26.3567
 20
4.2503000000000002
 30
0.0
 10
-26.091000000000001
 20
4.5287000000000006
 30
0.0
 10
-25.8963
 20
4.7999000000000001
 30
0.0
 10
-25.776200000000003
 20
5.0673000000000004
 30
0.0
 10
-25.776200000000003
 20
5.0673000000000004
 30
0.0
 10
-25.694400000000002
 20
5.2475000000000005
 30
0.0
 10
-25.6525
 20
5.4458000000000002
 30
0.0
 10
-25.6525
 20
5.6587000000000005
 30
0.0
 10
-25.6525
 20
5.6587000000000005
 30
0.0
 10
-25.6525
 20
6.0171000000000001
 30
0.0
 10
-25.779900000000001
 20
6.3210000000000006
 30
0.0
 10
-26.034600000000001
 20
6.5722000000000005
 30
0.0
 10
-26.034600000000001
 20
6.5722000000000005
 30
0.0
 10
-26.287600000000001
 20
6.8231999999999999
 30
0.0
 10
-26.6005
 20
6.9488000000000003
 30
0.0
 10
-26.969900000000003
 20
6.9488000000000003
 30
0.0
 10
-26.969900000000003
 20
6.9488000000000003
 30
0.0
 10
-27.335600000000003
 20
6.9488000000000003
 30
0.0
 10
-27.655900000000003
 20
6.8215000000000003
 30
0.0
 10
-27.928900000000002
 20
6.5667
 30
0.0
 10
-27.928900000000002
 20
6.5667
 30
0.0
 10
-28.203600000000002
 20
6.3138000000000005
 30
0.0
 10
-28.398300000000003
 20
5.9043000000000001
 30
0.0
 10
-28.5166
 20
5.3439000000000005
 30
0.0
 10
-28.5166
 20
5.3439000000000005
 30
0.0
 10
-28.5166
 20
5.3439000000000005
 30
0.0
 10
-29.459200000000003
 20
5.4822000000000006
 30
0.0
 10
-29.459200000000003
 20
5.4822000000000006
 30
0.0
 10
-29.459200000000003
 20
5.4822000000000006
 30
0.0
 10
-29.366300000000003
 20
6.1755000000000004
 30
0.0
 10
-29.097000000000001
 20
6.7214
 30
0.0
 10
-28.651200000000003
 20
7.1217000000000006
 30
0.0
 10
-28.651200000000003
 20
7.1217000000000006
 30
0.0
 10
-28.205400000000001
 20
7.5220000000000002
 30
0.0
 10
-27.650400000000001
 20
7.7221000000000002
 30
0.0
 10
-26.9863
 20
7.7221000000000002
 30
0.0
 10
-26.9863
 20
7.7221000000000002
 30
0.0
 10
-26.542300000000001
 20
7.7221000000000002
 30
0.0
 10
-26.138300000000001
 20
7.6294000000000004
 30
0.0
 10
-25.778100000000002
 20
7.4438000000000004
 30
0.0
 10
-25.778100000000002
 20
7.4438000000000004
 30
0.0
 10
-25.4178
 20
7.2600000000000007
 30
0.0
 10
-25.146700000000003
 20
6.9997000000000007
 30
0.0
 10
-24.964700000000001
 20
6.6649000000000003
 30
0.0
 10
-24.964700000000001
 20
6.6649000000000003
 30
0.0
 10
-24.784600000000001
 20
6.3319000000000001
 30
0.0
 10
-24.6936
 20
5.9863
 30
0.0
 10
-24.6936
 20
5.6314000000000002
 30
0.0
 10
-24.6936
 20
5.6314000000000002
 30
0.0
 10
-24.6936
 20
5.1128
 30
0.0
 10
-24.877300000000002
 20
4.6124000000000001
 30
0.0
 10
-25.2486
 20
4.1339000000000006
 30
0.0
 10
-25.2486
 20
4.1339000000000006
 30
0.0
 10
-25.476000000000003
 20
3.8355000000000001
 30
0.0
 10
-26.143800000000002
 20
3.2477
 30
0.0
 10
-27.252000000000002
 20
2.3688000000000002
 30
0.0
 10
-27.252000000000002
 20
2.3688000000000002
 30
0.0
 10
-27.7287
 20
1.9922000000000002
 30
0.0
 10
-28.083600000000001
 20
1.6828000000000001
 30
0.0
 10
-28.316400000000002
 20
1.4408000000000001
 30
0.0
 10
-28.316400000000002
 20
1.4408000000000001
 30
0.0
 10
-28.549300000000002
 20
1.2006000000000001
 30
0.0
 10
-28.724
 20
0.9732000000000001
 30
0.0
 10
-28.840500000000002
 20
0.7585000000000001
 30
0.0
 10
-28.840500000000002
 20
0.7585000000000001
 30
0.0
 10
-28.840500000000002
 20
0.7585000000000001
 30
0.0
 10
-25.3432
 20
0.7585000000000001
 30
0.0
 10
-25.3432
 20
0.7585000000000001
 30
0.0
 10
-25.3432
 20
0.7585000000000001
 30
0.0
 10
-25.3432
 20
0.7585000000000001
 30
0.0
 10
-25.5306
 20
-0.1259
 30
0.0
 10
-25.5306
 20
-0.1259
 30
0.0
 10
-25.5306
 20
-0.1259
 30
0.0
 10
-25.5306
 20
-0.1259
 30
0.0
 10
-30.188800000000001
 20
-0.1259
 30
0.0
 10
-30.188800000000001
 20
-0.1259
 30
0.0
  0
SPLINE
  5
31
100
AcDbEntity
  8
LC-006-002-RND-0
100
AcDbSpline
210
0.0
220
0.0
230
1.0
 70
     1
 71
     3
 72
    68
 73
    64
 74
     0
 42
0.0000000001
 43
0.0000000001
 40
0.0
 40
0.0
 40
0.0
 40
0.0
 40
0.0625
 40
0.0625
 40
0.0625
 40
0.0625
 40
0.125
 40
0.125
 40
0.125
 40
0.125
 40
0.1875
 40
0.1875
 40
0.1875
 40
0.1875
 40
0.25
 40
0.25
 40
0.25
 40
0.25
 40
0.3125
 40
0.3125
 40
0.3125
 40
0.3125
 40
0.375
 40
0.375
 40
0.375
 40
0.375
 40
0.4375
 40
0.4375
 40
0.4375
 40
0.4375
 40
0.5
 40
0.5
 40
0.5
 40
0.5
 40
0.5625
 40
0.5625
 40
0.5625
 40
0.5625
 40
0.625
 40
0.625
 40
0.625
 40
0.625
 40
0.6875
 40
0.6875
 40
0.6875
 40
0.6875
 40
0.75
 40
0.75
 40
0.75
 40
0.75
 40
0.8125
 40
0.8125
 40
0.8125
 40
0.8125
 40
0.875
 40
0.875
 40
0.875
 40
0.875
 40
0.9375
 40
0.9375
 40
0.9375
 40
0.9375
 40
1.0
 40
1.0
 40
1.0
 40
1.0
 10
-22.293500000000002
 20
4.1702000000000004
 30
0.0
 10
-22.586400000000001
 20
4.3304
 30
0.0
 10
-22.8048
 20
4.5360000000000005
 30
0.0
 10
-22.950400000000002
 20
4.7871000000000006
 30
0.0
 10
-22.950400000000002
 20
4.7871000000000006
 30
0.0
 10
-23.096
 20
5.0364000000000004
 30
0.0
 10
-23.168700000000001
 20
5.3056999999999999
 30
0.0
 10
-23.168700000000001
 20
5.5950000000000006
 30
0.0
 10
-23.168700000000001
 20
5.5950000000000006
 30
0.0
 10
-23.168700000000001
 20
6.0663
 30
0.0
 10
-22.997700000000002
 20
6.5048000000000004
 30
0.0
 10
-22.657400000000003
 20
6.9051
 30
0.0
 10
-22.657400000000003
 20
6.9051
 30
0.0
 10
-22.202500000000001
 20
7.4492000000000003
 30
0.0
 10
-21.585599999999999
 20
7.7221000000000002
 30
0.0
 10
-20.806800000000003
 20
7.7221000000000002
 30
0.0
 10
-20.806800000000003
 20
7.7221000000000002
 30
0.0
 10
-20.120900000000002
 20
7.7221000000000002
 30
0.0
 10
-19.580400000000001
 20
7.5365000000000002
 30
0.0
 10
-19.185500000000001
 20
7.1690000000000005
 30
0.0
 10
-19.185500000000001
 20
7.1690000000000005
 30
0.0
 10
-18.7925
 20
6.8014000000000001
 30
0.0
 10
-18.594200000000001
 20
6.3520000000000003
 30
0.0
 10
-18.594200000000001
 20
5.8188000000000004
 30
0.0
 10
-18.594200000000001
 20
5.8188000000000004
 30
0.0
 10
-18.594200000000001
 20
5.4386000000000001
 30
0.0
 10
-18.701499999999999
 20
5.0946000000000007
 30
0.0
 10
-18.914400000000001
 20
4.7888999999999999
 30
0.0
 10
-18.914400000000001
 20
4.7888999999999999
 30
0.0
 10
-19.127400000000002
 20
4.4832000000000001
 30
0.0
 10
-19.4621
 20
4.2393999999999998
 30
0.0
 10
-19.917100000000001
 20
4.0593000000000004
 30
0.0
 10
-19.917100000000001
 20
4.0593000000000004
 30
0.0
 10
-19.604100000000003
 20
3.8628
 30
0.0
 10
-19.380300000000002
 20
3.6553
 30
0.0
 10
-19.2456
 20
3.4351000000000003
 30
0.0
 10
-19.2456
 20
3.4351000000000003
 30
0.0
 10
-19.071000000000002
 20
3.1476000000000002
 30
0.0
 10
-18.983599999999999
 20
2.8109999999999999
 30
0.0
 10
-18.983599999999999
 20
2.427
 30
0.0
 10
-18.983599999999999
 20
2.427
 30
0.0
 10
-18.983599999999999
 20
1.7283000000000002
 30
0.0
 10
-19.231000000000002
 20
1.1042000000000001
 30
0.0
 10
-19.727800000000002
 20
0.5564
 30
0.0
 10
-19.727800000000002
 20
0.5564
 30
0.0
 10
-20.222799999999999
 20
0.0087
 30
0.0
 10
-20.883300000000002
 20
-0.2641
 30
0.0
 10
-21.707599999999999
 20
-0.2641
 30
0.0
 10
-21.707599999999999
 20
-0.2641
 30
0.0
 10
-22.366300000000003
 20
-0.2641
 30
0.0
 10
-22.901199999999999
 20
-0.0622
 30
0.0
 10
-23.317900000000002
 20
0.3436
 30
0.0
 10
-23.317900000000002
 20
0.3436
 30
0.0
 10
-23.732800000000001
 20
0.7475000000000001
 30
0.0
 10
-23.9421
 20
1.2552000000000001
 30
0.0
 10
-23.9421
 20
1.863
 30
0.0
 10
-23.9421
 20
1.863
 30
0.0
 10
-23.9421
 20
2.4344000000000001
 30
0.0
 10
-23.794700000000002
 20
2.9257
 30
0.0
 10
-23.4999
 20
3.3369
 30
0.0
 10
-23.4999
 20
3.3369
 30
0.0
 10
-23.203300000000002
 20
3.7462
 30
0.0
 10
-22.803000000000001
 20
4.0247000000000002
 30
0.0
 10
-22.293500000000002
 20
4.1702000000000004
 30
0.0
  0
SPLINE
  5
32
100
AcDbEntity
  8
LC-006-002-RND-0
100
AcDbSpline
210
0.0
220
0.0
230
1.0
 70
     1
 71
     3
 72
    40
 73
    36
 74
     0
 42
0.0000000001
 43
0.0000000001
 40
0.0
 40
0.0
 40
0.0
 40
0.0
 40
0.1111111111111111
 40
0.1111111111111111
 40
0.1111111111111111
 40
0.1111111111111111
 40
0.2222222222222222
 40
0.2222222222222222
 40
0.2222222222222222
 40
0.2222222222222222
 40
0.3333333333333333
 40
0.3333333333333333
 40
0.3333333333333333
 40
0.3333333333333333
 40
0.4444444444444444
 40
0.4444444444444444
 40
0.4444444444444444
 40
0.4444444444444444
 40
0.5555555555555556
 40
0.5555555555555556
 40
0.5555555555555556
 40
0.5555555555555556
 40
0.6666666666666667
 40
0.6666666666666667
 40
0.6666666666666667
 40
0.6666666666666667
 40
0.7777777777777779
 40
0.7777777777777779
 40
0.7777777777777779
 40
0.7777777777777779
 40
0.8888888888888891
 40
0.8888888888888891
 40
0.8888888888888891
 40
0.8888888888888891
 40
1.0
 40
1.0
 40
1.0
 40
1.0
 10
-22.218900000000001
 20
5.5514000000000001
 30
0.0
 10
-22.218900000000001
 20
5.2183999999999999
 30
0.0
 10
-22.111499999999999
 20
4.9489999999999998
 30
0.0
 10
-21.896800000000002
 20
4.7435
 30
0.0
 10
-21.896800000000002
 20
4.7435
 30
0.0
 10
-21.682100000000002
 20
4.5396000000000001
 30
0.0
 10
-21.3855
 20
4.4377000000000004
 30
0.0
 10
-21.008800000000001
 20
4.4377000000000004
 30
0.0
 10
-21.008800000000001
 20
4.4377000000000004
 30
0.0
 10
-20.5684
 20
4.4377000000000004
 30
0.0
 10
-20.210000000000001
 20
4.5724
 30
0.0
 10
-19.935300000000002
 20
4.8399000000000001
 30
0.0
 10
-19.935300000000002
 20
4.8399000000000001
 30
0.0
 10
-19.660500000000003
 20
5.1073000000000004
 30
0.0
 10
-19.522200000000002
 20
5.4386000000000001
 30
0.0
 10
-19.522200000000002
 20
5.8280000000000003
 30
0.0
 10
-19.522200000000002
 20
5.8280000000000003
 30
0.0
 10
-19.522200000000002
 20
6.1591000000000005
 30
0.0
 10
-19.6296
 20
6.4283999999999999
 30
0.0
 10
-19.8443
 20
6.6359000000000004
 30
0.0
 10
-19.8443
 20
6.6359000000000004
 30
0.0
 10
-20.059000000000001
 20
6.8451000000000004
 30
0.0
 10
-20.355600000000003
 20
6.9488000000000003
 30
0.0
 10
-20.732200000000002
 20
6.9488000000000003
 30
0.0
 10
-20.732200000000002
 20
6.9488000000000003
 30
0.0
 10
-21.016100000000002
 20
6.9488000000000003
 30
0.0
 10
-21.278200000000002
 20
6.8833000000000002
 30
0.0
 10
-21.516500000000001
 20
6.7504
 30
0.0
 10
-21.516500000000001
 20
6.7504
 30
0.0
 10
-21.754799999999999
 20
6.6195000000000004
 30
0.0
 10
-21.9314
 20
6.4411000000000005
 30
0.0
 10
-22.045999999999999
 20
6.2155000000000005
 30
0.0
 10
-22.045999999999999
 20
6.2155000000000005
 30
0.0
 10
-22.162500000000001
 20
5.9899000000000004
 30
0.0
 10
-22.218900000000001
 20
5.7678000000000003
 30
0.0
 10
-22.218900000000001
 20
5.5514000000000001
 30
0.0
  0
SPLINE
  5
33
100
AcDbEntity
  8
LC-006-002-RND-0
100
AcDbSpline
210
0.0
220
0.0
230
1.0
 70
     1
 71
     3
 72
    40
 73
    36
 74
     0
 42
0.0000000001
 43
0.0000000001
 40
0.0
 40
0.0
 40
0.0
 40
0.0
 40
0.1111111111111111
 40
0.1111111111111111
 40
0.1111111111111111
 40
0.1111111111111111
 40
0.2222222222222222
 40
0.2222222222222222
 40
0.2222222222222222
 40
0.2222222222222222
 40
0.3333333333333333
 40
0.3333333333333333
 40
0.3333333333333333
 40
0.3333333333333333
 40
0.4444444444444444
 40
0.4444444444444444
 40
0.4444444444444444
 40
0.4444444444444444
 40
0.5555555555555556
 40
0.5555555555555556
 40
0.5555555555555556
 40
0.5555555555555556
 40
0.6666666666666667
 40
0.6666666666666667
 40
0.6666666666666667
 40
0.6666666666666667
 40
0.7777777777777779
 40
0.7777777777777779
 40
0.7777777777777779
 40
0.7777777777777779
 40
0.8888888888888891
 40
0.8888888888888891
 40
0.8888888888888891
 40
0.8888888888888891
 40
1.0
 40
1.0
 40
1.0
 40
1.0
 10
-22.972200000000001
 20
1.7829000000000002
 30
0.0
 10
-22.972200000000001
 20
1.5663
 30
0.0
 10
-22.9194
 20
1.3571
 30
0.0
 10
-22.8139
 20
1.1588000000000001
 30
0.0
 10
-22.8139
 20
1.1588000000000001
 30
0.0
 10
-22.7102
 20
0.9605
 30
0.0
 10
-22.550000000000001
 20
0.8021
 30
0.0
 10
-22.3371
 20
0.6839000000000001
 30
0.0
 10
-22.3371
 20
0.6839000000000001
 30
0.0
 10
-22.124300000000002
 20
0.5674
 30
0.0
 10
-21.880400000000002
 20
0.5092
 30
0.0
 10
-21.607500000000002
 20
0.5092
 30
0.0
 10
-21.607500000000002
 20
0.5092
 30
0.0
 10
-21.083400000000001
 20
0.5092
 30
0.0
 10
-20.661300000000001
 20
0.753
 30
0.0
 10
-20.337400000000002
 20
1.2443
 30
0.0
 10
-20.337400000000002
 20
1.2443
 30
0.0
 10
-20.082599999999999
 20
1.6282000000000001
 30
0.0
 10
-19.953400000000002
 20
2.0413000000000001
 30
0.0
 10
-19.953400000000002
 20
2.4871000000000003
 30
0.0
 10
-19.953400000000002
 20
2.4871000000000003
 30
0.0
 10
-19.953400000000002
 20
2.8492000000000002
 30
0.0
 10
-20.0717
 20
3.1457999999999999
 30
0.0
 10
-20.308300000000003
 20
3.3769
 30
0.0
 10
-20.308300000000003
 20
3.3769
 30
0.0
 10
-20.544900000000002
 20
3.6080000000000001
 30
0.0
 10
-20.854200000000002
 20
3.7226000000000004
 30
0.0
 10
-21.238099999999999
 20
3.7226000000000004
 30
0.0
 10
-21.238099999999999
 20
3.7226000000000004
 30
0.0
 10
-21.722100000000001
 20
3.7226000000000004
 30
0.0
 10
-22.131600000000002
 20
3.5443000000000002
 30
0.0
 10
-22.4682
 20
3.1840000000000002
 30
0.0
 10
-22.4682
 20
3.1840000000000002
 30
0.0
 10
-22.803000000000001
 20
2.8255000000000003
 30
0.0
 10
-22.972200000000001
 20
2.3579000000000003
 30
0.0
 10
-22.972200000000001
 20
1.7829000000000002
 30
0.0
  0
SPLINE
  5
34
100
AcDbEntity
  8
LC-006-002-RND-0
100
AcDbSpline
210
0.0
220
0.0
230
1.0
 70
     1
 71
     3
 72
    36
 73
    32
 74
     0
 42
0.0000000001
 43
0.0000000001
 40
0.0
 40
0.0
 40
0.0
 40
0.0
 40
0.125
 40
0.125
 40
0.125
 40
0.125
 40
0.25
 40
0.25
 40
0.25
 40
0.25
 40
0.375
 40
0.375
 40
0.375
 40
0.375
 40
0.5
 40
0.5
 40
0.5
 40
0.5
 40
0.625
 40
0.625
 40
0.625
 40
0.625
 40
0.75
 40
0.75
 40
0.75
 40
0.75
 40
0.875
 40
0.875
 40
0.875
 40
0.875
 40
1.0
 40
1.0
 40
1.0
 40
1.0
 10
-18.093800000000002
 20
-0.1259
 30
0.0
 10
-18.093800000000002
 20
-0.1259
 30
0.0
 10
-17.8645
 20
0.9677
 30
0.0
 10
-17.8645
 20
0.9677
 30
0.0
 10
-17.8645
 20
0.9677
 30
0.0
 10
-17.8645
 20
0.9677
 30
0.0
 10
-16.765499999999999
 20
0.9677
 30
0.0
 10
-16.765499999999999
 20
0.9677
 30
0.0
 10
-16.765499999999999
 20
0.9677
 30
0.0
 10
-16.765499999999999
 20
0.9677
 30
0.0
 10
-16.963799999999999
 20
0.0124
 30
0.0
 10
-16.963799999999999
 20
0.0124
 30
0.0
 10
-16.963799999999999
 20
0.0124
 30
0.0
 10
-17.0839
 20
-0.5589000000000001
 30
0.0
 10
-17.2713
 20
-0.9793000000000001
 30
0.0
 10
-17.5261
 20
-1.2450000000000001
 30
0.0
 10
-17.5261
 20
-1.2450000000000001
 30
0.0
 10
-17.779
 20
-1.5124
 30
0.0
 10
-18.0792
 20
-1.6653
 30
0.0
 10
-18.423100000000002
 20
-1.7035
 30
0.0
 10
-18.423100000000002
 20
-1.7035
 30
0.0
 10
-18.423100000000002
 20
-1.7035
 30
0.0
 10
-18.334
 20
-1.2832000000000001
 30
0.0
 10
-18.334
 20
-1.2832000000000001
 30
0.0
 10
-18.334
 20
-1.2832000000000001
 30
0.0
 10
-17.91
 20
-1.1649
 30
0.0
 10
-17.631600000000002
 20
-0.7791
 30
0.0
 10
-17.4969
 20
-0.1259
 30
0.0
 10
-17.4969
 20
-0.1259
 30
0.0
 10
-17.4969
 20
-0.1259
 30
0.0
 10
-18.093800000000002
 20
-0.1259
 30
0.0
 10
-18.093800000000002
 20
-0.1259
 30
0.0
  0
SPLINE
  5
35
100
AcDbEntity
  8
LC-006-002-RND-0
100
AcDbSpline
210
0.0
220
0.0
230
1.0
 70
     1
 71
     3
 72
   120
 73
   116
 74
     0
 42
0.0000000001
 43
0.0000000001
 40
0.0
 40
0.0
 40
0.0
 40
0.0
 40
0.0344827586206897
 40
0.0344827586206897
 40
0.0344827586206897
 40
0.0344827586206897
 40
0.0689655172413793
 40
0.0689655172413793
 40
0.0689655172413793
 40
0.0689655172413793
 40
0.103448275862069
 40
0.103448275862069
 40
0.103448275862069
 40
0.103448275862069
 40
0.1379310344827586
 40
0.1379310344827586
 40
0.1379310344827586
 40
0.1379310344827586
 40
0.1724137931034483
 40
0.1724137931034483
 40
0.1724137931034483
 40
0.1724137931034483
 40
0.206896551724138
 40
0.206896551724138
 40
0.206896551724138
 40
0.206896551724138
 40
0.2413793103448276
 40
0.2413793103448276
 40
0.2413793103448276
 40
0.2413793103448276
 40
0.2758620689655173
 40
0.2758620689655173
 40
0.2758620689655173
 40
0.2758620689655173
 40
0.310344827586207
 40
0.310344827586207
 40
0.310344827586207
 40
0.310344827586207
 40
0.3448275862068966
 40
0.3448275862068966
 40
0.3448275862068966
 40
0.3448275862068966
 40
0.3793103448275863
 40
0.3793103448275863
 40
0.3793103448275863
 40
0.3793103448275863
 40
0.413793103448276
 40
0.413793103448276
 40
0.413793103448276
 40
0.413793103448276
 40
0.4482758620689656
 40
0.4482758620689656
 40
0.4482758620689656
 40
0.4482758620689656
 40
0.4827586206896553
 40
0.4827586206896553
 40
0.4827586206896553
 40
0.4827586206896553
 40
0.517241379310345
 40
0.517241379310345
 40
0.517241379310345
 40
0.517241379310345
 40
0.5517241379310346
 40
0.5517241379310346
 40
0.5517241379310346
 40
0.5517241379310346
 40
0.5862068965517242
 40
0.5862068965517242
 40
0.5862068965517242
 40
0.5862068965517242
 40
0.6206896551724138
 40
0.6206896551724138
 40
0.6206896551724138
 40
0.6206896551724138
 40
0.6551724137931034
 40
0.6551724137931034
 40
0.6551724137931034
 40
0.6551724137931034
 40
0.689655172413793
 40
0.689655172413793
 40
0.689655172413793
 40
0.689655172413793
 40
0.7241379310344827
 40
0.7241379310344827
 40
0.7241379310344827
 40
0.7241379310344827
 40
0.7586206896551723
 40
0.7586206896551723
 40
0.7586206896551723
 40
0.7586206896551723
 40
0.7931034482758619
 40
0.7931034482758619
 40
0.7931034482758619
 40
0.7931034482758619
 40
0.8275862068965515
 40
0.8275862068965515
 40
0.8275862068965515
 40
0.8275862068965515
 40
0.8620689655172411
 40
0.8620689655172411
 40
0.8620689655172411
 40
0.8620689655172411
 40
0.8965517241379307
 40
0.8965517241379307
 40
0.8965517241379307
 40
0.8965517241379307
 40
0.9310344827586203
 40
0.9310344827586203
 40
0.9310344827586203
 40
0.9310344827586203
 40
0.9655172413793099
 40
0.9655172413793099
 40
0.9655172413793099
 40
0.9655172413793099
 40
1.0
 40
1.0
 40
1.0
 40
1.0
 10
-14.8895
 20
2.1086
 30
0.0
 10
-14.8895
 20
2.1086
 30
0.0
 10
-13.908700000000001
 20
2.2033
 30
0.0
 10
-13.908700000000001
 20
2.2033
 30
0.0
 10
-13.908700000000001
 20
2.2033
 30
0.0
 10
-13.915900000000001
 20
2.0649000000000002
 30
0.0
 10
-13.919600000000001
 20
1.9812000000000001
 30
0.0
 10
-13.919600000000001
 20
1.9540000000000002
 30
0.0
 10
-13.919600000000001
 20
1.9540000000000002
 30
0.0
 10
-13.919600000000001
 20
1.7192000000000001
 30
0.0
 10
-13.859500000000001
 20
1.4826000000000001
 30
0.0
 10
-13.741300000000001
 20
1.2443
 30
0.0
 10
-13.741300000000001
 20
1.2443
 30
0.0
 10
-13.6212
 20
1.006
 30
0.0
 10
-13.459200000000001
 20
0.8240000000000001
 30
0.0
 10
-13.2554
 20
0.6984
 30
0.0
 10
-13.2554
 20
0.6984
 30
0.0
 10
-13.051600000000001
 20
0.5711000000000001
 30
0.0
 10
-12.835100000000001
 20
0.5092
 30
0.0
 10
-12.607700000000001
 20
0.5092
 30
0.0
 10
-12.607700000000001
 20
0.5092
 30
0.0
 10
-12.3093
 20
0.5092
 30
0.0
 10
-12.0054
 20
0.6111
 30
0.0
 10
-11.696
 20
0.8185
 30
0.0
 10
-11.696
 20
0.8185
 30
0.0
 10
-11.386700000000001
 20
1.0241
 30
0.0
 10
-11.137400000000001
 20
1.3243
 30
0.0
 10
-10.9445
 20
1.7192000000000001
 30
0.0
 10
-10.9445
 20
1.7192000000000001
 30
0.0
 10
-10.753400000000001
 20
2.1123000000000003
 30
0.0
 10
-10.657
 20
2.5035000000000003
 30
0.0
 10
-10.657
 20
2.8911000000000002
 30
0.0
 10
-10.657
 20
2.8911000000000002
 30
0.0
 10
-10.657
 20
3.3278000000000003
 30
0.0
 10
-10.786200000000001
 20
3.6789000000000001
 30
0.0
 10
-11.0428
 20
3.9410000000000003
 30
0.0
 10
-11.0428
 20
3.9410000000000003
 30
0.0
 10
-11.3011
 20
4.2048000000000005
 30
0.0
 10
-11.6396
 20
4.3357999999999999
 30
0.0
 10
-12.058100000000001
 20
4.3357999999999999
 30
0.0
 10
-12.058100000000001
 20
4.3357999999999999
 30
0.0
 10
-12.340100000000001
 20
4.3357999999999999
 30
0.0
 10
-12.6058
 20
4.2685000000000004
 30
0.0
 10
-12.8551
 20
4.1339000000000006
 30
0.0
 10
-12.8551
 20
4.1339000000000006
 30
0.0
 10
-13.106300000000001
 20
3.9992000000000001
 30
0.0
 10
-13.3391
 20
3.7954000000000003
 30
0.0
 10
-13.557500000000001
 20
3.5261
 30
0.0
 10
-13.557500000000001
 20
3.5261
 30
0.0
 10
-13.557500000000001
 20
3.5261
 30
0.0
 10
-14.4
 20
3.5843000000000003
 30
0.0
 10
-14.4
 20
3.5843000000000003
 30
0.0
 10
-14.4
 20
3.5843000000000003
 30
0.0
 10
-14.4
 20
3.5843000000000003
 30
0.0
 10
-13.2209
 20
7.5820000000000007
 30
0.0
 10
-13.2209
 20
7.5820000000000007
 30
0.0
 10
-13.2209
 20
7.5820000000000007
 30
0.0
 10
-13.2209
 20
7.5820000000000007
 30
0.0
 10
-9.4032999999999998
 20
7.5820000000000007
 30
0.0
 10
-9.4032999999999998
 20
7.5820000000000007
 30
0.0
 10
-9.4032999999999998
 20
7.5820000000000007
 30
0.0
 10
-9.4032999999999998
 20
7.5820000000000007
 30
0.0
 10
-9.5907
 20
6.6977000000000002
 30
0.0
 10
-9.5907
 20
6.6977000000000002
 30
0.0
 10
-9.5907
 20
6.6977000000000002
 30
0.0
 10
-9.5907
 20
6.6977000000000002
 30
0.0
 10
-12.5603
 20
6.6977000000000002
 30
0.0
 10
-12.5603
 20
6.6977000000000002
 30
0.0
 10
-12.5603
 20
6.6977000000000002
 30
0.0
 10
-12.5603
 20
6.6977000000000002
 30
0.0
 10
-13.1463
 20
4.7088999999999999
 30
0.0
 10
-13.1463
 20
4.7088999999999999
 30
0.0
 10
-13.1463
 20
4.7088999999999999
 30
0.0
 10
-12.9261
 20
4.8690000000000007
 30
0.0
 10
-12.698600000000001
 20
4.9891000000000005
 30
0.0
 10
-12.467600000000001
 20
5.0691000000000006
 30
0.0
 10
-12.467600000000001
 20
5.0691000000000006
 30
0.0
 10
-12.2346
 20
5.1492000000000004
 30
0.0
 10
-11.9945
 20
5.1893000000000002
 30
0.0
 10
-11.748800000000001
 20
5.1893000000000002
 30
0.0
 10
-11.748800000000001
 20
5.1893000000000002
 30
0.0
 10
-11.152000000000001
 20
5.1893000000000002
 30
0.0
 10
-10.6625
 20
4.9927999999999999
 30
0.0
 10
-10.278500000000001
 20
4.5979000000000001
 30
0.0
 10
-10.278500000000001
 20
4.5979000000000001
 30
0.0
 10
-9.8946000000000005
 20
4.2030000000000003
 30
0.0
 10
-9.7018000000000004
 20
3.6626000000000003
 30
0.0
 10
-9.7018000000000004
 20
2.9766000000000004
 30
0.0
 10
-9.7018000000000004
 20
2.9766000000000004
 30
0.0
 10
-9.7018000000000004
 20
2.3761000000000001
 30
0.0
 10
-9.8345000000000002
 20
1.8229000000000002
 30
0.0
 10
-10.0966
 20
1.3153000000000001
 30
0.0
 10
-10.0966
 20
1.3153000000000001
 30
0.0
 10
-10.3604
 20
0.8094
 30
0.0
 10
-10.7225
 20
0.42
 30
0.0
 10
-11.181100000000001
 20
0.1489
 30
0.0
 10
-11.181100000000001
 20
0.1489
 30
0.0
 10
-11.641400000000001
 20
-0.124
 30
0.0
 10
-12.138200000000001
 20
-0.2587
 30
0.0
 10
-12.6714
 20
-0.2587
 30
0.0
 10
-12.6714
 20
-0.2587
 30
0.0
 10
-13.119
 20
-0.2587
 30
0.0
 10
-13.515600000000001
 20
-0.1586
 30
0.0
 10
-13.861400000000001
 20
0.0452
 30
0.0
 10
-13.861400000000001
 20
0.0452
 30
0.0
 10
-14.205300000000001
 20
0.2471
 30
0.0
 10
-14.463600000000001
 20
0.5256000000000001
 30
0.0
 10
-14.636600000000001
 20
0.8822000000000001
 30
0.0
 10
-14.636600000000001
 20
0.8822000000000001
 30
0.0
 10
-14.8094
 20
1.2370000000000001
 30
0.0
 10
-14.894900000000002
 20
1.5918000000000001
 30
0.0
 10
-14.894900000000002
 20
1.9485000000000001
 30
0.0
 10
-14.894900000000002
 20
1.9485000000000001
 30
0.0
 10
-14.894900000000002
 20
1.9831000000000001
 30
0.0
 10
-14.8931
 20
2.0358000000000001
 30
0.0
 10
-14.8895
 20
2.1086
 30
0.0
  0
SPLINE
  5
36
100
AcDbEntity
  8
LC-006-002-RND-0
370
    35
100
AcDbSpline
210
0.0
220
0.0
230
1.0
 70
     0
 71
     3
 72
     8
 73
     4
 74
     0
 42
0.0000000001
 43
0.0000000001
 40
0.0
 40
0.0
 40
0.0
 40
0.0
 40
1.0
 40
1.0
 40
1.0
 40
1.0
 10
2.6099000000000001
 20
32.841999999999999
 30
0.0
 10
2.6099000000000001
 20
32.841999999999999
 30
0.0
 10
2.6099000000000001
 20
32.456099999999999
 30
0.0
 10
2.6099000000000001
 20
32.456099999999999
 30
0.0
  0
SPLINE
  5
37
100
AcDbEntity
  8
LC-006-002-RND-0
370
    35
100
AcDbSpline
210
0.0
220
0.0
230
1.0
 70
     0
 71
     3
 72
     8
 73
     4
 74
     0
 42
0.0000000001
 43
0.0000000001
 40
0.0
 40
0.0
 40
0.0
 40
0.0
 40
1.0
 40
1.0
 40
1.0
 40
1.0
 10
-52.062800000000003
 20
33.035000000000004
 30
0.0
 10
-52.062800000000003
 20
33.035000000000004
 30
0.0
 10
0.2901
 20
33.035000000000004
 30
0.0
 10
0.2901
 20
33.035000000000004
 30
0.0
  0
SPLINE
  5
38
100
AcDbEntity
  8
LC-006-002-RND-0
370
    35
100
AcDbSpline
210
0.0
220
0.0
230
1.0
 70
     0
 71
     3
 72
     8
 73
     4
 74
     0
 42
0.0000000001
 43
0.0000000001
 40
0.0
 40
0.0
 40
0.0
 40
0.0
 40
1.0
 40
1.0
 40
1.0
 40
1.0
 10
2.6099000000000001
 20
32.456099999999999
 30
0.0
 10
2.6099000000000001
 20
32.456099999999999
 30
0.0
 10
2.2239
 20
32.456099999999999
 30
0.0
 10
2.2239
 20
32.456099999999999
 30
0.0
  0
SPLINE
  5
39
100
AcDbEntity
  8
LC-006-002-RND-0
370
    35
100
AcDbSpline
210
0.0
220
0.0
230
1.0
 70
     0
 71
     3
 72
     8
 73
     4
 74
     0
 42
0.0000000001
 43
0.0000000001
 40
0.0
 40
0.0
 40
0.0
 40
0.0
 40
1.0
 40
1.0
 40
1.0
 40
1.0
 10
2.6099000000000001
 20
32.841999999999999
 30
0.0
 10
2.6099000000000001
 20
32.841999999999999
 30
0.0
 10
2.2239
 20
32.841999999999999
 30
0.0
 10
2.2239
 20
32.841999999999999
 30
0.0
  0
SPLINE
  5
3A
100
AcDbEntity
  8
LC-006-002-RND-0
370
    35
100
AcDbSpline
210
0.0
220
0.0
230
1.0
 70
     0
 71
     3
 72
     8
 73
     4
 74
     0
 42
0.0000000001
 43
0.0000000001
 40
0.0
 40
0.0
 40
0.0
 40
0.0
 40
1.0
 40
1.0
 40
1.0
 40
1.0
 10
2.0308999999999999
 20
33.0349
 30
0.0
 10
2.0308999999999999
 20
32.928400000000003
 30
0.0
 10
2.1173999999999999
 20
32.841900000000003
 30
0.0
 10
2.2239
 20
32.841900000000003
 30
0.0
  0
SPLINE
  5
3B
100
AcDbEntity
  8
LC-006-002-RND-0
370
    35
100
AcDbSpline
210
0.0
220
0.0
230
1.0
 70
     0
 71
     3
 72
     8
 73
     4
 74
     0
 42
0.0000000001
 43
0.0000000001
 40
0.0
 40
0.0
 40
0.0
 40
0.0
 40
1.0
 40
1.0
 40
1.0
 40
1.0
 10
1.6449
 20
33.0349
 30
0.0
 10
1.6449
 20
32.715200000000003
 30
0.0
 10
1.9042000000000001
 20
32.4559
 30
0.0
 10
2.2239
 20
32.4559
 30
0.0
  0
SPLINE
  5
3C
100
AcDbEntity
  8
LC-006-002-RND-0
370
    35
100
AcDbSpline
210
0.0
220
0.0
230
1.0
 70
     0
 71
     3
 72
     8
 73
     4
 74
     0
 42
0.0000000001
 43
0.0000000001
 40
0.0
 40
0.0
 40
0.0
 40
0.0
 40
1.0
 40
1.0
 40
1.0
 40
1.0
 10
-51.320100000000004
 20
25.508100000000002
 30
0.0
 10
-51.320100000000004
 20
25.508100000000002
 30
0.0
 10
-4.3116000000000003
 20
25.508100000000002
 30
0.0
 10
-4.3116000000000003
 20
25.508100000000002
 30
0.0
  0
SPLINE
  5
3D
100
AcDbEntity
  8
LC-006-002-RND-0
370
    35
100
AcDbSpline
210
0.0
220
0.0
230
1.0
 70
     0
 71
     3
 72
     8
 73
     4
 74
     0
 42
0.0000000001
 43
0.0000000001
 40
0.0
 40
0.0
 40
0.0
 40
0.0
 40
1.0
 40
1.0
 40
1.0
 40
1.0
 10
1.0464
 20
35.158000000000001
 30
0.0
 10
1.0464
 20
35.158000000000001
 30
0.0
 10
-57.046400000000006
 20
35.158000000000001
 30
0.0
 10
-57.046400000000006
 20
35.158000000000001
 30
0.0
  0
SPLINE
  5
3E
100
AcDbEntity
  8
LC-006-002-RND-0
370
    35
100
AcDbSpline
210
0.0
220
0.0
230
1.0
 70
     1
 71
     3
 72
    20
 73
    16
 74
     0
 42
0.0000000001
 43
0.0000000001
 40
0.0
 40
0.0
 40
0.0
 40
0.0
 40
0.25
 40
0.25
 40
0.25
 40
0.25
 40
0.5
 40
0.5
 40
0.5
 40
0.5
 40
0.75
 40
0.75
 40
0.75
 40
0.75
 40
1.0
 40
1.0
 40
1.0
 40
1.0
 10
89.389899999999997
 20
30.333100000000002
 30
0.0
 10
89.389899999999997
 20
43.177199999999999
 30
0.0
 10
78.97760000000001
 20
53.589400000000005
 30
0.0
 10
66.133499999999998
 20
53.589400000000005
 30
0.0
 10
66.133499999999998
 20
53.589400000000005
 30
0.0
 10
53.289300000000004
 20
53.589400000000005
 30
0.0
 10
42.877000000000002
 20
43.177199999999999
 30
0.0
 10
42.877000000000002
 20
30.333100000000002
 30
0.0
 10
42.877000000000002
 20
30.333100000000002
 30
0.0
 10
42.877000000000002
 20
17.488900000000001
 30
0.0
 10
53.289300000000004
 20
7.0767000000000007
 30
0.0
 10
66.133499999999998
 20
7.0767000000000007
 30
0.0
 10
66.133499999999998
 20
7.0767000000000007
 30
0.0
 10
78.97760000000001
 20
7.0767000000000007
 30
0.0
 10
89.389899999999997
 20
17.488900000000001
 30
0.0
 10
89.389899999999997
 20
30.333100000000002
 30
0.0
  0
SPLINE
  5
3F
100
AcDbEntity
  8
LC-006-002-RND-0
370
    35
100
AcDbSpline
210
0.0
220
0.0
230
1.0
 70
     0
 71
     3
 72
     8
 73
     4
 74
     0
 42
0.0000000001
 43
0.0000000001
 40
0.0
 40
0.0
 40
0.0
 40
0.0
 40
1.0
 40
1.0
 40
1.0
 40
1.0
 10
-4.0874000000000006
 20
32.649000000000001
 30
0.0
 10
-4.0874000000000006
 20
32.649000000000001
 30
0.0
 10
0.0815
 20
32.649000000000001
 30
0.0
 10
0.0815
 20
32.649000000000001
 30
0.0
  0
SPLINE
  5
40
100
AcDbEntity
  8
LC-006-002-RND-0
370
    20
  6
New Line1
100
AcDbSpline
210
0.0
220
0.0
230
1.0
 70
     0
 71
     3
 72
     8
 73
     4
 74
     0
 42
0.0000000001
 43
0.0000000001
 40
0.0
 40
0.0
 40
0.0
 40
0.0
 40
1.0
 40
1.0
 40
1.0
 40
1.0
 10
-28.0
 20
35.158000000000001
 30
0.0
 10
-28.0
 20
35.158000000000001
 30
0.0
 10
-28.0
 20
15.279200000000001
 30
0.0
 10
-28.0
 20
15.279200000000001
 30
0.0
  0
SPLINE
  5
42
100
AcDbEntity
  8
LC-006-002-RND-0
370
    35
100
AcDbSpline
210
0.0
220
0.0
230
1.0
 70
     0
 71
     3
 72
     8
 73
     4
 74
     0
 42
0.0000000001
 43
0.0000000001
 40
0.0
 40
0.0
 40
0.0
 40
0.0
 40
1.0
 40
1.0
 40
1.0
 40
1.0
 10
-58.570900000000002
 20
32.841999999999999
 30
0.0
 10
-58.570900000000002
 20
32.841999999999999
 30
0.0
 10
-58.570900000000002
 20
32.456099999999999
 30
0.0
 10
-58.570900000000002
 20
32.456099999999999
 30
0.0
  0
SPLINE
  5
43
100
AcDbEntity
  8
LC-006-002-RND-0
370
    35
100
AcDbSpline
210
0.0
220
0.0
230
1.0
 70
     0
 71
     3
 72
     8
 73
     4
 74
     0
 42
0.0000000001
 43
0.0000000001
 40
0.0
 40
0.0
 40
0.0
 40
0.0
 40
1.0
 40
1.0
 40
1.0
 40
1.0
 10
-51.688400000000001
 20
25.508100000000002
 30
0.0
 10
-51.688400000000001
 20
25.508100000000002
 30
0.0
 10
-51.300600000000003
 20
25.508100000000002
 30
0.0
 10
-51.300600000000003
 20
25.508100000000002
 30
0.0
  0
SPLINE
  5
44
100
AcDbEntity
  8
LC-006-002-RND-0
370
    35
100
AcDbSpline
210
0.0
220
0.0
230
1.0
 70
     0
 71
     3
 72
     8
 73
     4
 74
     0
 42
0.0000000001
 43
0.0000000001
 40
0.0
 40
0.0
 40
0.0
 40
0.0
 40
1.0
 40
1.0
 40
1.0
 40
1.0
 10
-53.039700000000003
 20
32.649000000000001
 30
0.0
 10
-53.039700000000003
 20
32.649000000000001
 30
0.0
 10
-53.039700000000003
 20
16.051200000000001
 30
0.0
 10
-53.039700000000003
 20
16.051200000000001
 30
0.0
  0
SPLINE
  5
45
100
AcDbEntity
  8
LC-006-002-RND-0
370
    35
100
AcDbSpline
210
0.0
220
0.0
230
1.0
 70
     0
 71
     3
 72
     8
 73
     4
 74
     0
 42
0.0000000001
 43
0.0000000001
 40
0.0
 40
0.0
 40
0.0
 40
0.0
 40
1.0
 40
1.0
 40
1.0
 40
1.0
 10
-51.881700000000002
 20
28.789200000000001
 30
0.0
 10
-51.881700000000002
 20
28.789200000000001
 30
0.0
 10
-52.152000000000001
 20
29.561200000000003
 30
0.0
 10
-52.152000000000001
 20
29.561200000000003
 30
0.0
  0
SPLINE
  5
46
100
AcDbEntity
  8
LC-006-002-RND-0
370
    35
100
AcDbSpline
210
0.0
220
0.0
230
1.0
 70
     0
 71
     3
 72
     8
 73
     4
 74
     0
 42
0.0000000001
 43
0.0000000001
 40
0.0
 40
0.0
 40
0.0
 40
0.0
 40
1.0
 40
1.0
 40
1.0
 40
1.0
 10
-2.9601999999999999
 20
32.649000000000001
 30
0.0
 10
-2.9601999999999999
 20
32.649000000000001
 30
0.0
 10
-2.9601999999999999
 20
16.051200000000001
 30
0.0
 10
-2.9601999999999999
 20
16.051200000000001
 30
0.0
  0
SPLINE
  5
47
100
AcDbEntity
  8
LC-006-002-RND-0
370
    35
100
AcDbSpline
210
0.0
220
0.0
230
1.0
 70
     0
 71
     3
 72
     8
 73
     4
 74
     0
 42
0.0000000001
 43
0.0000000001
 40
0.0
 40
0.0
 40
0.0
 40
0.0
 40
1.0
 40
1.0
 40
1.0
 40
1.0
 10
-3.8481000000000001
 20
31.761200000000002
 30
0.0
 10
-3.8481000000000001
 20
31.761200000000002
 30
0.0
 10
-3.8481000000000001
 20
15.279200000000001
 30
0.0
 10
-3.8481000000000001
 20
15.279200000000001
 30
0.0
  0
SPLINE
  5
48
100
AcDbEntity
  8
LC-006-002-RND-0
370
    35
100
AcDbSpline
210
0.0
220
0.0
230
1.0
 70
     0
 71
     3
 72
     8
 73
     4
 74
     0
 42
0.0000000001
 43
0.0000000001
 40
0.0
 40
0.0
 40
0.0
 40
0.0
 40
1.0
 40
1.0
 40
1.0
 40
1.0
 10
-2.9601999999999999
 20
16.051200000000001
 30
0.0
 10
-2.9601999999999999
 20
16.051200000000001
 30
0.0
 10
-3.1672000000000002
 20
15.279200000000001
 30
0.0
 10
-3.1672000000000002
 20
15.279200000000001
 30
0.0
  0
SPLINE
  5
49
100
AcDbEntity
  8
LC-006-002-RND-0
370
    35
100
AcDbSpline
210
0.0
220
0.0
230
1.0
 70
     0
 71
     3
 72
     8
 73
     4
 74
     0
 42
0.0000000001
 43
0.0000000001
 40
0.0
 40
0.0
 40
0.0
 40
0.0
 40
1.0
 40
1.0
 40
1.0
 40
1.0
 10
2.0114000000000001
 20
34.386000000000003
 30
0.0
 10
2.0114000000000001
 20
34.386000000000003
 30
0.0
 10
2.0308999999999999
 20
33.035000000000004
 30
0.0
 10
2.0308999999999999
 20
33.035000000000004
 30
0.0
  0
SPLINE
  5
4A
100
AcDbEntity
  8
LC-006-002-RND-0
370
    35
100
AcDbSpline
210
0.0
220
0.0
230
1.0
 70
     0
 71
     3
 72
     8
 73
     4
 74
     0
 42
0.0000000001
 43
0.0000000001
 40
0.0
 40
0.0
 40
0.0
 40
0.0
 40
1.0
 40
1.0
 40
1.0
 40
1.0
 10
1.6254000000000002
 20
34.386000000000003
 30
0.0
 10
1.6254000000000002
 20
34.386000000000003
 30
0.0
 10
1.6449
 20
32.8748
 30
0.0
 10
1.6449
 20
32.8748
 30
0.0
  0
SPLINE
  5
4B
100
AcDbEntity
  8
LC-006-002-RND-0
370
    35
100
AcDbSpline
210
0.0
220
0.0
230
1.0
 70
     0
 71
     3
 72
     8
 73
     4
 74
     0
 42
0.0000000001
 43
0.0000000001
 40
0.0
 40
0.0
 40
0.0
 40
0.0
 40
1.0
 40
1.0
 40
1.0
 40
1.0
 10
-2.9601999999999999
 20
32.649000000000001
 30
0.0
 10
-3.4506000000000001
 20
32.649000000000001
 30
0.0
 10
-3.8481000000000001
 20
32.251600000000003
 30
0.0
 10
-3.8481000000000001
 20
31.761200000000002
 30
0.0
  0
SPLINE
  5
4C
100
AcDbEntity
  8
LC-006-002-RND-0
370
    35
100
AcDbSpline
210
0.0
220
0.0
230
1.0
 70
     0
 71
     3
 72
     8
 73
     4
 74
     0
 42
0.0000000001
 43
0.0000000001
 40
0.0
 40
0.0
 40
0.0
 40
0.0
 40
1.0
 40
1.0
 40
1.0
 40
1.0
 10
-4.1181999999999999
 20
28.017200000000003
 30
0.0
 10
-4.1181999999999999
 20
28.017200000000003
 30
0.0
 10
-3.8481000000000001
 20
28.017200000000003
 30
0.0
 10
-3.8481000000000001
 20
28.017200000000003
 30
0.0
  0
SPLINE
  5
4D
100
AcDbEntity
  8
LC-006-002-RND-0
370
    35
100
AcDbSpline
210
0.0
220
0.0
230
1.0
 70
     0
 71
     3
 72
     8
 73
     4
 74
     0
 42
0.0000000001
 43
0.0000000001
 40
0.0
 40
0.0
 40
0.0
 40
0.0
 40
1.0
 40
1.0
 40
1.0
 40
1.0
 10
2.0114000000000001
 20
34.385899999999999
 30
0.0
 10
2.0114000000000001
 20
34.8123
 30
0.0
 10
1.6658000000000002
 20
35.157900000000005
 30
0.0
 10
1.2394000000000001
 20
35.157900000000005
 30
0.0
  0
SPLINE
  5
4E
100
AcDbEntity
  8
LC-006-002-RND-0
370
    35
100
AcDbSpline
210
0.0
220
0.0
230
1.0
 70
     0
 71
     3
 72
     8
 73
     4
 74
     0
 42
0.0000000001
 43
0.0000000001
 40
0.0
 40
0.0
 40
0.0
 40
0.0
 40
1.0
 40
1.0
 40
1.0
 40
1.0
 10
1.6254000000000002
 20
34.385899999999999
 30
0.0
 10
1.6254000000000002
 20
34.5991
 30
0.0
 10
1.4526000000000001
 20
34.771900000000002
 30
0.0
 10
1.2394000000000001
 20
34.771900000000002
 30
0.0
  0
SPLINE
  5
4F
100
AcDbEntity
  8
LC-006-002-RND-0
370
    35
100
AcDbSpline
210
0.0
220
0.0
230
1.0
 70
     0
 71
     3
 72
     8
 73
     4
 74
     0
 42
0.0000000001
 43
0.0000000001
 40
0.0
 40
0.0
 40
0.0
 40
0.0
 40
1.0
 40
1.0
 40
1.0
 40
1.0
 10
0.9983000000000001
 20
34.771999999999998
 30
0.0
 10
0.9983000000000001
 20
34.771999999999998
 30
0.0
 10
1.2394000000000001
 20
34.771999999999998
 30
0.0
 10
1.2394000000000001
 20
34.771999999999998
 30
0.0
  0
SPLINE
  5
50
100
AcDbEntity
  8
LC-006-002-RND-0
370
    35
100
AcDbSpline
210
0.0
220
0.0
230
1.0
 70
     0
 71
     3
 72
     8
 73
     4
 74
     0
 42
0.0000000001
 43
0.0000000001
 40
0.0
 40
0.0
 40
0.0
 40
0.0
 40
1.0
 40
1.0
 40
1.0
 40
1.0
 10
1.0464
 20
35.158000000000001
 30
0.0
 10
1.0464
 20
35.158000000000001
 30
0.0
 10
1.2394000000000001
 20
35.158000000000001
 30
0.0
 10
1.2394000000000001
 20
35.158000000000001
 30
0.0
  0
SPLINE
  5
51
100
AcDbEntity
  8
LC-006-002-RND-0
370
    35
100
AcDbSpline
210
0.0
220
0.0
230
1.0
 70
     0
 71
     3
 72
     8
 73
     4
 74
     0
 42
0.0000000001
 43
0.0000000001
 40
0.0
 40
0.0
 40
0.0
 40
0.0
 40
1.0
 40
1.0
 40
1.0
 40
1.0
 10
1.0464
 20
35.157900000000005
 30
0.0
 10
0.6201
 20
35.157900000000005
 30
0.0
 10
0.2745
 20
34.8123
 30
0.0
 10
0.2745
 20
34.385899999999999
 30
0.0
  0
SPLINE
  5
52
100
AcDbEntity
  8
LC-006-002-RND-0
370
    35
100
AcDbSpline
210
0.0
220
0.0
230
1.0
 70
     0
 71
     3
 72
     8
 73
     4
 74
     0
 42
0.0000000001
 43
0.0000000001
 40
0.0
 40
0.0
 40
0.0
 40
0.0
 40
1.0
 40
1.0
 40
1.0
 40
1.0
 10
1.0464
 20
34.771900000000002
 30
0.0
 10
0.8333
 20
34.771900000000002
 30
0.0
 10
0.6605000000000001
 20
34.5991
 30
0.0
 10
0.6605000000000001
 20
34.385899999999999
 30
0.0
  0
SPLINE
  5
53
100
AcDbEntity
  8
LC-006-002-RND-0
370
    35
100
AcDbSpline
210
0.0
220
0.0
230
1.0
 70
     0
 71
     3
 72
     8
 73
     4
 74
     0
 42
0.0000000001
 43
0.0000000001
 40
0.0
 40
0.0
 40
0.0
 40
0.0
 40
1.0
 40
1.0
 40
1.0
 40
1.0
 10
0.6605000000000001
 20
34.386000000000003
 30
0.0
 10
0.6605000000000001
 20
34.386000000000003
 30
0.0
 10
0.6605000000000001
 20
33.228000000000002
 30
0.0
 10
0.6605000000000001
 20
33.228000000000002
 30
0.0
  0
SPLINE
  5
54
100
AcDbEntity
  8
LC-006-002-RND-0
370
    35
100
AcDbSpline
210
0.0
220
0.0
230
1.0
 70
     0
 71
     3
 72
     8
 73
     4
 74
     0
 42
0.0000000001
 43
0.0000000001
 40
0.0
 40
0.0
 40
0.0
 40
0.0
 40
1.0
 40
1.0
 40
1.0
 40
1.0
 10
0.2745
 20
34.386000000000003
 30
0.0
 10
0.2745
 20
34.386000000000003
 30
0.0
 10
0.2745
 20
33.035000000000004
 30
0.0
 10
0.2745
 20
33.035000000000004
 30
0.0
  0
SPLINE
  5
55
100
AcDbEntity
  8
LC-006-002-RND-0
370
    35
100
AcDbSpline
210
0.0
220
0.0
230
1.0
 70
     0
 71
     3
 72
     8
 73
     4
 74
     0
 42
0.0000000001
 43
0.0000000001
 40
0.0
 40
0.0
 40
0.0
 40
0.0
 40
1.0
 40
1.0
 40
1.0
 40
1.0
 10
-4.1181999999999999
 20
28.789200000000001
 30
0.0
 10
-4.1181999999999999
 20
28.789200000000001
 30
0.0
 10
-4.1181999999999999
 20
28.017200000000003
 30
0.0
 10
-4.1181999999999999
 20
28.017200000000003
 30
0.0
  0
SPLINE
  5
56
100
AcDbEntity
  8
LC-006-002-RND-0
370
    35
100
AcDbSpline
210
0.0
220
0.0
230
1.0
 70
     0
 71
     3
 72
     8
 73
     4
 74
     0
 42
0.0000000001
 43
0.0000000001
 40
0.0
 40
0.0
 40
0.0
 40
0.0
 40
1.0
 40
1.0
 40
1.0
 40
1.0
 10
-52.152000000000001
 20
31.761200000000002
 30
0.0
 10
-52.152000000000001
 20
31.761200000000002
 30
0.0
 10
-52.152000000000001
 20
15.279200000000001
 30
0.0
 10
-52.152000000000001
 20
15.279200000000001
 30
0.0
  0
SPLINE
  5
57
100
AcDbEntity
  8
LC-006-002-RND-0
370
    35
100
AcDbSpline
210
0.0
220
0.0
230
1.0
 70
     0
 71
     3
 72
     8
 73
     4
 74
     0
 42
0.0000000001
 43
0.0000000001
 40
0.0
 40
0.0
 40
0.0
 40
0.0
 40
1.0
 40
1.0
 40
1.0
 40
1.0
 10
-4.1181999999999999
 20
28.789200000000001
 30
0.0
 10
-4.1181999999999999
 20
28.789200000000001
 30
0.0
 10
-3.8481000000000001
 20
29.561200000000003
 30
0.0
 10
-3.8481000000000001
 20
29.561200000000003
 30
0.0
  0
SPLINE
  5
58
100
AcDbEntity
  8
LC-006-002-RND-0
370
    35
100
AcDbSpline
210
0.0
220
0.0
230
1.0
 70
     1
 71
     3
 72
    20
 73
    16
 74
     0
 42
0.0000000001
 43
0.0000000001
 40
0.0
 40
0.0
 40
0.0
 40
0.0
 40
0.25
 40
0.25
 40
0.25
 40
0.25
 40
0.5
 40
0.5
 40
0.5
 40
0.5
 40
0.75
 40
0.75
 40
0.75
 40
0.75
 40
1.0
 40
1.0
 40
1.0
 40
1.0
 10
96.048400000000001
 20
30.333100000000002
 30
0.0
 10
96.048400000000001
 20
46.854500000000002
 30
0.0
 10
82.655100000000004
 20
60.247800000000005
 30
0.0
 10
66.133499999999998
 20
60.247800000000005
 30
0.0
 10
66.133499999999998
 20
60.247800000000005
 30
0.0
 10
49.611900000000006
 20
60.247900000000001
 30
0.0
 10
36.218600000000002
 20
46.854500000000002
 30
0.0
 10
36.218600000000002
 20
30.333100000000002
 30
0.0
 10
36.218600000000002
 20
30.333100000000002
 30
0.0
 10
36.218600000000002
 20
13.8116
 30
0.0
 10
49.611900000000006
 20
0.4183
 30
0.0
 10
66.133499999999998
 20
0.4183
 30
0.0
 10
66.133499999999998
 20
0.4183
 30
0.0
 10
82.655100000000004
 20
0.4182
 30
0.0
 10
96.048400000000001
 20
13.8116
 30
0.0
 10
96.048400000000001
 20
30.333100000000002
 30
0.0
  0
SPLINE
  5
59
100
AcDbEntity
  8
LC-006-002-RND-0
370
    35
100
AcDbSpline
210
0.0
220
0.0
230
1.0
 70
     1
 71
     3
 72
    20
 73
    16
 74
     0
 42
0.0000000001
 43
0.0000000001
 40
0.0
 40
0.0
 40
0.0
 40
0.0
 40
0.25
 40
0.25
 40
0.25
 40
0.25
 40
0.5
 40
0.5
 40
0.5
 40
0.5
 40
0.75
 40
0.75
 40
0.75
 40
0.75
 40
1.0
 40
1.0
 40
1.0
 40
1.0
 10
96.627400000000009
 20
30.333100000000002
 30
0.0
 10
96.627400000000009
 20
47.174400000000006
 30
0.0
 10
82.974800000000002
 20
60.826800000000006
 30
0.0
 10
66.133499999999998
 20
60.826800000000006
 30
0.0
 10
66.133499999999998
 20
60.826800000000006
 30
0.0
 10
49.292200000000001
 20
60.826900000000002
 30
0.0
 10
35.639600000000002
 20
47.174400000000006
 30
0.0
 10
35.639600000000002
 20
30.333100000000002
 30
0.0
 10
35.639600000000002
 20
30.333100000000002
 30
0.0
 10
35.639600000000002
 20
13.491800000000001
 30
0.0
 10
49.292200000000001
 20
-0.1607
 30
0.0
 10
66.133499999999998
 20
-0.1607
 30
0.0
 10
66.133499999999998
 20
-0.1607
 30
0.0
 10
82.974800000000002
 20
-0.1608
 30
0.0
 10
96.627400000000009
 20
13.491800000000001
 30
0.0
 10
96.627400000000009
 20
30.333100000000002
 30
0.0
  0
SPLINE
  5
5A
100
AcDbEntity
  8
LC-006-002-RND-0
370
    35
100
AcDbSpline
210
0.0
220
0.0
230
1.0
 70
     1
 71
     3
 72
    20
 73
    16
 74
     0
 42
0.0000000001
 43
0.0000000001
 40
0.0
 40
0.0
 40
0.0
 40
0.0
 40
0.25
 40
0.25
 40
0.25
 40
0.25
 40
0.5
 40
0.5
 40
0.5
 40
0.5
 40
0.75
 40
0.75
 40
0.75
 40
0.75
 40
1.0
 40
1.0
 40
1.0
 40
1.0
 10
94.118400000000008
 20
30.333100000000002
 30
0.0
 10
94.118400000000008
 20
45.788700000000006
 30
0.0
 10
81.589100000000002
 20
58.317800000000005
 30
0.0
 10
66.133499999999998
 20
58.317800000000005
 30
0.0
 10
66.133499999999998
 20
58.317800000000005
 30
0.0
 10
50.677900000000001
 20
58.317900000000002
 30
0.0
 10
38.148600000000002
 20
45.788700000000006
 30
0.0
 10
38.148600000000002
 20
30.333100000000002
 30
0.0
 10
38.148600000000002
 20
30.333100000000002
 30
0.0
 10
38.148600000000002
 20
14.877500000000001
 30
0.0
 10
50.677900000000001
 20
2.3483000000000001
 30
0.0
 10
66.133499999999998
 20
2.3483000000000001
 30
0.0
 10
66.133499999999998
 20
2.3483000000000001
 30
0.0
 10
81.589100000000002
 20
2.3482000000000003
 30
0.0
 10
94.118400000000008
 20
14.877500000000001
 30
0.0
 10
94.118400000000008
 20
30.333100000000002
 30
0.0
  0
SPLINE
  5
5B
100
AcDbEntity
  8
LC-006-002-RND-0
370
    35
100
AcDbSpline
210
0.0
220
0.0
230
1.0
 70
     0
 71
     3
 72
     8
 73
     4
 74
     0
 42
0.0000000001
 43
0.0000000001
 40
0.0
 40
0.0
 40
0.0
 40
0.0
 40
1.0
 40
1.0
 40
1.0
 40
1.0
 10
-53.039700000000003
 20
16.051200000000001
 30
0.0
 10
-53.039700000000003
 20
16.051200000000001
 30
0.0
 10
-52.832900000000002
 20
15.279200000000001
 30
0.0
 10
-52.832900000000002
 20
15.279200000000001
 30
0.0
  0
SPLINE
  5
5C
100
AcDbEntity
  8
LC-006-002-RND-0
370
    35
100
AcDbSpline
210
0.0
220
0.0
230
1.0
 70
     0
 71
     3
 72
     8
 73
     4
 74
     0
 42
0.0000000001
 43
0.0000000001
 40
0.0
 40
0.0
 40
0.0
 40
0.0
 40
1.0
 40
1.0
 40
1.0
 40
1.0
 10
-52.152000000000001
 20
31.761200000000002
 30
0.0
 10
-52.152000000000001
 20
32.251600000000003
 30
0.0
 10
-52.549500000000002
 20
32.649000000000001
 30
0.0
 10
-53.039700000000003
 20
32.649000000000001
 30
0.0
  0
SPLINE
  5
5D
100
AcDbEntity
  8
LC-006-002-RND-0
370
    35
100
AcDbSpline
210
0.0
220
0.0
230
1.0
 70
     0
 71
     3
 72
     8
 73
     4
 74
     0
 42
0.0000000001
 43
0.0000000001
 40
0.0
 40
0.0
 40
0.0
 40
0.0
 40
1.0
 40
1.0
 40
1.0
 40
1.0
 10
-51.881700000000002
 20
28.017200000000003
 30
0.0
 10
-51.881700000000002
 20
28.017200000000003
 30
0.0
 10
-52.152000000000001
 20
28.017200000000003
 30
0.0
 10
-52.152000000000001
 20
28.017200000000003
 30
0.0
  0
SPLINE
  5
5E
100
AcDbEntity
  8
LC-006-002-RND-0
370
    35
100
AcDbSpline
210
0.0
220
0.0
230
1.0
 70
     0
 71
     3
 72
     8
 73
     4
 74
     0
 42
0.0000000001
 43
0.0000000001
 40
0.0
 40
0.0
 40
0.0
 40
0.0
 40
1.0
 40
1.0
 40
1.0
 40
1.0
 10
-51.881700000000002
 20
28.789200000000001
 30
0.0
 10
-51.881700000000002
 20
28.789200000000001
 30
0.0
 10
-51.881700000000002
 20
28.017200000000003
 30
0.0
 10
-51.881700000000002
 20
28.017200000000003
 30
0.0
  0
SPLINE
  5
5F
100
AcDbEntity
  8
LC-006-002-RND-0
370
    35
100
AcDbSpline
210
0.0
220
0.0
230
1.0
 70
     0
 71
     3
 72
     8
 73
     4
 74
     0
 42
0.0000000001
 43
0.0000000001
 40
0.0
 40
0.0
 40
0.0
 40
0.0
 40
1.0
 40
1.0
 40
1.0
 40
1.0
 10
-52.832900000000002
 20
15.279200000000001
 30
0.0
 10
-52.832900000000002
 20
15.279200000000001
 30
0.0
 10
-3.1672000000000002
 20
15.279200000000001
 30
0.0
 10
-3.1672000000000002
 20
15.279200000000001
 30
0.0
  0
SPLINE
  5
60
100
AcDbEntity
  8
LC-006-002-RND-0
370
    35
100
AcDbSpline
210
0.0
220
0.0
230
1.0
 70
     0
 71
     3
 72
     8
 73
     4
 74
     0
 42
0.0000000001
 43
0.0000000001
 40
0.0
 40
0.0
 40
0.0
 40
0.0
 40
1.0
 40
1.0
 40
1.0
 40
1.0
 10
-58.011400000000002
 20
34.386000000000003
 30
0.0
 10
-58.011400000000002
 20
34.386000000000003
 30
0.0
 10
-57.991900000000001
 20
33.035000000000004
 30
0.0
 10
-57.991900000000001
 20
33.035000000000004
 30
0.0
  0
SPLINE
  5
61
100
AcDbEntity
  8
LC-006-002-RND-0
370
    35
100
AcDbSpline
210
0.0
220
0.0
230
1.0
 70
     0
 71
     3
 72
    12
 73
     8
 74
     0
 42
0.0000000001
 43
0.0000000001
 40
0.0
 40
0.0
 40
0.0
 40
0.0
 40
0.5
 40
0.5
 40
0.5
 40
0.5
 40
1.0
 40
1.0
 40
1.0
 40
1.0
 10
-58.184900000000006
 20
32.841900000000003
 30
0.0
 10
-58.133600000000001
 20
32.841900000000003
 30
0.0
 10
-58.084500000000006
 20
32.862400000000001
 30
0.0
 10
-58.048400000000001
 20
32.898600000000002
 30
0.0
 10
-58.048400000000001
 20
32.898600000000002
 30
0.0
 10
-58.0122
 20
32.934699999999999
 30
0.0
 10
-57.991900000000001
 20
32.983800000000002
 30
0.0
 10
-57.991900000000001
 20
33.0349
 30
0.0
  0
SPLINE
  5
62
100
AcDbEntity
  8
LC-006-002-RND-0
370
    35
100
AcDbSpline
210
0.0
220
0.0
230
1.0
 70
     0
 71
     3
 72
     8
 73
     4
 74
     0
 42
0.0000000001
 43
0.0000000001
 40
0.0
 40
0.0
 40
0.0
 40
0.0
 40
1.0
 40
1.0
 40
1.0
 40
1.0
 10
-58.570900000000002
 20
32.841999999999999
 30
0.0
 10
-58.570900000000002
 20
32.841999999999999
 30
0.0
 10
-58.184900000000006
 20
32.841999999999999
 30
0.0
 10
-58.184900000000006
 20
32.841999999999999
 30
0.0
  0
SPLINE
  5
63
100
AcDbEntity
  8
LC-006-002-RND-0
370
    35
100
AcDbSpline
210
0.0
220
0.0
230
1.0
 70
     0
 71
     3
 72
     8
 73
     4
 74
     0
 42
0.0000000001
 43
0.0000000001
 40
0.0
 40
0.0
 40
0.0
 40
0.0
 40
1.0
 40
1.0
 40
1.0
 40
1.0
 10
-57.625400000000006
 20
34.386000000000003
 30
0.0
 10
-57.625400000000006
 20
34.386000000000003
 30
0.0
 10
-57.605900000000005
 20
33.035000000000004
 30
0.0
 10
-57.605900000000005
 20
33.035000000000004
 30
0.0
  0
SPLINE
  5
64
100
AcDbEntity
  8
LC-006-002-RND-0
370
    35
100
AcDbSpline
210
0.0
220
0.0
230
1.0
 70
     0
 71
     3
 72
    12
 73
     8
 74
     0
 42
0.0000000001
 43
0.0000000001
 40
0.0
 40
0.0
 40
0.0
 40
0.0
 40
0.5
 40
0.5
 40
0.5
 40
0.5
 40
1.0
 40
1.0
 40
1.0
 40
1.0
 10
-58.184900000000006
 20
32.4559
 30
0.0
 10
-58.031300000000002
 20
32.4559
 30
0.0
 10
-57.884
 20
32.517000000000003
 30
0.0
 10
-57.775500000000001
 20
32.625599999999999
 30
0.0
 10
-57.775500000000001
 20
32.625599999999999
 30
0.0
 10
-57.666800000000002
 20
32.734100000000005
 30
0.0
 10
-57.605900000000005
 20
32.881399999999999
 30
0.0
 10
-57.605900000000005
 20
33.0349
 30
0.0
  0
SPLINE
  5
65
100
AcDbEntity
  8
LC-006-002-RND-0
370
    35
100
AcDbSpline
210
0.0
220
0.0
230
1.0
 70
     0
 71
     3
 72
     8
 73
     4
 74
     0
 42
0.0000000001
 43
0.0000000001
 40
0.0
 40
0.0
 40
0.0
 40
0.0
 40
1.0
 40
1.0
 40
1.0
 40
1.0
 10
-58.570900000000002
 20
32.456099999999999
 30
0.0
 10
-58.570900000000002
 20
32.456099999999999
 30
0.0
 10
-58.184900000000006
 20
32.456099999999999
 30
0.0
 10
-58.184900000000006
 20
32.456099999999999
 30
0.0
  0
SPLINE
  5
66
100
AcDbEntity
  8
LC-006-002-RND-0
370
    35
100
AcDbSpline
210
0.0
220
0.0
230
1.0
 70
     0
 71
     3
 72
     8
 73
     4
 74
     0
 42
0.0000000001
 43
0.0000000001
 40
0.0
 40
0.0
 40
0.0
 40
0.0
 40
1.0
 40
1.0
 40
1.0
 40
1.0
 10
-4.7435
 20
32.7455
 30
0.0
 10
-4.7435
 20
32.7455
 30
0.0
 10
-4.7435
 20
28.3505
 30
0.0
 10
-4.7435
 20
28.3505
 30
0.0
  0
SPLINE
  5
67
100
AcDbEntity
  8
LC-006-002-RND-0
370
    35
100
AcDbSpline
210
0.0
220
0.0
230
1.0
 70
     0
 71
     3
 72
     8
 73
     4
 74
     0
 42
0.0000000001
 43
0.0000000001
 40
0.0
 40
0.0
 40
0.0
 40
0.0
 40
1.0
 40
1.0
 40
1.0
 40
1.0
 10
-51.725300000000004
 20
26.859100000000002
 30
0.0
 10
-51.725300000000004
 20
26.859100000000002
 30
0.0
 10
-4.2871000000000006
 20
26.859100000000002
 30
0.0
 10
-4.2871000000000006
 20
26.859100000000002
 30
0.0
  0
SPLINE
  5
68
100
AcDbEntity
  8
LC-006-002-RND-0
370
    35
100
AcDbSpline
210
0.0
220
0.0
230
1.0
 70
     0
 71
     3
 72
     8
 73
     4
 74
     0
 42
0.0000000001
 43
0.0000000001
 40
0.0
 40
0.0
 40
0.0
 40
0.0
 40
1.0
 40
1.0
 40
1.0
 40
1.0
 10
-51.642400000000002
 20
28.3505
 30
0.0
 10
-51.642400000000002
 20
28.3505
 30
0.0
 10
-52.1113
 20
26.9192
 30
0.0
 10
-52.1113
 20
26.9192
 30
0.0
  0
SPLINE
  5
69
100
AcDbEntity
  8
LC-006-002-RND-0
370
    35
100
AcDbSpline
210
0.0
220
0.0
230
1.0
 70
     0
 71
     3
 72
     8
 73
     4
 74
     0
 42
0.0000000001
 43
0.0000000001
 40
0.0
 40
0.0
 40
0.0
 40
0.0
 40
1.0
 40
1.0
 40
1.0
 40
1.0
 10
-56.998400000000004
 20
34.771999999999998
 30
0.0
 10
-56.998400000000004
 20
34.771999999999998
 30
0.0
 10
-57.239400000000003
 20
34.771999999999998
 30
0.0
 10
-57.239400000000003
 20
34.771999999999998
 30
0.0
  0
SPLINE
  5
6A
100
AcDbEntity
  8
LC-006-002-RND-0
370
    35
100
AcDbSpline
210
0.0
220
0.0
230
1.0
 70
     0
 71
     3
 72
     8
 73
     4
 74
     0
 42
0.0000000001
 43
0.0000000001
 40
0.0
 40
0.0
 40
0.0
 40
0.0
 40
1.0
 40
1.0
 40
1.0
 40
1.0
 10
-57.239400000000003
 20
35.157900000000005
 30
0.0
 10
-57.665800000000004
 20
35.157900000000005
 30
0.0
 10
-58.011400000000002
 20
34.8123
 30
0.0
 10
-58.011400000000002
 20
34.385899999999999
 30
0.0
  0
SPLINE
  5
6B
100
AcDbEntity
  8
LC-006-002-RND-0
370
    35
100
AcDbSpline
210
0.0
220
0.0
230
1.0
 70
     0
 71
     3
 72
     8
 73
     4
 74
     0
 42
0.0000000001
 43
0.0000000001
 40
0.0
 40
0.0
 40
0.0
 40
0.0
 40
1.0
 40
1.0
 40
1.0
 40
1.0
 10
-56.660400000000003
 20
34.385899999999999
 30
0.0
 10
-56.660400000000003
 20
34.5991
 30
0.0
 10
-56.833200000000005
 20
34.771900000000002
 30
0.0
 10
-57.046400000000006
 20
34.771900000000002
 30
0.0
  0
SPLINE
  5
6C
100
AcDbEntity
  8
LC-006-002-RND-0
370
    35
100
AcDbSpline
210
0.0
220
0.0
230
1.0
 70
     0
 71
     3
 72
     8
 73
     4
 74
     0
 42
0.0000000001
 43
0.0000000001
 40
0.0
 40
0.0
 40
0.0
 40
0.0
 40
1.0
 40
1.0
 40
1.0
 40
1.0
 10
-57.239400000000003
 20
34.771900000000002
 30
0.0
 10
-57.452600000000004
 20
34.771900000000002
 30
0.0
 10
-57.625400000000006
 20
34.5991
 30
0.0
 10
-57.625400000000006
 20
34.385899999999999
 30
0.0
  0
SPLINE
  5
6D
100
AcDbEntity
  8
LC-006-002-RND-0
370
    35
100
AcDbSpline
210
0.0
220
0.0
230
1.0
 70
     0
 71
     3
 72
     8
 73
     4
 74
     0
 42
0.0000000001
 43
0.0000000001
 40
0.0
 40
0.0
 40
0.0
 40
0.0
 40
1.0
 40
1.0
 40
1.0
 40
1.0
 10
-52.1113
 20
26.9192
 30
0.0
 10
-52.124100000000006
 20
26.880200000000002
 30
0.0
 10
-52.124100000000006
 20
26.838100000000001
 30
0.0
 10
-52.1113
 20
26.799100000000003
 30
0.0
  0
SPLINE
  5
6E
100
AcDbEntity
  8
LC-006-002-RND-0
370
    35
100
AcDbSpline
210
0.0
220
0.0
230
1.0
 70
     0
 71
     3
 72
     8
 73
     4
 74
     0
 42
0.0000000001
 43
0.0000000001
 40
0.0
 40
0.0
 40
0.0
 40
0.0
 40
1.0
 40
1.0
 40
1.0
 40
1.0
 10
-4.3574999999999999
 20
32.359500000000004
 30
0.0
 10
-4.3574999999999999
 20
32.359500000000004
 30
0.0
 10
-4.3574999999999999
 20
28.3505
 30
0.0
 10
-4.3574999999999999
 20
28.3505
 30
0.0
  0
SPLINE
  5
6F
100
AcDbEntity
  8
LC-006-002-RND-0
370
    35
100
AcDbSpline
210
0.0
220
0.0
230
1.0
 70
     0
 71
     3
 72
     8
 73
     4
 74
     0
 42
0.0000000001
 43
0.0000000001
 40
0.0
 40
0.0
 40
0.0
 40
0.0
 40
1.0
 40
1.0
 40
1.0
 40
1.0
 10
-51.642400000000002
 20
32.263100000000001
 30
0.0
 10
-51.642400000000002
 20
32.263100000000001
 30
0.0
 10
-51.642400000000002
 20
28.3505
 30
0.0
 10
-51.642400000000002
 20
28.3505
 30
0.0
  0
SPLINE
  5
70
100
AcDbEntity
  8
LC-006-002-RND-0
370
    35
100
AcDbSpline
210
0.0
220
0.0
230
1.0
 70
     0
 71
     3
 72
     8
 73
     4
 74
     0
 42
0.0000000001
 43
0.0000000001
 40
0.0
 40
0.0
 40
0.0
 40
0.0
 40
1.0
 40
1.0
 40
1.0
 40
1.0
 10
-56.2744
 20
33.035000000000004
 30
0.0
 10
-56.2744
 20
33.035000000000004
 30
0.0
 10
-52.028400000000005
 20
33.035000000000004
 30
0.0
 10
-52.028400000000005
 20
33.035000000000004
 30
0.0
  0
SPLINE
  5
71
100
AcDbEntity
  8
LC-006-002-RND-0
370
    35
100
AcDbSpline
210
0.0
220
0.0
230
1.0
 70
     0
 71
     3
 72
     8
 73
     4
 74
     0
 42
0.0000000001
 43
0.0000000001
 40
0.0
 40
0.0
 40
0.0
 40
0.0
 40
1.0
 40
1.0
 40
1.0
 40
1.0
 10
-51.642400000000002
 20
32.262900000000002
 30
0.0
 10
-51.642400000000002
 20
32.476100000000002
 30
0.0
 10
-51.815200000000004
 20
32.648900000000005
 30
0.0
 10
-52.028400000000005
 20
32.648900000000005
 30
0.0
  0
SPLINE
  5
72
100
AcDbEntity
  8
LC-006-002-RND-0
370
    35
100
AcDbSpline
210
0.0
220
0.0
230
1.0
 70
     0
 71
     3
 72
     8
 73
     4
 74
     0
 42
0.0000000001
 43
0.0000000001
 40
0.0
 40
0.0
 40
0.0
 40
0.0
 40
1.0
 40
1.0
 40
1.0
 40
1.0
 10
-51.256399999999999
 20
28.3505
 30
0.0
 10
-51.256399999999999
 20
28.3505
 30
0.0
 10
-51.725300000000004
 20
26.859100000000002
 30
0.0
 10
-51.725300000000004
 20
26.859100000000002
 30
0.0
  0
SPLINE
  5
73
100
AcDbEntity
  8
LC-006-002-RND-0
370
    35
100
AcDbSpline
210
0.0
220
0.0
230
1.0
 70
     0
 71
     3
 72
     8
 73
     4
 74
     0
 42
0.0000000001
 43
0.0000000001
 40
0.0
 40
0.0
 40
0.0
 40
0.0
 40
1.0
 40
1.0
 40
1.0
 40
1.0
 10
-51.688400000000001
 20
25.508100000000002
 30
0.0
 10
-51.688400000000001
 20
25.508100000000002
 30
0.0
 10
-52.1113
 20
26.799100000000003
 30
0.0
 10
-52.1113
 20
26.799100000000003
 30
0.0
  0
SPLINE
  5
74
100
AcDbEntity
  8
LC-006-002-RND-0
370
    35
100
AcDbSpline
210
0.0
220
0.0
230
1.0
 70
     0
 71
     3
 72
     8
 73
     4
 74
     0
 42
0.0000000001
 43
0.0000000001
 40
0.0
 40
0.0
 40
0.0
 40
0.0
 40
1.0
 40
1.0
 40
1.0
 40
1.0
 10
-51.256399999999999
 20
32.262900000000002
 30
0.0
 10
-51.256399999999999
 20
32.689300000000003
 30
0.0
 10
-51.602000000000004
 20
33.0349
 30
0.0
 10
-52.028400000000005
 20
33.0349
 30
0.0
  0
SPLINE
  5
75
100
AcDbEntity
  8
LC-006-002-RND-0
370
    35
100
AcDbSpline
210
0.0
220
0.0
230
1.0
 70
     0
 71
     3
 72
     8
 73
     4
 74
     0
 42
0.0000000001
 43
0.0000000001
 40
0.0
 40
0.0
 40
0.0
 40
0.0
 40
1.0
 40
1.0
 40
1.0
 40
1.0
 10
-56.660400000000003
 20
34.386000000000003
 30
0.0
 10
-56.660400000000003
 20
34.386000000000003
 30
0.0
 10
-56.660400000000003
 20
33.228000000000002
 30
0.0
 10
-56.660400000000003
 20
33.228000000000002
 30
0.0
  0
SPLINE
  5
76
100
AcDbEntity
  8
LC-006-002-RND-0
370
    35
100
AcDbSpline
210
0.0
220
0.0
230
1.0
 70
     0
 71
     3
 72
     8
 73
     4
 74
     0
 42
0.0000000001
 43
0.0000000001
 40
0.0
 40
0.0
 40
0.0
 40
0.0
 40
1.0
 40
1.0
 40
1.0
 40
1.0
 10
-51.256399999999999
 20
32.263100000000001
 30
0.0
 10
-51.256399999999999
 20
32.263100000000001
 30
0.0
 10
-51.256399999999999
 20
28.3505
 30
0.0
 10
-51.256399999999999
 20
28.3505
 30
0.0
  0
SPLINE
  5
77
100
AcDbEntity
  8
LC-006-002-RND-0
370
    35
100
AcDbSpline
210
0.0
220
0.0
230
1.0
 70
     0
 71
     3
 72
     8
 73
     4
 74
     0
 42
0.0000000001
 43
0.0000000001
 40
0.0
 40
0.0
 40
0.0
 40
0.0
 40
1.0
 40
1.0
 40
1.0
 40
1.0
 10
-56.2744
 20
34.385899999999999
 30
0.0
 10
-56.2744
 20
34.8123
 30
0.0
 10
-56.620000000000005
 20
35.157900000000005
 30
0.0
 10
-57.046400000000006
 20
35.157900000000005
 30
0.0
  0
SPLINE
  5
78
100
AcDbEntity
  8
LC-006-002-RND-0
370
    35
100
AcDbSpline
210
0.0
220
0.0
230
1.0
 70
     0
 71
     3
 72
     8
 73
     4
 74
     0
 42
0.0000000001
 43
0.0000000001
 40
0.0
 40
0.0
 40
0.0
 40
0.0
 40
1.0
 40
1.0
 40
1.0
 40
1.0
 10
-56.081400000000002
 20
32.649000000000001
 30
0.0
 10
-56.081400000000002
 20
32.649000000000001
 30
0.0
 10
-52.783100000000005
 20
32.649000000000001
 30
0.0
 10
-52.783100000000005
 20
32.649000000000001
 30
0.0
  0
SPLINE
  5
79
100
AcDbEntity
  8
LC-006-002-RND-0
370
    35
100
AcDbSpline
210
0.0
220
0.0
230
1.0
 70
     0
 71
     3
 72
     8
 73
     4
 74
     0
 42
0.0000000001
 43
0.0000000001
 40
0.0
 40
0.0
 40
0.0
 40
0.0
 40
1.0
 40
1.0
 40
1.0
 40
1.0
 10
-56.2744
 20
34.386000000000003
 30
0.0
 10
-56.2744
 20
34.386000000000003
 30
0.0
 10
-56.2744
 20
33.035000000000004
 30
0.0
 10
-56.2744
 20
33.035000000000004
 30
0.0
  0
SPLINE
  5
7A
100
AcDbEntity
  8
LC-006-002-RND-0
370
    35
100
AcDbSpline
210
0.0
220
0.0
230
1.0
 70
     0
 71
     3
 72
     8
 73
     4
 74
     0
 42
0.0000000001
 43
0.0000000001
 40
0.0
 40
0.0
 40
0.0
 40
0.0
 40
1.0
 40
1.0
 40
1.0
 40
1.0
 10
-4.0681000000000003
 20
32.648900000000005
 30
0.0
 10
-4.2279
 20
32.648900000000005
 30
0.0
 10
-4.3574999999999999
 20
32.519400000000005
 30
0.0
 10
-4.3574999999999999
 20
32.359500000000004
 30
0.0
  0
SPLINE
  5
7B
100
AcDbEntity
  8
LC-006-002-RND-0
370
    35
100
AcDbSpline
210
0.0
220
0.0
230
1.0
 70
     0
 71
     3
 72
     8
 73
     4
 74
     0
 42
0.0000000001
 43
0.0000000001
 40
0.0
 40
0.0
 40
0.0
 40
0.0
 40
1.0
 40
1.0
 40
1.0
 40
1.0
 10
-4.4541000000000004
 20
33.0349
 30
0.0
 10
-4.6139000000000001
 20
33.0349
 30
0.0
 10
-4.7435
 20
32.9054
 30
0.0
 10
-4.7435
 20
32.7455
 30
0.0
  0
SPLINE
  5
7C
100
AcDbEntity
  8
LC-006-002-RND-0
370
    35
100
AcDbSpline
210
0.0
220
0.0
230
1.0
 70
     0
 71
     3
 72
     8
 73
     4
 74
     0
 42
0.0000000001
 43
0.0000000001
 40
0.0
 40
0.0
 40
0.0
 40
0.0
 40
1.0
 40
1.0
 40
1.0
 40
1.0
 10
-51.300600000000003
 20
25.508100000000002
 30
0.0
 10
-51.300600000000003
 20
25.508100000000002
 30
0.0
 10
-51.725300000000004
 20
26.859100000000002
 30
0.0
 10
-51.725300000000004
 20
26.859100000000002
 30
0.0
  0
SPLINE
  5
7D
100
AcDbEntity
  8
LC-006-002-RND-0
370
    35
100
AcDbSpline
210
0.0
220
0.0
230
1.0
 70
     0
 71
     3
 72
     8
 73
     4
 74
     0
 42
0.0000000001
 43
0.0000000001
 40
0.0
 40
0.0
 40
0.0
 40
0.0
 40
1.0
 40
1.0
 40
1.0
 40
1.0
 10
-4.7435
 20
28.3505
 30
0.0
 10
-4.7435
 20
28.3505
 30
0.0
 10
-4.2747000000000002
 20
26.859100000000002
 30
0.0
 10
-4.2747000000000002
 20
26.859100000000002
 30
0.0
  0
SPLINE
  5
7E
100
AcDbEntity
  8
LC-006-002-RND-0
370
    35
100
AcDbSpline
210
0.0
220
0.0
230
1.0
 70
     0
 71
     3
 72
     8
 73
     4
 74
     0
 42
0.0000000001
 43
0.0000000001
 40
0.0
 40
0.0
 40
0.0
 40
0.0
 40
1.0
 40
1.0
 40
1.0
 40
1.0
 10
-4.3574999999999999
 20
28.3505
 30
0.0
 10
-4.3574999999999999
 20
28.3505
 30
0.0
 10
-3.8888000000000003
 20
26.9192
 30
0.0
 10
-3.8888000000000003
 20
26.9192
 30
0.0
  0
SPLINE
  5
7F
100
AcDbEntity
  8
LC-006-002-RND-0
370
    35
100
AcDbSpline
210
0.0
220
0.0
230
1.0
 70
     0
 71
     3
 72
     8
 73
     4
 74
     0
 42
0.0000000001
 43
0.0000000001
 40
0.0
 40
0.0
 40
0.0
 40
0.0
 40
1.0
 40
1.0
 40
1.0
 40
1.0
 10
-3.8888000000000003
 20
26.799100000000003
 30
0.0
 10
-3.8760000000000003
 20
26.838100000000001
 30
0.0
 10
-3.8760000000000003
 20
26.880200000000002
 30
0.0
 10
-3.8888000000000003
 20
26.9192
 30
0.0
  0
SPLINE
  5
80
100
AcDbEntity
  8
LC-006-002-RND-0
370
    35
100
AcDbSpline
210
0.0
220
0.0
230
1.0
 70
     0
 71
     3
 72
     8
 73
     4
 74
     0
 42
0.0000000001
 43
0.0000000001
 40
0.0
 40
0.0
 40
0.0
 40
0.0
 40
1.0
 40
1.0
 40
1.0
 40
1.0
 10
-4.3116000000000003
 20
25.508100000000002
 30
0.0
 10
-4.3116000000000003
 20
25.508100000000002
 30
0.0
 10
-3.8888000000000003
 20
26.799100000000003
 30
0.0
 10
-3.8888000000000003
 20
26.799100000000003
 30
0.0
  0
SPLINE
  5
81
100
AcDbEntity
  8
LC-006-002-RND-0
370
    35
100
AcDbSpline
210
0.0
220
0.0
230
1.0
 70
     0
 71
     3
 72
     8
 73
     4
 74
     0
 42
0.0000000001
 43
0.0000000001
 40
0.0
 40
0.0
 40
0.0
 40
0.0
 40
1.0
 40
1.0
 40
1.0
 40
1.0
 10
-4.6993999999999998
 20
25.508100000000002
 30
0.0
 10
-4.6993999999999998
 20
25.508100000000002
 30
0.0
 10
-4.2747000000000002
 20
26.859100000000002
 30
0.0
 10
-4.2747000000000002
 20
26.859100000000002
 30
0.0
  0
SPLINE
  5
82
100
AcDbEntity
  8
LC-006-002-RND-0
370
    35
100
AcDbSpline
210
0.0
220
0.0
230
1.0
 70
     0
 71
     3
 72
     8
 73
     4
 74
     0
 42
0.0000000001
 43
0.0000000001
 40
0.0
 40
0.0
 40
0.0
 40
0.0
 40
1.0
 40
1.0
 40
1.0
 40
1.0
 10
-57.046400000000006
 20
35.158000000000001
 30
0.0
 10
-57.046400000000006
 20
35.158000000000001
 30
0.0
 10
-57.239400000000003
 20
35.158000000000001
 30
0.0
 10
-57.239400000000003
 20
35.158000000000001
 30
0.0
  0
SPLINE
  5
83
100
AcDbEntity
  8
LC-006-002-RND-0
370
    35
100
AcDbSpline
210
0.0
220
0.0
230
1.0
 70
     0
 71
     3
 72
     8
 73
     4
 74
     0
 42
0.0000000001
 43
0.0000000001
 40
0.0
 40
0.0
 40
0.0
 40
0.0
 40
1.0
 40
1.0
 40
1.0
 40
1.0
 10
-51.642400000000002
 20
28.397500000000001
 30
0.0
 10
-51.642400000000002
 20
28.397500000000001
 30
0.0
 10
-51.642400000000002
 20
31.6538
 30
0.0
 10
-51.642400000000002
 20
31.6538
 30
0.0
  0
SPLINE
  5
84
100
AcDbEntity
  8
LC-006-002-RND-0
370
    35
100
AcDbSpline
210
0.0
220
0.0
230
1.0
 70
     0
 71
     3
 72
     8
 73
     4
 74
     0
 42
0.0000000001
 43
0.0000000001
 40
0.0
 40
0.0
 40
0.0
 40
0.0
 40
1.0
 40
1.0
 40
1.0
 40
1.0
 10
-51.974200000000003
 20
32.649000000000001
 30
0.0
 10
-51.974200000000003
 20
32.649000000000001
 30
0.0
 10
-56.081400000000002
 20
32.649000000000001
 30
0.0
 10
-56.081400000000002
 20
32.649000000000001
 30
0.0
  0
SPLINE
  5
85
100
AcDbEntity
  8
LC-006-002-RND-0
370
    20
100
AcDbSpline
210
0.0
220
0.0
230
1.0
 70
     0
 71
     3
 72
     8
 73
     4
 74
     0
 42
0.0000000001
 43
0.0000000001
 40
0.0
 40
0.0
 40
0.0
 40
0.0
 40
1.0
 40
1.0
 40
1.0
 40
1.0
 10
-51.256399999999999
 20
32.195399999999999
 30
0.0
 10
-51.256399999999999
 20
32.195399999999999
 30
0.0
 10
-52.0961
 20
33.0349
 30
0.0
 10
-52.0961
 20
33.0349
 30
0.0
  0
SPLINE
  5
86
100
AcDbEntity
  8
LC-006-002-RND-0
370
    20
100
AcDbSpline
210
0.0
220
0.0
230
1.0
 70
     0
 71
     3
 72
     8
 73
     4
 74
     0
 42
0.0000000001
 43
0.0000000001
 40
0.0
 40
0.0
 40
0.0
 40
0.0
 40
1.0
 40
1.0
 40
1.0
 40
1.0
 10
-51.256399999999999
 20
31.1035
 30
0.0
 10
-51.256399999999999
 20
31.1035
 30
0.0
 10
-51.642400000000002
 20
31.489500000000003
 30
0.0
 10
-51.642400000000002
 20
31.489500000000003
 30
0.0
  0
SPLINE
  5
87
100
AcDbEntity
  8
LC-006-002-RND-0
370
    20
100
AcDbSpline
210
0.0
220
0.0
230
1.0
 70
     0
 71
     3
 72
     8
 73
     4
 74
     0
 42
0.0000000001
 43
0.0000000001
 40
0.0
 40
0.0
 40
0.0
 40
0.0
 40
1.0
 40
1.0
 40
1.0
 40
1.0
 10
-52.8018
 20
32.648900000000005
 30
0.0
 10
-52.8018
 20
32.648900000000005
 30
0.0
 10
-53.187800000000003
 20
33.0349
 30
0.0
 10
-53.187800000000003
 20
33.0349
 30
0.0
  0
SPLINE
  5
88
100
AcDbEntity
  8
LC-006-002-RND-0
370
    20
100
AcDbSpline
210
0.0
220
0.0
230
1.0
 70
     0
 71
     3
 72
     8
 73
     4
 74
     0
 42
0.0000000001
 43
0.0000000001
 40
0.0
 40
0.0
 40
0.0
 40
0.0
 40
1.0
 40
1.0
 40
1.0
 40
1.0
 10
-51.256399999999999
 20
30.011900000000001
 30
0.0
 10
-51.256399999999999
 20
30.011900000000001
 30
0.0
 10
-51.642400000000002
 20
30.3978
 30
0.0
 10
-51.642400000000002
 20
30.3978
 30
0.0
  0
SPLINE
  5
89
100
AcDbEntity
  8
LC-006-002-RND-0
370
    20
100
AcDbSpline
210
0.0
220
0.0
230
1.0
 70
     0
 71
     3
 72
     8
 73
     4
 74
     0
 42
0.0000000001
 43
0.0000000001
 40
0.0
 40
0.0
 40
0.0
 40
0.0
 40
1.0
 40
1.0
 40
1.0
 40
1.0
 10
-53.893700000000003
 20
32.648900000000005
 30
0.0
 10
-53.893700000000003
 20
32.648900000000005
 30
0.0
 10
-54.279700000000005
 20
33.0349
 30
0.0
 10
-54.279700000000005
 20
33.0349
 30
0.0
  0
SPLINE
  5
8A
100
AcDbEntity
  8
LC-006-002-RND-0
370
    20
100
AcDbSpline
210
0.0
220
0.0
230
1.0
 70
     0
 71
     3
 72
     8
 73
     4
 74
     0
 42
0.0000000001
 43
0.0000000001
 40
0.0
 40
0.0
 40
0.0
 40
0.0
 40
1.0
 40
1.0
 40
1.0
 40
1.0
 10
-51.256399999999999
 20
28.920200000000001
 30
0.0
 10
-51.256399999999999
 20
28.920200000000001
 30
0.0
 10
-51.642400000000002
 20
29.3062
 30
0.0
 10
-51.642400000000002
 20
29.3062
 30
0.0
  0
SPLINE
  5
8B
100
AcDbEntity
  8
LC-006-002-RND-0
370
    20
100
AcDbSpline
210
0.0
220
0.0
230
1.0
 70
     0
 71
     3
 72
     8
 73
     4
 74
     0
 42
0.0000000001
 43
0.0000000001
 40
0.0
 40
0.0
 40
0.0
 40
0.0
 40
1.0
 40
1.0
 40
1.0
 40
1.0
 10
-54.985400000000006
 20
32.648900000000005
 30
0.0
 10
-54.985400000000006
 20
32.648900000000005
 30
0.0
 10
-55.371400000000001
 20
33.0349
 30
0.0
 10
-55.371400000000001
 20
33.0349
 30
0.0
  0
SPLINE
  5
8C
100
AcDbEntity
  8
LC-006-002-RND-0
370
    20
100
AcDbSpline
210
0.0
220
0.0
230
1.0
 70
     0
 71
     3
 72
     8
 73
     4
 74
     0
 42
0.0000000001
 43
0.0000000001
 40
0.0
 40
0.0
 40
0.0
 40
0.0
 40
1.0
 40
1.0
 40
1.0
 40
1.0
 10
-56.2744
 20
33.938099999999999
 30
0.0
 10
-56.2744
 20
33.938099999999999
 30
0.0
 10
-56.660400000000003
 20
34.324100000000001
 30
0.0
 10
-56.660400000000003
 20
34.324100000000001
 30
0.0
  0
SPLINE
  5
8D
100
AcDbEntity
  8
LC-006-002-RND-0
370
    20
100
AcDbSpline
210
0.0
220
0.0
230
1.0
 70
     0
 71
     3
 72
     8
 73
     4
 74
     0
 42
0.0000000001
 43
0.0000000001
 40
0.0
 40
0.0
 40
0.0
 40
0.0
 40
1.0
 40
1.0
 40
1.0
 40
1.0
 10
-57.108400000000003
 20
34.771900000000002
 30
0.0
 10
-57.108400000000003
 20
34.771900000000002
 30
0.0
 10
-57.4617
 20
35.125300000000003
 30
0.0
 10
-57.4617
 20
35.125300000000003
 30
0.0
  0
SPLINE
  5
8E
100
AcDbEntity
  8
LC-006-002-RND-0
370
    20
100
AcDbSpline
210
0.0
220
0.0
230
1.0
 70
     0
 71
     3
 72
     8
 73
     4
 74
     0
 42
0.0000000001
 43
0.0000000001
 40
0.0
 40
0.0
 40
0.0
 40
0.0
 40
1.0
 40
1.0
 40
1.0
 40
1.0
 10
-51.381300000000003
 20
27.953200000000002
 30
0.0
 10
-51.381300000000003
 20
27.953200000000002
 30
0.0
 10
-51.676100000000005
 20
28.248000000000001
 30
0.0
 10
-51.676100000000005
 20
28.248000000000001
 30
0.0
  0
SPLINE
  5
8F
100
AcDbEntity
  8
LC-006-002-RND-0
370
    20
100
AcDbSpline
210
0.0
220
0.0
230
1.0
 70
     0
 71
     3
 72
     8
 73
     4
 74
     0
 42
0.0000000001
 43
0.0000000001
 40
0.0
 40
0.0
 40
0.0
 40
0.0
 40
1.0
 40
1.0
 40
1.0
 40
1.0
 10
-56.077100000000002
 20
32.648900000000005
 30
0.0
 10
-56.077100000000002
 20
32.648900000000005
 30
0.0
 10
-56.660400000000003
 20
33.232199999999999
 30
0.0
 10
-56.660400000000003
 20
33.232199999999999
 30
0.0
  0
SPLINE
  5
90
100
AcDbEntity
  8
LC-006-002-RND-0
370
    20
100
AcDbSpline
210
0.0
220
0.0
230
1.0
 70
     0
 71
     3
 72
     8
 73
     4
 74
     0
 42
0.0000000001
 43
0.0000000001
 40
0.0
 40
0.0
 40
0.0
 40
0.0
 40
1.0
 40
1.0
 40
1.0
 40
1.0
 10
-57.622600000000006
 20
34.194400000000002
 30
0.0
 10
-57.622600000000006
 20
34.194400000000002
 30
0.0
 10
-57.991
 20
34.562800000000003
 30
0.0
 10
-57.991
 20
34.562800000000003
 30
0.0
  0
SPLINE
  5
91
100
AcDbEntity
  8
LC-006-002-RND-0
370
    20
100
AcDbSpline
210
0.0
220
0.0
230
1.0
 70
     0
 71
     3
 72
     8
 73
     4
 74
     0
 42
0.0000000001
 43
0.0000000001
 40
0.0
 40
0.0
 40
0.0
 40
0.0
 40
1.0
 40
1.0
 40
1.0
 40
1.0
 10
-51.642500000000005
 20
27.122600000000002
 30
0.0
 10
-51.642500000000005
 20
27.122600000000002
 30
0.0
 10
-51.945399999999999
 20
27.4255
 30
0.0
 10
-51.945399999999999
 20
27.4255
 30
0.0
  0
SPLINE
  5
92
100
AcDbEntity
  8
LC-006-002-RND-0
370
    20
100
AcDbSpline
210
0.0
220
0.0
230
1.0
 70
     0
 71
     3
 72
     8
 73
     4
 74
     0
 42
0.0000000001
 43
0.0000000001
 40
0.0
 40
0.0
 40
0.0
 40
0.0
 40
1.0
 40
1.0
 40
1.0
 40
1.0
 10
-57.6066
 20
33.0867
 30
0.0
 10
-57.6066
 20
33.0867
 30
0.0
 10
-57.9983
 20
33.478400000000001
 30
0.0
 10
-57.9983
 20
33.478400000000001
 30
0.0
  0
SPLINE
  5
93
100
AcDbEntity
  8
LC-006-002-RND-0
370
    20
100
AcDbSpline
210
0.0
220
0.0
230
1.0
 70
     0
 71
     3
 72
     8
 73
     4
 74
     0
 42
0.0000000001
 43
0.0000000001
 40
0.0
 40
0.0
 40
0.0
 40
0.0
 40
1.0
 40
1.0
 40
1.0
 40
1.0
 10
-51.383500000000005
 20
25.772000000000002
 30
0.0
 10
-51.383500000000005
 20
25.772000000000002
 30
0.0
 10
-51.965400000000002
 20
26.3538
 30
0.0
 10
-51.965400000000002
 20
26.3538
 30
0.0
  0
SPLINE
  5
94
100
AcDbEntity
  8
LC-006-002-RND-0
370
    20
100
AcDbSpline
210
0.0
220
0.0
230
1.0
 70
     0
 71
     3
 72
     8
 73
     4
 74
     0
 42
0.0000000001
 43
0.0000000001
 40
0.0
 40
0.0
 40
0.0
 40
0.0
 40
1.0
 40
1.0
 40
1.0
 40
1.0
 10
-58.0777
 20
32.466000000000001
 30
0.0
 10
-58.0777
 20
32.466000000000001
 30
0.0
 10
-58.453700000000005
 20
32.841900000000003
 30
0.0
 10
-58.453700000000005
 20
32.841900000000003
 30
0.0
  0
SPLINE
  5
95
100
AcDbEntity
  8
LC-006-002-RND-0
370
    20
100
AcDbSpline
210
0.0
220
0.0
230
1.0
 70
     0
 71
     3
 72
     8
 73
     4
 74
     0
 42
0.0000000001
 43
0.0000000001
 40
0.0
 40
0.0
 40
0.0
 40
0.0
 40
1.0
 40
1.0
 40
1.0
 40
1.0
 10
1.9624000000000001
 20
34.656800000000004
 30
0.0
 10
1.9624000000000001
 20
34.656800000000004
 30
0.0
 10
1.5103
 20
35.108899999999998
 30
0.0
 10
1.5103
 20
35.108899999999998
 30
0.0
  0
SPLINE
  5
96
100
AcDbEntity
  8
LC-006-002-RND-0
370
    20
100
AcDbSpline
210
0.0
220
0.0
230
1.0
 70
     0
 71
     3
 72
     8
 73
     4
 74
     0
 42
0.0000000001
 43
0.0000000001
 40
0.0
 40
0.0
 40
0.0
 40
0.0
 40
1.0
 40
1.0
 40
1.0
 40
1.0
 10
2.0242
 20
33.5032
 30
0.0
 10
2.0242
 20
33.5032
 30
0.0
 10
1.6325000000000001
 20
33.8949
 30
0.0
 10
1.6325000000000001
 20
33.8949
 30
0.0
  0
SPLINE
  5
97
100
AcDbEntity
  8
LC-006-002-RND-0
370
    20
100
AcDbSpline
210
0.0
220
0.0
230
1.0
 70
     0
 71
     3
 72
     8
 73
     4
 74
     0
 42
0.0000000001
 43
0.0000000001
 40
0.0
 40
0.0
 40
0.0
 40
0.0
 40
1.0
 40
1.0
 40
1.0
 40
1.0
 10
0.8251000000000001
 20
34.702300000000001
 30
0.0
 10
0.8251000000000001
 20
34.702300000000001
 30
0.0
 10
0.5501
 20
34.9773
 30
0.0
 10
0.5501
 20
34.9773
 30
0.0
  0
SPLINE
  5
98
100
AcDbEntity
  8
LC-006-002-RND-0
370
    20
100
AcDbSpline
210
0.0
220
0.0
230
1.0
 70
     0
 71
     3
 72
     8
 73
     4
 74
     0
 42
0.0000000001
 43
0.0000000001
 40
0.0
 40
0.0
 40
0.0
 40
0.0
 40
1.0
 40
1.0
 40
1.0
 40
1.0
 10
0.6605000000000001
 20
33.775199999999998
 30
0.0
 10
0.6605000000000001
 20
33.775199999999998
 30
0.0
 10
0.2745
 20
34.161200000000001
 30
0.0
 10
0.2745
 20
34.161200000000001
 30
0.0
  0
SPLINE
  5
99
100
AcDbEntity
  8
LC-006-002-RND-0
370
    20
100
AcDbSpline
210
0.0
220
0.0
230
1.0
 70
     0
 71
     3
 72
     8
 73
     4
 74
     0
 42
0.0000000001
 43
0.0000000001
 40
0.0
 40
0.0
 40
0.0
 40
0.0
 40
1.0
 40
1.0
 40
1.0
 40
1.0
 10
0.5077
 20
32.836100000000002
 30
0.0
 10
0.5077
 20
32.836100000000002
 30
0.0
 10
0.2745
 20
33.069500000000005
 30
0.0
 10
0.2745
 20
33.069500000000005
 30
0.0
  0
SPLINE
  5
9A
100
AcDbEntity
  8
LC-006-002-RND-0
370
    20
100
AcDbSpline
210
0.0
220
0.0
230
1.0
 70
     0
 71
     3
 72
     8
 73
     4
 74
     0
 42
0.0000000001
 43
0.0000000001
 40
0.0
 40
0.0
 40
0.0
 40
0.0
 40
1.0
 40
1.0
 40
1.0
 40
1.0
 10
-0.3969
 20
32.648900000000005
 30
0.0
 10
-0.3969
 20
32.648900000000005
 30
0.0
 10
-0.7829
 20
33.0349
 30
0.0
 10
-0.7829
 20
33.0349
 30
0.0
  0
SPLINE
  5
9B
100
AcDbEntity
  8
LC-006-002-RND-0
370
    20
100
AcDbSpline
210
0.0
220
0.0
230
1.0
 70
     0
 71
     3
 72
     8
 73
     4
 74
     0
 42
0.0000000001
 43
0.0000000001
 40
0.0
 40
0.0
 40
0.0
 40
0.0
 40
1.0
 40
1.0
 40
1.0
 40
1.0
 10
-1.4887000000000001
 20
32.648900000000005
 30
0.0
 10
-1.4887000000000001
 20
32.648900000000005
 30
0.0
 10
-1.8747
 20
33.0349
 30
0.0
 10
-1.8747
 20
33.0349
 30
0.0
  0
SPLINE
  5
9C
100
AcDbEntity
  8
LC-006-002-RND-0
370
    20
100
AcDbSpline
210
0.0
220
0.0
230
1.0
 70
     0
 71
     3
 72
     8
 73
     4
 74
     0
 42
0.0000000001
 43
0.0000000001
 40
0.0
 40
0.0
 40
0.0
 40
0.0
 40
1.0
 40
1.0
 40
1.0
 40
1.0
 10
-2.5804
 20
32.648900000000005
 30
0.0
 10
-2.5804
 20
32.648900000000005
 30
0.0
 10
-2.9664000000000001
 20
33.0349
 30
0.0
 10
-2.9664000000000001
 20
33.0349
 30
0.0
  0
SPLINE
  5
9D
100
AcDbEntity
  8
LC-006-002-RND-0
370
    20
100
AcDbSpline
210
0.0
220
0.0
230
1.0
 70
     0
 71
     3
 72
     8
 73
     4
 74
     0
 42
0.0000000001
 43
0.0000000001
 40
0.0
 40
0.0
 40
0.0
 40
0.0
 40
1.0
 40
1.0
 40
1.0
 40
1.0
 10
-3.6722000000000001
 20
32.648900000000005
 30
0.0
 10
-3.6722000000000001
 20
32.648900000000005
 30
0.0
 10
-4.0537999999999998
 20
33.0306
 30
0.0
 10
-4.0537999999999998
 20
33.0306
 30
0.0
  0
SPLINE
  5
9E
100
AcDbEntity
  8
LC-006-002-RND-0
370
    20
100
AcDbSpline
210
0.0
220
0.0
230
1.0
 70
     0
 71
     3
 72
     8
 73
     4
 74
     0
 42
0.0000000001
 43
0.0000000001
 40
0.0
 40
0.0
 40
0.0
 40
0.0
 40
1.0
 40
1.0
 40
1.0
 40
1.0
 10
-4.3574999999999999
 20
32.242600000000003
 30
0.0
 10
-4.3574999999999999
 20
32.242600000000003
 30
0.0
 10
-4.6814
 20
32.566400000000002
 30
0.0
 10
-4.6814
 20
32.566400000000002
 30
0.0
  0
SPLINE
  5
9F
100
AcDbEntity
  8
LC-006-002-RND-0
370
    20
100
AcDbSpline
210
0.0
220
0.0
230
1.0
 70
     0
 71
     3
 72
     8
 73
     4
 74
     0
 42
0.0000000001
 43
0.0000000001
 40
0.0
 40
0.0
 40
0.0
 40
0.0
 40
1.0
 40
1.0
 40
1.0
 40
1.0
 10
-4.3574999999999999
 20
31.1508
 30
0.0
 10
-4.3574999999999999
 20
31.1508
 30
0.0
 10
-4.7435
 20
31.536800000000003
 30
0.0
 10
-4.7435
 20
31.536800000000003
 30
0.0
  0
SPLINE
  5
A0
100
AcDbEntity
  8
LC-006-002-RND-0
370
    20
100
AcDbSpline
210
0.0
220
0.0
230
1.0
 70
     0
 71
     3
 72
     8
 73
     4
 74
     0
 42
0.0000000001
 43
0.0000000001
 40
0.0
 40
0.0
 40
0.0
 40
0.0
 40
1.0
 40
1.0
 40
1.0
 40
1.0
 10
-4.3574999999999999
 20
30.059200000000001
 30
0.0
 10
-4.3574999999999999
 20
30.059200000000001
 30
0.0
 10
-4.7435
 20
30.4451
 30
0.0
 10
-4.7435
 20
30.4451
 30
0.0
  0
SPLINE
  5
A1
100
AcDbEntity
  8
LC-006-002-RND-0
370
    20
100
AcDbSpline
210
0.0
220
0.0
230
1.0
 70
     0
 71
     3
 72
     8
 73
     4
 74
     0
 42
0.0000000001
 43
0.0000000001
 40
0.0
 40
0.0
 40
0.0
 40
0.0
 40
1.0
 40
1.0
 40
1.0
 40
1.0
 10
-4.3574999999999999
 20
28.967400000000001
 30
0.0
 10
-4.3574999999999999
 20
28.967400000000001
 30
0.0
 10
-4.7435
 20
29.353400000000001
 30
0.0
 10
-4.7435
 20
29.353400000000001
 30
0.0
  0
SPLINE
  5
A2
100
AcDbEntity
  8
LC-006-002-RND-0
370
    20
100
AcDbSpline
210
0.0
220
0.0
230
1.0
 70
     0
 71
     3
 72
     8
 73
     4
 74
     0
 42
0.0000000001
 43
0.0000000001
 40
0.0
 40
0.0
 40
0.0
 40
0.0
 40
1.0
 40
1.0
 40
1.0
 40
1.0
 10
-4.1261999999999999
 20
27.644400000000001
 30
0.0
 10
-4.1261999999999999
 20
27.644400000000001
 30
0.0
 10
-4.7027999999999999
 20
28.2209
 30
0.0
 10
-4.7027999999999999
 20
28.2209
 30
0.0
  0
SPLINE
  5
A3
100
AcDbEntity
  8
LC-006-002-RND-0
370
    20
100
AcDbSpline
210
0.0
220
0.0
230
1.0
 70
     0
 71
     3
 72
     8
 73
     4
 74
     0
 42
0.0000000001
 43
0.0000000001
 40
0.0
 40
0.0
 40
0.0
 40
0.0
 40
1.0
 40
1.0
 40
1.0
 40
1.0
 10
-4.0082000000000004
 20
26.4345
 30
0.0
 10
-4.0082000000000004
 20
26.4345
 30
0.0
 10
-4.3125
 20
26.738800000000001
 30
0.0
 10
-4.3125
 20
26.738800000000001
 30
0.0
  0
SPLINE
  5
A4
100
AcDbEntity
  8
LC-006-002-RND-0
370
    20
100
AcDbSpline
210
0.0
220
0.0
230
1.0
 70
     0
 71
     3
 72
     8
 73
     4
 74
     0
 42
0.0000000001
 43
0.0000000001
 40
0.0
 40
0.0
 40
0.0
 40
0.0
 40
1.0
 40
1.0
 40
1.0
 40
1.0
 10
-4.2776000000000005
 20
25.612100000000002
 30
0.0
 10
-4.2776000000000005
 20
25.612100000000002
 30
0.0
 10
-4.5735999999999999
 20
25.908200000000001
 30
0.0
 10
-4.5735999999999999
 20
25.908200000000001
 30
0.0
  0
SPLINE
  5
A5
100
AcDbEntity
  8
LC-006-002-RND-0
370
    20
100
AcDbSpline
210
0.0
220
0.0
230
1.0
 70
     0
 71
     3
 72
     8
 73
     4
 74
     0
 42
0.0000000001
 43
0.0000000001
 40
0.0
 40
0.0
 40
0.0
 40
0.0
 40
1.0
 40
1.0
 40
1.0
 40
1.0
 10
-3.2971000000000004
 20
15.279200000000001
 30
0.0
 10
-3.2971000000000004
 20
15.279200000000001
 30
0.0
 10
-3.1194999999999999
 20
15.456900000000001
 30
0.0
 10
-3.1194999999999999
 20
15.456900000000001
 30
0.0
  0
SPLINE
  5
A6
100
AcDbEntity
  8
LC-006-002-RND-0
370
    20
100
AcDbSpline
210
0.0
220
0.0
230
1.0
 70
     0
 71
     3
 72
     8
 73
     4
 74
     0
 42
0.0000000001
 43
0.0000000001
 40
0.0
 40
0.0
 40
0.0
 40
0.0
 40
1.0
 40
1.0
 40
1.0
 40
1.0
 10
-3.8481000000000001
 20
15.820200000000002
 30
0.0
 10
-3.8481000000000001
 20
15.820200000000002
 30
0.0
 10
-2.9601999999999999
 20
16.707900000000002
 30
0.0
 10
-2.9601999999999999
 20
16.707900000000002
 30
0.0
  0
SPLINE
  5
A7
100
AcDbEntity
  8
LC-006-002-RND-0
370
    20
100
AcDbSpline
210
0.0
220
0.0
230
1.0
 70
     0
 71
     3
 72
     8
 73
     4
 74
     0
 42
0.0000000001
 43
0.0000000001
 40
0.0
 40
0.0
 40
0.0
 40
0.0
 40
1.0
 40
1.0
 40
1.0
 40
1.0
 10
-3.8481000000000001
 20
16.911899999999999
 30
0.0
 10
-3.8481000000000001
 20
16.911899999999999
 30
0.0
 10
-2.9601999999999999
 20
17.799700000000001
 30
0.0
 10
-2.9601999999999999
 20
17.799700000000001
 30
0.0
  0
SPLINE
  5
A8
100
AcDbEntity
  8
LC-006-002-RND-0
370
    20
100
AcDbSpline
210
0.0
220
0.0
230
1.0
 70
     0
 71
     3
 72
     8
 73
     4
 74
     0
 42
0.0000000001
 43
0.0000000001
 40
0.0
 40
0.0
 40
0.0
 40
0.0
 40
1.0
 40
1.0
 40
1.0
 40
1.0
 10
-3.8481000000000001
 20
18.003600000000002
 30
0.0
 10
-3.8481000000000001
 20
18.003600000000002
 30
0.0
 10
-2.9601999999999999
 20
18.891400000000001
 30
0.0
 10
-2.9601999999999999
 20
18.891400000000001
 30
0.0
  0
SPLINE
  5
A9
100
AcDbEntity
  8
LC-006-002-RND-0
370
    20
100
AcDbSpline
210
0.0
220
0.0
230
1.0
 70
     0
 71
     3
 72
     8
 73
     4
 74
     0
 42
0.0000000001
 43
0.0000000001
 40
0.0
 40
0.0
 40
0.0
 40
0.0
 40
1.0
 40
1.0
 40
1.0
 40
1.0
 10
-3.8481000000000001
 20
19.095500000000001
 30
0.0
 10
-3.8481000000000001
 20
19.095500000000001
 30
0.0
 10
-2.9601999999999999
 20
19.9832
 30
0.0
 10
-2.9601999999999999
 20
19.9832
 30
0.0
  0
SPLINE
  5
AA
100
AcDbEntity
  8
LC-006-002-RND-0
370
    20
100
AcDbSpline
210
0.0
220
0.0
230
1.0
 70
     0
 71
     3
 72
     8
 73
     4
 74
     0
 42
0.0000000001
 43
0.0000000001
 40
0.0
 40
0.0
 40
0.0
 40
0.0
 40
1.0
 40
1.0
 40
1.0
 40
1.0
 10
-3.8481000000000001
 20
20.187200000000001
 30
0.0
 10
-3.8481000000000001
 20
20.187200000000001
 30
0.0
 10
-2.9601999999999999
 20
21.074999999999999
 30
0.0
 10
-2.9601999999999999
 20
21.074999999999999
 30
0.0
  0
SPLINE
  5
AB
100
AcDbEntity
  8
LC-006-002-RND-0
370
    20
100
AcDbSpline
210
0.0
220
0.0
230
1.0
 70
     0
 71
     3
 72
     8
 73
     4
 74
     0
 42
0.0000000001
 43
0.0000000001
 40
0.0
 40
0.0
 40
0.0
 40
0.0
 40
1.0
 40
1.0
 40
1.0
 40
1.0
 10
-3.8481000000000001
 20
21.2789
 30
0.0
 10
-3.8481000000000001
 20
21.2789
 30
0.0
 10
-2.9601999999999999
 20
22.166700000000002
 30
0.0
 10
-2.9601999999999999
 20
22.166700000000002
 30
0.0
  0
SPLINE
  5
AC
100
AcDbEntity
  8
LC-006-002-RND-0
370
    20
100
AcDbSpline
210
0.0
220
0.0
230
1.0
 70
     0
 71
     3
 72
     8
 73
     4
 74
     0
 42
0.0000000001
 43
0.0000000001
 40
0.0
 40
0.0
 40
0.0
 40
0.0
 40
1.0
 40
1.0
 40
1.0
 40
1.0
 10
-3.8481000000000001
 20
22.370800000000003
 30
0.0
 10
-3.8481000000000001
 20
22.370800000000003
 30
0.0
 10
-2.9601999999999999
 20
23.258500000000002
 30
0.0
 10
-2.9601999999999999
 20
23.258500000000002
 30
0.0
  0
SPLINE
  5
AD
100
AcDbEntity
  8
LC-006-002-RND-0
370
    20
100
AcDbSpline
210
0.0
220
0.0
230
1.0
 70
     0
 71
     3
 72
     8
 73
     4
 74
     0
 42
0.0000000001
 43
0.0000000001
 40
0.0
 40
0.0
 40
0.0
 40
0.0
 40
1.0
 40
1.0
 40
1.0
 40
1.0
 10
-3.8481000000000001
 20
23.462500000000002
 30
0.0
 10
-3.8481000000000001
 20
23.462500000000002
 30
0.0
 10
-2.9601999999999999
 20
24.350300000000001
 30
0.0
 10
-2.9601999999999999
 20
24.350300000000001
 30
0.0
  0
SPLINE
  5
AE
100
AcDbEntity
  8
LC-006-002-RND-0
370
    20
100
AcDbSpline
210
0.0
220
0.0
230
1.0
 70
     0
 71
     3
 72
     8
 73
     4
 74
     0
 42
0.0000000001
 43
0.0000000001
 40
0.0
 40
0.0
 40
0.0
 40
0.0
 40
1.0
 40
1.0
 40
1.0
 40
1.0
 10
-3.8481000000000001
 20
24.554200000000002
 30
0.0
 10
-3.8481000000000001
 20
24.554200000000002
 30
0.0
 10
-2.9601999999999999
 20
25.442
 30
0.0
 10
-2.9601999999999999
 20
25.442
 30
0.0
  0
SPLINE
  5
AF
100
AcDbEntity
  8
LC-006-002-RND-0
370
    20
100
AcDbSpline
210
0.0
220
0.0
230
1.0
 70
     0
 71
     3
 72
     8
 73
     4
 74
     0
 42
0.0000000001
 43
0.0000000001
 40
0.0
 40
0.0
 40
0.0
 40
0.0
 40
1.0
 40
1.0
 40
1.0
 40
1.0
 10
-3.8481000000000001
 20
25.646100000000001
 30
0.0
 10
-3.8481000000000001
 20
25.646100000000001
 30
0.0
 10
-2.9601999999999999
 20
26.533900000000003
 30
0.0
 10
-2.9601999999999999
 20
26.533900000000003
 30
0.0
  0
SPLINE
  5
B0
100
AcDbEntity
  8
LC-006-002-RND-0
370
    20
100
AcDbSpline
210
0.0
220
0.0
230
1.0
 70
     0
 71
     3
 72
     8
 73
     4
 74
     0
 42
0.0000000001
 43
0.0000000001
 40
0.0
 40
0.0
 40
0.0
 40
0.0
 40
1.0
 40
1.0
 40
1.0
 40
1.0
 10
-3.8481000000000001
 20
26.7378
 30
0.0
 10
-3.8481000000000001
 20
26.7378
 30
0.0
 10
-2.9601999999999999
 20
27.625600000000002
 30
0.0
 10
-2.9601999999999999
 20
27.625600000000002
 30
0.0
  0
SPLINE
  5
B1
100
AcDbEntity
  8
LC-006-002-RND-0
370
    20
100
AcDbSpline
210
0.0
220
0.0
230
1.0
 70
     0
 71
     3
 72
     8
 73
     4
 74
     0
 42
0.0000000001
 43
0.0000000001
 40
0.0
 40
0.0
 40
0.0
 40
0.0
 40
1.0
 40
1.0
 40
1.0
 40
1.0
 10
-3.8481000000000001
 20
27.829500000000003
 30
0.0
 10
-3.8481000000000001
 20
27.829500000000003
 30
0.0
 10
-2.9601999999999999
 20
28.717300000000002
 30
0.0
 10
-2.9601999999999999
 20
28.717300000000002
 30
0.0
  0
SPLINE
  5
B2
100
AcDbEntity
  8
LC-006-002-RND-0
370
    20
100
AcDbSpline
210
0.0
220
0.0
230
1.0
 70
     0
 71
     3
 72
     8
 73
     4
 74
     0
 42
0.0000000001
 43
0.0000000001
 40
0.0
 40
0.0
 40
0.0
 40
0.0
 40
1.0
 40
1.0
 40
1.0
 40
1.0
 10
-3.8481000000000001
 20
28.921400000000002
 30
0.0
 10
-3.8481000000000001
 20
28.921400000000002
 30
0.0
 10
-2.9601999999999999
 20
29.809200000000001
 30
0.0
 10
-2.9601999999999999
 20
29.809200000000001
 30
0.0
  0
SPLINE
  5
B3
100
AcDbEntity
  8
LC-006-002-RND-0
370
    20
100
AcDbSpline
210
0.0
220
0.0
230
1.0
 70
     0
 71
     3
 72
     8
 73
     4
 74
     0
 42
0.0000000001
 43
0.0000000001
 40
0.0
 40
0.0
 40
0.0
 40
0.0
 40
1.0
 40
1.0
 40
1.0
 40
1.0
 10
-3.8481000000000001
 20
30.013100000000001
 30
0.0
 10
-3.8481000000000001
 20
30.013100000000001
 30
0.0
 10
-2.9601999999999999
 20
30.9008
 30
0.0
 10
-2.9601999999999999
 20
30.9008
 30
0.0
  0
SPLINE
  5
B4
100
AcDbEntity
  8
LC-006-002-RND-0
370
    20
100
AcDbSpline
210
0.0
220
0.0
230
1.0
 70
     0
 71
     3
 72
     8
 73
     4
 74
     0
 42
0.0000000001
 43
0.0000000001
 40
0.0
 40
0.0
 40
0.0
 40
0.0
 40
1.0
 40
1.0
 40
1.0
 40
1.0
 10
-3.8481000000000001
 20
31.104700000000001
 30
0.0
 10
-3.8481000000000001
 20
31.104700000000001
 30
0.0
 10
-2.9601999999999999
 20
31.992500000000003
 30
0.0
 10
-2.9601999999999999
 20
31.992500000000003
 30
0.0
  0
SPLINE
  5
B5
100
AcDbEntity
  8
LC-006-002-RND-0
370
    20
100
AcDbSpline
210
0.0
220
0.0
230
1.0
 70
     0
 71
     3
 72
     8
 73
     4
 74
     0
 42
0.0000000001
 43
0.0000000001
 40
0.0
 40
0.0
 40
0.0
 40
0.0
 40
1.0
 40
1.0
 40
1.0
 40
1.0
 10
-52.4268
 20
15.279200000000001
 30
0.0
 10
-52.4268
 20
15.279200000000001
 30
0.0
 10
-52.152000000000001
 20
15.5541
 30
0.0
 10
-52.152000000000001
 20
15.5541
 30
0.0
  0
SPLINE
  5
B6
100
AcDbEntity
  8
LC-006-002-RND-0
370
    20
100
AcDbSpline
210
0.0
220
0.0
230
1.0
 70
     0
 71
     3
 72
     8
 73
     4
 74
     0
 42
0.0000000001
 43
0.0000000001
 40
0.0
 40
0.0
 40
0.0
 40
0.0
 40
1.0
 40
1.0
 40
1.0
 40
1.0
 10
-52.977900000000005
 20
15.8201
 30
0.0
 10
-52.977900000000005
 20
15.8201
 30
0.0
 10
-52.152000000000001
 20
16.645900000000001
 30
0.0
 10
-52.152000000000001
 20
16.645900000000001
 30
0.0
  0
SPLINE
  5
B7
100
AcDbEntity
  8
LC-006-002-RND-0
370
    20
100
AcDbSpline
210
0.0
220
0.0
230
1.0
 70
     0
 71
     3
 72
     8
 73
     4
 74
     0
 42
0.0000000001
 43
0.0000000001
 40
0.0
 40
0.0
 40
0.0
 40
0.0
 40
1.0
 40
1.0
 40
1.0
 40
1.0
 10
-53.039700000000003
 20
16.849800000000002
 30
0.0
 10
-53.039700000000003
 20
16.849800000000002
 30
0.0
 10
-52.152000000000001
 20
17.7376
 30
0.0
 10
-52.152000000000001
 20
17.7376
 30
0.0
  0
SPLINE
  5
B8
100
AcDbEntity
  8
LC-006-002-RND-0
370
    20
100
AcDbSpline
210
0.0
220
0.0
230
1.0
 70
     0
 71
     3
 72
     8
 73
     4
 74
     0
 42
0.0000000001
 43
0.0000000001
 40
0.0
 40
0.0
 40
0.0
 40
0.0
 40
1.0
 40
1.0
 40
1.0
 40
1.0
 10
-53.039700000000003
 20
17.941700000000001
 30
0.0
 10
-53.039700000000003
 20
17.941700000000001
 30
0.0
 10
-52.152000000000001
 20
18.8294
 30
0.0
 10
-52.152000000000001
 20
18.8294
 30
0.0
  0
SPLINE
  5
B9
100
AcDbEntity
  8
LC-006-002-RND-0
370
    20
100
AcDbSpline
210
0.0
220
0.0
230
1.0
 70
     0
 71
     3
 72
     8
 73
     4
 74
     0
 42
0.0000000001
 43
0.0000000001
 40
0.0
 40
0.0
 40
0.0
 40
0.0
 40
1.0
 40
1.0
 40
1.0
 40
1.0
 10
-53.039700000000003
 20
19.0334
 30
0.0
 10
-53.039700000000003
 20
19.0334
 30
0.0
 10
-52.152000000000001
 20
19.921200000000002
 30
0.0
 10
-52.152000000000001
 20
19.921200000000002
 30
0.0
  0
SPLINE
  5
BA
100
AcDbEntity
  8
LC-006-002-RND-0
370
    20
100
AcDbSpline
210
0.0
220
0.0
230
1.0
 70
     0
 71
     3
 72
     8
 73
     4
 74
     0
 42
0.0000000001
 43
0.0000000001
 40
0.0
 40
0.0
 40
0.0
 40
0.0
 40
1.0
 40
1.0
 40
1.0
 40
1.0
 10
-53.039700000000003
 20
20.1251
 30
0.0
 10
-53.039700000000003
 20
20.1251
 30
0.0
 10
-52.152000000000001
 20
21.012900000000002
 30
0.0
 10
-52.152000000000001
 20
21.012900000000002
 30
0.0
  0
SPLINE
  5
BB
100
AcDbEntity
  8
LC-006-002-RND-0
370
    20
100
AcDbSpline
210
0.0
220
0.0
230
1.0
 70
     0
 71
     3
 72
     8
 73
     4
 74
     0
 42
0.0000000001
 43
0.0000000001
 40
0.0
 40
0.0
 40
0.0
 40
0.0
 40
1.0
 40
1.0
 40
1.0
 40
1.0
 10
-53.039700000000003
 20
21.217000000000002
 30
0.0
 10
-53.039700000000003
 20
21.217000000000002
 30
0.0
 10
-52.152000000000001
 20
22.104700000000001
 30
0.0
 10
-52.152000000000001
 20
22.104700000000001
 30
0.0
  0
SPLINE
  5
BC
100
AcDbEntity
  8
LC-006-002-RND-0
370
    20
100
AcDbSpline
210
0.0
220
0.0
230
1.0
 70
     0
 71
     3
 72
     8
 73
     4
 74
     0
 42
0.0000000001
 43
0.0000000001
 40
0.0
 40
0.0
 40
0.0
 40
0.0
 40
1.0
 40
1.0
 40
1.0
 40
1.0
 10
-53.039700000000003
 20
22.308700000000002
 30
0.0
 10
-53.039700000000003
 20
22.308700000000002
 30
0.0
 10
-52.152000000000001
 20
23.1965
 30
0.0
 10
-52.152000000000001
 20
23.1965
 30
0.0
  0
SPLINE
  5
BD
100
AcDbEntity
  8
LC-006-002-RND-0
370
    20
100
AcDbSpline
210
0.0
220
0.0
230
1.0
 70
     0
 71
     3
 72
     8
 73
     4
 74
     0
 42
0.0000000001
 43
0.0000000001
 40
0.0
 40
0.0
 40
0.0
 40
0.0
 40
1.0
 40
1.0
 40
1.0
 40
1.0
 10
-53.039700000000003
 20
23.400400000000001
 30
0.0
 10
-53.039700000000003
 20
23.400400000000001
 30
0.0
 10
-52.152000000000001
 20
24.2882
 30
0.0
 10
-52.152000000000001
 20
24.2882
 30
0.0
  0
SPLINE
  5
BE
100
AcDbEntity
  8
LC-006-002-RND-0
370
    20
100
AcDbSpline
210
0.0
220
0.0
230
1.0
 70
     0
 71
     3
 72
     8
 73
     4
 74
     0
 42
0.0000000001
 43
0.0000000001
 40
0.0
 40
0.0
 40
0.0
 40
0.0
 40
1.0
 40
1.0
 40
1.0
 40
1.0
 10
-53.039700000000003
 20
24.4923
 30
0.0
 10
-53.039700000000003
 20
24.4923
 30
0.0
 10
-52.152000000000001
 20
25.380000000000003
 30
0.0
 10
-52.152000000000001
 20
25.380000000000003
 30
0.0
  0
SPLINE
  5
BF
100
AcDbEntity
  8
LC-006-002-RND-0
370
    20
100
AcDbSpline
210
0.0
220
0.0
230
1.0
 70
     0
 71
     3
 72
     8
 73
     4
 74
     0
 42
0.0000000001
 43
0.0000000001
 40
0.0
 40
0.0
 40
0.0
 40
0.0
 40
1.0
 40
1.0
 40
1.0
 40
1.0
 10
-53.039700000000003
 20
25.584
 30
0.0
 10
-53.039700000000003
 20
25.584
 30
0.0
 10
-52.152000000000001
 20
26.471800000000002
 30
0.0
 10
-52.152000000000001
 20
26.471800000000002
 30
0.0
  0
SPLINE
  5
C0
100
AcDbEntity
  8
LC-006-002-RND-0
370
    20
100
AcDbSpline
210
0.0
220
0.0
230
1.0
 70
     0
 71
     3
 72
     8
 73
     4
 74
     0
 42
0.0000000001
 43
0.0000000001
 40
0.0
 40
0.0
 40
0.0
 40
0.0
 40
1.0
 40
1.0
 40
1.0
 40
1.0
 10
-53.039700000000003
 20
26.675700000000003
 30
0.0
 10
-53.039700000000003
 20
26.675700000000003
 30
0.0
 10
-52.152000000000001
 20
27.563500000000001
 30
0.0
 10
-52.152000000000001
 20
27.563500000000001
 30
0.0
  0
SPLINE
  5
C1
100
AcDbEntity
  8
LC-006-002-RND-0
370
    20
100
AcDbSpline
210
0.0
220
0.0
230
1.0
 70
     0
 71
     3
 72
     8
 73
     4
 74
     0
 42
0.0000000001
 43
0.0000000001
 40
0.0
 40
0.0
 40
0.0
 40
0.0
 40
1.0
 40
1.0
 40
1.0
 40
1.0
 10
-53.039700000000003
 20
27.767600000000002
 30
0.0
 10
-53.039700000000003
 20
27.767600000000002
 30
0.0
 10
-52.152000000000001
 20
28.6553
 30
0.0
 10
-52.152000000000001
 20
28.6553
 30
0.0
  0
SPLINE
  5
C2
100
AcDbEntity
  8
LC-006-002-RND-0
370
    20
100
AcDbSpline
210
0.0
220
0.0
230
1.0
 70
     0
 71
     3
 72
     8
 73
     4
 74
     0
 42
0.0000000001
 43
0.0000000001
 40
0.0
 40
0.0
 40
0.0
 40
0.0
 40
1.0
 40
1.0
 40
1.0
 40
1.0
 10
-53.039700000000003
 20
28.859300000000001
 30
0.0
 10
-53.039700000000003
 20
28.859300000000001
 30
0.0
 10
-52.152000000000001
 20
29.7471
 30
0.0
 10
-52.152000000000001
 20
29.7471
 30
0.0
  0
SPLINE
  5
C3
100
AcDbEntity
  8
LC-006-002-RND-0
370
    20
100
AcDbSpline
210
0.0
220
0.0
230
1.0
 70
     0
 71
     3
 72
     8
 73
     4
 74
     0
 42
0.0000000001
 43
0.0000000001
 40
0.0
 40
0.0
 40
0.0
 40
0.0
 40
1.0
 40
1.0
 40
1.0
 40
1.0
 10
-53.039700000000003
 20
29.951000000000001
 30
0.0
 10
-53.039700000000003
 20
29.951000000000001
 30
0.0
 10
-52.152000000000001
 20
30.838700000000003
 30
0.0
 10
-52.152000000000001
 20
30.838700000000003
 30
0.0
  0
SPLINE
  5
C4
100
AcDbEntity
  8
LC-006-002-RND-0
370
    20
100
AcDbSpline
210
0.0
220
0.0
230
1.0
 70
     0
 71
     3
 72
     8
 73
     4
 74
     0
 42
0.0000000001
 43
0.0000000001
 40
0.0
 40
0.0
 40
0.0
 40
0.0
 40
1.0
 40
1.0
 40
1.0
 40
1.0
 10
-53.039700000000003
 20
31.0427
 30
0.0
 10
-53.039700000000003
 20
31.0427
 30
0.0
 10
-52.165700000000001
 20
31.916700000000002
 30
0.0
 10
-52.165700000000001
 20
31.916700000000002
 30
0.0
  0
SPLINE
  5
C5
100
AcDbEntity
  8
LC-006-002-RND-0
370
    20
100
AcDbSpline
210
0.0
220
0.0
230
1.0
 70
     0
 71
     3
 72
     8
 73
     4
 74
     0
 42
0.0000000001
 43
0.0000000001
 40
0.0
 40
0.0
 40
0.0
 40
0.0
 40
1.0
 40
1.0
 40
1.0
 40
1.0
 10
-53.039700000000003
 20
32.134500000000003
 30
0.0
 10
-53.039700000000003
 20
32.134500000000003
 30
0.0
 10
-52.627000000000002
 20
32.5473
 30
0.0
 10
-52.627000000000002
 20
32.5473
 30
0.0
  0
SPLINE
  5
C6
100
AcDbEntity
  8
LC-006-002-RND-0
370
    20
100
AcDbSpline
210
0.0
220
0.0
230
1.0
 70
     0
 71
     3
 72
     8
 73
     4
 74
     0
 42
0.0000000001
 43
0.0000000001
 40
0.0
 40
0.0
 40
0.0
 40
0.0
 40
1.0
 40
1.0
 40
1.0
 40
1.0
 10
-58.570900000000002
 20
32.456099999999999
 30
0.0
 10
-58.570900000000002
 20
32.456099999999999
 30
0.0
 10
-82.690100000000001
 20
32.456099999999999
 30
0.0
 10
-82.690100000000001
 20
32.456099999999999
 30
0.0
  0
SPLINE
  5
C7
100
AcDbEntity
  8
LC-006-002-RND-0
370
    20
100
AcDbSpline
210
0.0
220
0.0
230
1.0
 70
     0
 71
     3
 72
     8
 73
     4
 74
     0
 42
0.0000000001
 43
0.0000000001
 40
0.0
 40
0.0
 40
0.0
 40
0.0
 40
1.0
 40
1.0
 40
1.0
 40
1.0
 10
-57.046400000000006
 20
35.158000000000001
 30
0.0
 10
-57.046400000000006
 20
35.158000000000001
 30
0.0
 10
-82.690100000000001
 20
35.158000000000001
 30
0.0
 10
-82.690100000000001
 20
35.158000000000001
 30
0.0
  0
SPLINE
  5
C8
100
AcDbEntity
  8
LC-006-002-RND-0
370
    20
100
AcDbSpline
210
0.0
220
0.0
230
1.0
 70
     0
 71
     3
 72
     8
 73
     4
 74
     0
 42
0.0000000001
 43
0.0000000001
 40
0.0
 40
0.0
 40
0.0
 40
0.0
 40
1.0
 40
1.0
 40
1.0
 40
1.0
 10
-74.794499999999999
 20
21.740600000000001
 30
0.0
 10
-74.794499999999999
 20
21.740600000000001
 30
0.0
 10
-76.205200000000005
 20
32.456099999999999
 30
0.0
 10
-76.205200000000005
 20
32.456099999999999
 30
0.0
  0
SPLINE
  5
C9
100
AcDbEntity
  8
LC-006-002-RND-0
370
    20
100
AcDbSpline
210
0.0
220
0.0
230
1.0
 70
     0
 71
     3
 72
     8
 73
     4
 74
     0
 42
0.0000000001
 43
0.0000000001
 40
0.0
 40
0.0
 40
0.0
 40
0.0
 40
1.0
 40
1.0
 40
1.0
 40
1.0
 10
-76.205200000000005
 20
32.456099999999999
 30
0.0
 10
-76.205200000000005
 20
32.456099999999999
 30
0.0
 10
-77.615900000000011
 20
21.740600000000001
 30
0.0
 10
-77.615900000000011
 20
21.740600000000001
 30
0.0
  0
SPLINE
  5
CA
100
AcDbEntity
  8
LC-006-002-RND-0
370
    20
100
AcDbSpline
210
0.0
220
0.0
230
1.0
 70
     0
 71
     3
 72
     8
 73
     4
 74
     0
 42
0.0000000001
 43
0.0000000001
 40
0.0
 40
0.0
 40
0.0
 40
0.0
 40
1.0
 40
1.0
 40
1.0
 40
1.0
 10
-77.615900000000011
 20
21.740600000000001
 30
0.0
 10
-77.615900000000011
 20
21.740600000000001
 30
0.0
 10
-74.794499999999999
 20
21.740600000000001
 30
0.0
 10
-74.794499999999999
 20
21.740600000000001
 30
0.0
  0
SPLINE
  5
CB
100
AcDbEntity
  8
LC-006-002-RND-0
370
    20
100
AcDbSpline
210
0.0
220
0.0
230
1.0
 70
     0
 71
     3
 72
     8
 73
     4
 74
     0
 42
0.0000000001
 43
0.0000000001
 40
0.0
 40
0.0
 40
0.0
 40
0.0
 40
1.0
 40
1.0
 40
1.0
 40
1.0
 10
-75.161299999999997
 20
21.7166
 30
0.0
 10
-75.161299999999997
 20
21.7166
 30
0.0
 10
-76.205200000000005
 20
29.646000000000001
 30
0.0
 10
-76.205200000000005
 20
29.646000000000001
 30
0.0
  0
SPLINE
  5
CC
100
AcDbEntity
  8
LC-006-002-RND-0
370
    20
100
AcDbSpline
210
0.0
220
0.0
230
1.0
 70
     0
 71
     3
 72
     8
 73
     4
 74
     0
 42
0.0000000001
 43
0.0000000001
 40
0.0
 40
0.0
 40
0.0
 40
0.0
 40
1.0
 40
1.0
 40
1.0
 40
1.0
 10
-76.205200000000005
 20
29.646000000000001
 30
0.0
 10
-76.205200000000005
 20
29.646000000000001
 30
0.0
 10
-77.249200000000002
 20
21.7166
 30
0.0
 10
-77.249200000000002
 20
21.7166
 30
0.0
  0
SPLINE
  5
CD
100
AcDbEntity
  8
LC-006-002-RND-0
370
    20
100
AcDbSpline
210
0.0
220
0.0
230
1.0
 70
     0
 71
     3
 72
     8
 73
     4
 74
     0
 42
0.0000000001
 43
0.0000000001
 40
0.0
 40
0.0
 40
0.0
 40
0.0
 40
1.0
 40
1.0
 40
1.0
 40
1.0
 10
-75.528100000000009
 20
21.692500000000003
 30
0.0
 10
-75.528100000000009
 20
21.692500000000003
 30
0.0
 10
-76.205200000000005
 20
26.836000000000002
 30
0.0
 10
-76.205200000000005
 20
26.836000000000002
 30
0.0
  0
SPLINE
  5
CE
100
AcDbEntity
  8
LC-006-002-RND-0
370
    20
100
AcDbSpline
210
0.0
220
0.0
230
1.0
 70
     0
 71
     3
 72
     8
 73
     4
 74
     0
 42
0.0000000001
 43
0.0000000001
 40
0.0
 40
0.0
 40
0.0
 40
0.0
 40
1.0
 40
1.0
 40
1.0
 40
1.0
 10
-76.205200000000005
 20
26.836000000000002
 30
0.0
 10
-76.205200000000005
 20
26.836000000000002
 30
0.0
 10
-76.882300000000001
 20
21.692500000000003
 30
0.0
 10
-76.882300000000001
 20
21.692500000000003
 30
0.0
  0
SPLINE
  5
CF
100
AcDbEntity
  8
LC-006-002-RND-0
370
    20
100
AcDbSpline
210
0.0
220
0.0
230
1.0
 70
     0
 71
     3
 72
     8
 73
     4
 74
     0
 42
0.0000000001
 43
0.0000000001
 40
0.0
 40
0.0
 40
0.0
 40
0.0
 40
1.0
 40
1.0
 40
1.0
 40
1.0
 10
-75.894800000000004
 20
21.668500000000002
 30
0.0
 10
-75.894800000000004
 20
21.668500000000002
 30
0.0
 10
-76.205200000000005
 20
24.0259
 30
0.0
 10
-76.205200000000005
 20
24.0259
 30
0.0
  0
SPLINE
  5
D0
100
AcDbEntity
  8
LC-006-002-RND-0
370
    20
100
AcDbSpline
210
0.0
220
0.0
230
1.0
 70
     0
 71
     3
 72
     8
 73
     4
 74
     0
 42
0.0000000001
 43
0.0000000001
 40
0.0
 40
0.0
 40
0.0
 40
0.0
 40
1.0
 40
1.0
 40
1.0
 40
1.0
 10
-76.205200000000005
 20
24.0259
 30
0.0
 10
-76.205200000000005
 20
24.0259
 30
0.0
 10
-76.515600000000006
 20
21.668500000000002
 30
0.0
 10
-76.515600000000006
 20
21.668500000000002
 30
0.0
  0
SPLINE
  5
D1
100
AcDbEntity
  8
LC-006-002-RND-0
370
    20
100
AcDbSpline
210
0.0
220
0.0
230
1.0
 70
     0
 71
     3
 72
     8
 73
     4
 74
     0
 42
0.0000000001
 43
0.0000000001
 40
0.0
 40
0.0
 40
0.0
 40
0.0
 40
1.0
 40
1.0
 40
1.0
 40
1.0
 10
-77.615900000000011
 20
45.8735
 30
0.0
 10
-77.615900000000011
 20
45.8735
 30
0.0
 10
-76.205200000000005
 20
35.158000000000001
 30
0.0
 10
-76.205200000000005
 20
35.158000000000001
 30
0.0
  0
SPLINE
  5
D2
100
AcDbEntity
  8
LC-006-002-RND-0
370
    20
100
AcDbSpline
210
0.0
220
0.0
230
1.0
 70
     0
 71
     3
 72
     8
 73
     4
 74
     0
 42
0.0000000001
 43
0.0000000001
 40
0.0
 40
0.0
 40
0.0
 40
0.0
 40
1.0
 40
1.0
 40
1.0
 40
1.0
 10
-76.205200000000005
 20
35.158000000000001
 30
0.0
 10
-76.205200000000005
 20
35.158000000000001
 30
0.0
 10
-74.794499999999999
 20
45.8735
 30
0.0
 10
-74.794499999999999
 20
45.8735
 30
0.0
  0
SPLINE
  5
D3
100
AcDbEntity
  8
LC-006-002-RND-0
370
    20
100
AcDbSpline
210
0.0
220
0.0
230
1.0
 70
     0
 71
     3
 72
     8
 73
     4
 74
     0
 42
0.0000000001
 43
0.0000000001
 40
0.0
 40
0.0
 40
0.0
 40
0.0
 40
1.0
 40
1.0
 40
1.0
 40
1.0
 10
-74.794499999999999
 20
45.8735
 30
0.0
 10
-74.794499999999999
 20
45.8735
 30
0.0
 10
-77.615900000000011
 20
45.8735
 30
0.0
 10
-77.615900000000011
 20
45.8735
 30
0.0
  0
SPLINE
  5
D4
100
AcDbEntity
  8
LC-006-002-RND-0
370
    20
100
AcDbSpline
210
0.0
220
0.0
230
1.0
 70
     0
 71
     3
 72
     8
 73
     4
 74
     0
 42
0.0000000001
 43
0.0000000001
 40
0.0
 40
0.0
 40
0.0
 40
0.0
 40
1.0
 40
1.0
 40
1.0
 40
1.0
 10
-77.249200000000002
 20
45.897500000000001
 30
0.0
 10
-77.249200000000002
 20
45.897500000000001
 30
0.0
 10
-76.205200000000005
 20
37.9681
 30
0.0
 10
-76.205200000000005
 20
37.9681
 30
0.0
  0
SPLINE
  5
D5
100
AcDbEntity
  8
LC-006-002-RND-0
370
    20
100
AcDbSpline
210
0.0
220
0.0
230
1.0
 70
     0
 71
     3
 72
     8
 73
     4
 74
     0
 42
0.0000000001
 43
0.0000000001
 40
0.0
 40
0.0
 40
0.0
 40
0.0
 40
1.0
 40
1.0
 40
1.0
 40
1.0
 10
-76.205200000000005
 20
37.9681
 30
0.0
 10
-76.205200000000005
 20
37.9681
 30
0.0
 10
-75.161299999999997
 20
45.897500000000001
 30
0.0
 10
-75.161299999999997
 20
45.897500000000001
 30
0.0
  0
SPLINE
  5
D6
100
AcDbEntity
  8
LC-006-002-RND-0
370
    20
100
AcDbSpline
210
0.0
220
0.0
230
1.0
 70
     0
 71
     3
 72
     8
 73
     4
 74
     0
 42
0.0000000001
 43
0.0000000001
 40
0.0
 40
0.0
 40
0.0
 40
0.0
 40
1.0
 40
1.0
 40
1.0
 40
1.0
 10
-76.882300000000001
 20
45.921500000000002
 30
0.0
 10
-76.882300000000001
 20
45.921500000000002
 30
0.0
 10
-76.205200000000005
 20
40.778100000000002
 30
0.0
 10
-76.205200000000005
 20
40.778100000000002
 30
0.0
  0
SPLINE
  5
D7
100
AcDbEntity
  8
LC-006-002-RND-0
370
    20
100
AcDbSpline
210
0.0
220
0.0
230
1.0
 70
     0
 71
     3
 72
     8
 73
     4
 74
     0
 42
0.0000000001
 43
0.0000000001
 40
0.0
 40
0.0
 40
0.0
 40
0.0
 40
1.0
 40
1.0
 40
1.0
 40
1.0
 10
-76.205200000000005
 20
40.778100000000002
 30
0.0
 10
-76.205200000000005
 20
40.778100000000002
 30
0.0
 10
-75.528100000000009
 20
45.921500000000002
 30
0.0
 10
-75.528100000000009
 20
45.921500000000002
 30
0.0
  0
SPLINE
  5
D8
100
AcDbEntity
  8
LC-006-002-RND-0
370
    20
100
AcDbSpline
210
0.0
220
0.0
230
1.0
 70
     0
 71
     3
 72
     8
 73
     4
 74
     0
 42
0.0000000001
 43
0.0000000001
 40
0.0
 40
0.0
 40
0.0
 40
0.0
 40
1.0
 40
1.0
 40
1.0
 40
1.0
 10
-76.515600000000006
 20
45.945599999999999
 30
0.0
 10
-76.515600000000006
 20
45.945599999999999
 30
0.0
 10
-76.205200000000005
 20
43.588100000000004
 30
0.0
 10
-76.205200000000005
 20
43.588100000000004
 30
0.0
  0
SPLINE
  5
D9
100
AcDbEntity
  8
LC-006-002-RND-0
370
    20
100
AcDbSpline
210
0.0
220
0.0
230
1.0
 70
     0
 71
     3
 72
     8
 73
     4
 74
     0
 42
0.0000000001
 43
0.0000000001
 40
0.0
 40
0.0
 40
0.0
 40
0.0
 40
1.0
 40
1.0
 40
1.0
 40
1.0
 10
-76.205200000000005
 20
43.588100000000004
 30
0.0
 10
-76.205200000000005
 20
43.588100000000004
 30
0.0
 10
-75.894800000000004
 20
45.945599999999999
 30
0.0
 10
-75.894800000000004
 20
45.945599999999999
 30
0.0
  0
SPLINE
  5
DA
100
AcDbEntity
  8
LC-006-002-RND-0
370
    20
100
AcDbSpline
210
0.0
220
0.0
230
1.0
 70
     0
 71
     3
 72
     8
 73
     4
 74
     0
 42
0.0000000001
 43
0.0000000001
 40
0.0
 40
0.0
 40
0.0
 40
0.0
 40
1.0
 40
1.0
 40
1.0
 40
1.0
 10
-76.205200000000005
 20
6.1496000000000004
 30
0.0
 10
-76.205200000000005
 20
6.1496000000000004
 30
0.0
 10
-76.205200000000005
 20
50.289100000000005
 30
0.0
 10
-76.205200000000005
 20
50.289100000000005
 30
0.0
  0
SPLINE
  5
DB
100
AcDbEntity
  8
LC-006-002-RND-0
370
    20
100
AcDbSpline
210
0.0
220
0.0
230
1.0
 70
     0
 71
     3
 72
     8
 73
     4
 74
     0
 42
0.0000000001
 43
0.0000000001
 40
0.0
 40
0.0
 40
0.0
 40
0.0
 40
1.0
 40
1.0
 40
1.0
 40
1.0
 10
-3.8481000000000001
 20
15.279200000000001
 30
0.0
 10
-3.8481000000000001
 20
15.279200000000001
 30
0.0
 10
14.9526
 20
15.279200000000001
 30
0.0
 10
14.9526
 20
15.279200000000001
 30
0.0
  0
SPLINE
  5
DC
100
AcDbEntity
  8
LC-006-002-RND-0
370
    20
100
AcDbSpline
210
0.0
220
0.0
230
1.0
 70
     0
 71
     3
 72
     8
 73
     4
 74
     0
 42
0.0000000001
 43
0.0000000001
 40
0.0
 40
0.0
 40
0.0
 40
0.0
 40
1.0
 40
1.0
 40
1.0
 40
1.0
 10
1.2394000000000001
 20
35.158000000000001
 30
0.0
 10
1.2394000000000001
 20
35.158000000000001
 30
0.0
 10
27.027000000000001
 20
35.158000000000001
 30
0.0
 10
27.027000000000001
 20
35.158000000000001
 30
0.0
  0
SPLINE
  5
DD
100
AcDbEntity
  8
LC-006-002-RND-0
370
    20
100
AcDbSpline
210
0.0
220
0.0
230
1.0
 70
     0
 71
     3
 72
     8
 73
     4
 74
     0
 42
0.0000000001
 43
0.0000000001
 40
0.0
 40
0.0
 40
0.0
 40
0.0
 40
1.0
 40
1.0
 40
1.0
 40
1.0
 10
25.299900000000001
 20
6.4592000000000001
 30
0.0
 10
25.299900000000001
 20
6.4592000000000001
 30
0.0
 10
23.889100000000003
 20
17.174600000000002
 30
0.0
 10
23.889100000000003
 20
17.174600000000002
 30
0.0
  0
SPLINE
  5
DE
100
AcDbEntity
  8
LC-006-002-RND-0
370
    20
100
AcDbSpline
210
0.0
220
0.0
230
1.0
 70
     0
 71
     3
 72
     8
 73
     4
 74
     0
 42
0.0000000001
 43
0.0000000001
 40
0.0
 40
0.0
 40
0.0
 40
0.0
 40
1.0
 40
1.0
 40
1.0
 40
1.0
 10
23.889100000000003
 20
17.174600000000002
 30
0.0
 10
23.889100000000003
 20
17.174600000000002
 30
0.0
 10
22.4785
 20
6.4592000000000001
 30
0.0
 10
22.4785
 20
6.4592000000000001
 30
0.0
  0
SPLINE
  5
DF
100
AcDbEntity
  8
LC-006-002-RND-0
370
    20
100
AcDbSpline
210
0.0
220
0.0
230
1.0
 70
     0
 71
     3
 72
     8
 73
     4
 74
     0
 42
0.0000000001
 43
0.0000000001
 40
0.0
 40
0.0
 40
0.0
 40
0.0
 40
1.0
 40
1.0
 40
1.0
 40
1.0
 10
22.4785
 20
6.4592000000000001
 30
0.0
 10
22.4785
 20
6.4592000000000001
 30
0.0
 10
25.299900000000001
 20
6.4592000000000001
 30
0.0
 10
25.299900000000001
 20
6.4592000000000001
 30
0.0
  0
SPLINE
  5
E0
100
AcDbEntity
  8
LC-006-002-RND-0
370
    20
100
AcDbSpline
210
0.0
220
0.0
230
1.0
 70
     0
 71
     3
 72
     8
 73
     4
 74
     0
 42
0.0000000001
 43
0.0000000001
 40
0.0
 40
0.0
 40
0.0
 40
0.0
 40
1.0
 40
1.0
 40
1.0
 40
1.0
 10
24.9331
 20
6.4350000000000005
 30
0.0
 10
24.9331
 20
6.4350000000000005
 30
0.0
 10
23.889100000000003
 20
14.364600000000001
 30
0.0
 10
23.889100000000003
 20
14.364600000000001
 30
0.0
  0
SPLINE
  5
E1
100
AcDbEntity
  8
LC-006-002-RND-0
370
    20
100
AcDbSpline
210
0.0
220
0.0
230
1.0
 70
     0
 71
     3
 72
     8
 73
     4
 74
     0
 42
0.0000000001
 43
0.0000000001
 40
0.0
 40
0.0
 40
0.0
 40
0.0
 40
1.0
 40
1.0
 40
1.0
 40
1.0
 10
23.889100000000003
 20
14.364600000000001
 30
0.0
 10
23.889100000000003
 20
14.364600000000001
 30
0.0
 10
22.845200000000002
 20
6.4350000000000005
 30
0.0
 10
22.845200000000002
 20
6.4350000000000005
 30
0.0
  0
SPLINE
  5
E2
100
AcDbEntity
  8
LC-006-002-RND-0
370
    20
100
AcDbSpline
210
0.0
220
0.0
230
1.0
 70
     0
 71
     3
 72
     8
 73
     4
 74
     0
 42
0.0000000001
 43
0.0000000001
 40
0.0
 40
0.0
 40
0.0
 40
0.0
 40
1.0
 40
1.0
 40
1.0
 40
1.0
 10
24.566300000000002
 20
6.4110000000000005
 30
0.0
 10
24.566300000000002
 20
6.4110000000000005
 30
0.0
 10
23.889100000000003
 20
11.554500000000001
 30
0.0
 10
23.889100000000003
 20
11.554500000000001
 30
0.0
  0
SPLINE
  5
E3
100
AcDbEntity
  8
LC-006-002-RND-0
370
    20
100
AcDbSpline
210
0.0
220
0.0
230
1.0
 70
     0
 71
     3
 72
     8
 73
     4
 74
     0
 42
0.0000000001
 43
0.0000000001
 40
0.0
 40
0.0
 40
0.0
 40
0.0
 40
1.0
 40
1.0
 40
1.0
 40
1.0
 10
23.889100000000003
 20
11.554500000000001
 30
0.0
 10
23.889100000000003
 20
11.554500000000001
 30
0.0
 10
23.212
 20
6.4110000000000005
 30
0.0
 10
23.212
 20
6.4110000000000005
 30
0.0
  0
SPLINE
  5
E4
100
AcDbEntity
  8
LC-006-002-RND-0
370
    20
100
AcDbSpline
210
0.0
220
0.0
230
1.0
 70
     0
 71
     3
 72
     8
 73
     4
 74
     0
 42
0.0000000001
 43
0.0000000001
 40
0.0
 40
0.0
 40
0.0
 40
0.0
 40
1.0
 40
1.0
 40
1.0
 40
1.0
 10
24.1996
 20
6.3870000000000005
 30
0.0
 10
24.1996
 20
6.3870000000000005
 30
0.0
 10
23.889100000000003
 20
8.7444000000000006
 30
0.0
 10
23.889100000000003
 20
8.7444000000000006
 30
0.0
  0
SPLINE
  5
E5
100
AcDbEntity
  8
LC-006-002-RND-0
370
    20
100
AcDbSpline
210
0.0
220
0.0
230
1.0
 70
     0
 71
     3
 72
     8
 73
     4
 74
     0
 42
0.0000000001
 43
0.0000000001
 40
0.0
 40
0.0
 40
0.0
 40
0.0
 40
1.0
 40
1.0
 40
1.0
 40
1.0
 10
23.889100000000003
 20
8.7444000000000006
 30
0.0
 10
23.889100000000003
 20
8.7444000000000006
 30
0.0
 10
23.578800000000001
 20
6.3870000000000005
 30
0.0
 10
23.578800000000001
 20
6.3870000000000005
 30
0.0
  0
SPLINE
  5
E6
100
AcDbEntity
  8
LC-006-002-RND-0
370
    20
100
AcDbSpline
210
0.0
220
0.0
230
1.0
 70
     0
 71
     3
 72
     8
 73
     4
 74
     0
 42
0.0000000001
 43
0.0000000001
 40
0.0
 40
0.0
 40
0.0
 40
0.0
 40
1.0
 40
1.0
 40
1.0
 40
1.0
 10
22.4785
 20
45.8735
 30
0.0
 10
22.4785
 20
45.8735
 30
0.0
 10
23.889100000000003
 20
35.158000000000001
 30
0.0
 10
23.889100000000003
 20
35.158000000000001
 30
0.0
  0
SPLINE
  5
E7
100
AcDbEntity
  8
LC-006-002-RND-0
370
    20
100
AcDbSpline
210
0.0
220
0.0
230
1.0
 70
     0
 71
     3
 72
     8
 73
     4
 74
     0
 42
0.0000000001
 43
0.0000000001
 40
0.0
 40
0.0
 40
0.0
 40
0.0
 40
1.0
 40
1.0
 40
1.0
 40
1.0
 10
23.889100000000003
 20
35.158000000000001
 30
0.0
 10
23.889100000000003
 20
35.158000000000001
 30
0.0
 10
25.299900000000001
 20
45.8735
 30
0.0
 10
25.299900000000001
 20
45.8735
 30
0.0
  0
SPLINE
  5
E8
100
AcDbEntity
  8
LC-006-002-RND-0
370
    20
100
AcDbSpline
210
0.0
220
0.0
230
1.0
 70
     0
 71
     3
 72
     8
 73
     4
 74
     0
 42
0.0000000001
 43
0.0000000001
 40
0.0
 40
0.0
 40
0.0
 40
0.0
 40
1.0
 40
1.0
 40
1.0
 40
1.0
 10
25.299900000000001
 20
45.8735
 30
0.0
 10
25.299900000000001
 20
45.8735
 30
0.0
 10
22.4785
 20
45.8735
 30
0.0
 10
22.4785
 20
45.8735
 30
0.0
  0
SPLINE
  5
E9
100
AcDbEntity
  8
LC-006-002-RND-0
370
    20
100
AcDbSpline
210
0.0
220
0.0
230
1.0
 70
     0
 71
     3
 72
     8
 73
     4
 74
     0
 42
0.0000000001
 43
0.0000000001
 40
0.0
 40
0.0
 40
0.0
 40
0.0
 40
1.0
 40
1.0
 40
1.0
 40
1.0
 10
22.845200000000002
 20
45.897500000000001
 30
0.0
 10
22.845200000000002
 20
45.897500000000001
 30
0.0
 10
23.889100000000003
 20
37.9681
 30
0.0
 10
23.889100000000003
 20
37.9681
 30
0.0
  0
SPLINE
  5
EA
100
AcDbEntity
  8
LC-006-002-RND-0
370
    20
100
AcDbSpline
210
0.0
220
0.0
230
1.0
 70
     0
 71
     3
 72
     8
 73
     4
 74
     0
 42
0.0000000001
 43
0.0000000001
 40
0.0
 40
0.0
 40
0.0
 40
0.0
 40
1.0
 40
1.0
 40
1.0
 40
1.0
 10
23.889100000000003
 20
37.9681
 30
0.0
 10
23.889100000000003
 20
37.9681
 30
0.0
 10
24.9331
 20
45.897500000000001
 30
0.0
 10
24.9331
 20
45.897500000000001
 30
0.0
  0
SPLINE
  5
EB
100
AcDbEntity
  8
LC-006-002-RND-0
370
    20
100
AcDbSpline
210
0.0
220
0.0
230
1.0
 70
     0
 71
     3
 72
     8
 73
     4
 74
     0
 42
0.0000000001
 43
0.0000000001
 40
0.0
 40
0.0
 40
0.0
 40
0.0
 40
1.0
 40
1.0
 40
1.0
 40
1.0
 10
23.212
 20
45.921500000000002
 30
0.0
 10
23.212
 20
45.921500000000002
 30
0.0
 10
23.889100000000003
 20
40.778100000000002
 30
0.0
 10
23.889100000000003
 20
40.778100000000002
 30
0.0
  0
SPLINE
  5
EC
100
AcDbEntity
  8
LC-006-002-RND-0
370
    20
100
AcDbSpline
210
0.0
220
0.0
230
1.0
 70
     0
 71
     3
 72
     8
 73
     4
 74
     0
 42
0.0000000001
 43
0.0000000001
 40
0.0
 40
0.0
 40
0.0
 40
0.0
 40
1.0
 40
1.0
 40
1.0
 40
1.0
 10
23.889100000000003
 20
40.778100000000002
 30
0.0
 10
23.889100000000003
 20
40.778100000000002
 30
0.0
 10
24.566300000000002
 20
45.921500000000002
 30
0.0
 10
24.566300000000002
 20
45.921500000000002
 30
0.0
  0
SPLINE
  5
ED
100
AcDbEntity
  8
LC-006-002-RND-0
370
    20
100
AcDbSpline
210
0.0
220
0.0
230
1.0
 70
     0
 71
     3
 72
     8
 73
     4
 74
     0
 42
0.0000000001
 43
0.0000000001
 40
0.0
 40
0.0
 40
0.0
 40
0.0
 40
1.0
 40
1.0
 40
1.0
 40
1.0
 10
23.578800000000001
 20
45.945599999999999
 30
0.0
 10
23.578800000000001
 20
45.945599999999999
 30
0.0
 10
23.889100000000003
 20
43.588100000000004
 30
0.0
 10
23.889100000000003
 20
43.588100000000004
 30
0.0
  0
SPLINE
  5
EE
100
AcDbEntity
  8
LC-006-002-RND-0
370
    20
100
AcDbSpline
210
0.0
220
0.0
230
1.0
 70
     0
 71
     3
 72
     8
 73
     4
 74
     0
 42
0.0000000001
 43
0.0000000001
 40
0.0
 40
0.0
 40
0.0
 40
0.0
 40
1.0
 40
1.0
 40
1.0
 40
1.0
 10
23.889100000000003
 20
43.588100000000004
 30
0.0
 10
23.889100000000003
 20
43.588100000000004
 30
0.0
 10
24.1996
 20
45.945599999999999
 30
0.0
 10
24.1996
 20
45.945599999999999
 30
0.0
  0
SPLINE
  5
EF
100
AcDbEntity
  8
LC-006-002-RND-0
370
    20
100
AcDbSpline
210
0.0
220
0.0
230
1.0
 70
     0
 71
     3
 72
     8
 73
     4
 74
     0
 42
0.0000000001
 43
0.0000000001
 40
0.0
 40
0.0
 40
0.0
 40
0.0
 40
1.0
 40
1.0
 40
1.0
 40
1.0
 10
23.889100000000003
 20
0.1481
 30
0.0
 10
23.889100000000003
 20
0.1481
 30
0.0
 10
23.889100000000003
 20
51.135600000000004
 30
0.0
 10
23.889100000000003
 20
51.135600000000004
 30
0.0
  0
SPLINE
  5
F0
100
AcDbEntity
  8
LC-006-002-RND-0
370
    20
100
AcDbSpline
210
0.0
220
0.0
230
1.0
 70
     0
 71
     3
 72
     8
 73
     4
 74
     0
 42
0.0000000001
 43
0.0000000001
 40
0.0
 40
0.0
 40
0.0
 40
0.0
 40
1.0
 40
1.0
 40
1.0
 40
1.0
 10
-58.011400000000002
 20
34.386000000000003
 30
0.0
 10
-58.011400000000002
 20
34.386000000000003
 30
0.0
 10
-58.011400000000002
 20
56.889600000000002
 30
0.0
 10
-58.011400000000002
 20
56.889600000000002
 30
0.0
  0
SPLINE
  5
F1
100
AcDbEntity
  8
LC-006-002-RND-0
370
    20
100
AcDbSpline
210
0.0
220
0.0
230
1.0
 70
     0
 71
     3
 72
     8
 73
     4
 74
     0
 42
0.0000000001
 43
0.0000000001
 40
0.0
 40
0.0
 40
0.0
 40
0.0
 40
1.0
 40
1.0
 40
1.0
 40
1.0
 10
2.0114000000000001
 20
34.386000000000003
 30
0.0
 10
2.0114000000000001
 20
34.386000000000003
 30
0.0
 10
2.0114000000000001
 20
56.889600000000002
 30
0.0
 10
2.0114000000000001
 20
56.889600000000002
 30
0.0
  0
SPLINE
  5
F2
100
AcDbEntity
  8
LC-006-002-RND-0
370
    20
100
AcDbSpline
210
0.0
220
0.0
230
1.0
 70
     0
 71
     3
 72
     8
 73
     4
 74
     0
 42
0.0000000001
 43
0.0000000001
 40
0.0
 40
0.0
 40
0.0
 40
0.0
 40
1.0
 40
1.0
 40
1.0
 40
1.0
 10
-58.011400000000002
 20
50.405000000000001
 30
0.0
 10
-58.011400000000002
 20
50.405000000000001
 30
0.0
 10
2.0114000000000001
 20
50.405000000000001
 30
0.0
 10
2.0114000000000001
 20
50.405000000000001
 30
0.0
  0
SPLINE
  5
F3
100
AcDbEntity
  8
LC-006-002-RND-0
370
    20
100
AcDbSpline
210
0.0
220
0.0
230
1.0
 70
     0
 71
     3
 72
     8
 73
     4
 74
     0
 42
0.0000000001
 43
0.0000000001
 40
0.0
 40
0.0
 40
0.0
 40
0.0
 40
1.0
 40
1.0
 40
1.0
 40
1.0
 10
-47.295900000000003
 20
51.815600000000003
 30
0.0
 10
-47.295900000000003
 20
51.815600000000003
 30
0.0
 10
-58.011400000000002
 20
50.405000000000001
 30
0.0
 10
-58.011400000000002
 20
50.405000000000001
 30
0.0
  0
SPLINE
  5
F4
100
AcDbEntity
  8
LC-006-002-RND-0
370
    20
100
AcDbSpline
210
0.0
220
0.0
230
1.0
 70
     0
 71
     3
 72
     8
 73
     4
 74
     0
 42
0.0000000001
 43
0.0000000001
 40
0.0
 40
0.0
 40
0.0
 40
0.0
 40
1.0
 40
1.0
 40
1.0
 40
1.0
 10
-58.011400000000002
 20
50.405000000000001
 30
0.0
 10
-58.011400000000002
 20
50.405000000000001
 30
0.0
 10
-47.295900000000003
 20
48.994199999999999
 30
0.0
 10
-47.295900000000003
 20
48.994199999999999
 30
0.0
  0
SPLINE
  5
F5
100
AcDbEntity
  8
LC-006-002-RND-0
370
    20
100
AcDbSpline
210
0.0
220
0.0
230
1.0
 70
     0
 71
     3
 72
     8
 73
     4
 74
     0
 42
0.0000000001
 43
0.0000000001
 40
0.0
 40
0.0
 40
0.0
 40
0.0
 40
1.0
 40
1.0
 40
1.0
 40
1.0
 10
-47.295900000000003
 20
48.994199999999999
 30
0.0
 10
-47.295900000000003
 20
48.994199999999999
 30
0.0
 10
-47.295900000000003
 20
51.815600000000003
 30
0.0
 10
-47.295900000000003
 20
51.815600000000003
 30
0.0
  0
SPLINE
  5
F6
100
AcDbEntity
  8
LC-006-002-RND-0
370
    20
100
AcDbSpline
210
0.0
220
0.0
230
1.0
 70
     0
 71
     3
 72
     8
 73
     4
 74
     0
 42
0.0000000001
 43
0.0000000001
 40
0.0
 40
0.0
 40
0.0
 40
0.0
 40
1.0
 40
1.0
 40
1.0
 40
1.0
 10
-47.271900000000002
 20
51.448900000000002
 30
0.0
 10
-47.271900000000002
 20
51.448900000000002
 30
0.0
 10
-55.2014
 20
50.405000000000001
 30
0.0
 10
-55.2014
 20
50.405000000000001
 30
0.0
  0
SPLINE
  5
F7
100
AcDbEntity
  8
LC-006-002-RND-0
370
    20
100
AcDbSpline
210
0.0
220
0.0
230
1.0
 70
     0
 71
     3
 72
     8
 73
     4
 74
     0
 42
0.0000000001
 43
0.0000000001
 40
0.0
 40
0.0
 40
0.0
 40
0.0
 40
1.0
 40
1.0
 40
1.0
 40
1.0
 10
-55.2014
 20
50.405000000000001
 30
0.0
 10
-55.2014
 20
50.405000000000001
 30
0.0
 10
-47.271900000000002
 20
49.360900000000001
 30
0.0
 10
-47.271900000000002
 20
49.360900000000001
 30
0.0
  0
SPLINE
  5
F8
100
AcDbEntity
  8
LC-006-002-RND-0
370
    20
100
AcDbSpline
210
0.0
220
0.0
230
1.0
 70
     0
 71
     3
 72
     8
 73
     4
 74
     0
 42
0.0000000001
 43
0.0000000001
 40
0.0
 40
0.0
 40
0.0
 40
0.0
 40
1.0
 40
1.0
 40
1.0
 40
1.0
 10
-47.247900000000001
 20
51.082000000000001
 30
0.0
 10
-47.247900000000001
 20
51.082000000000001
 30
0.0
 10
-52.391300000000001
 20
50.405000000000001
 30
0.0
 10
-52.391300000000001
 20
50.405000000000001
 30
0.0
  0
SPLINE
  5
F9
100
AcDbEntity
  8
LC-006-002-RND-0
370
    20
100
AcDbSpline
210
0.0
220
0.0
230
1.0
 70
     0
 71
     3
 72
     8
 73
     4
 74
     0
 42
0.0000000001
 43
0.0000000001
 40
0.0
 40
0.0
 40
0.0
 40
0.0
 40
1.0
 40
1.0
 40
1.0
 40
1.0
 10
-52.391300000000001
 20
50.405000000000001
 30
0.0
 10
-52.391300000000001
 20
50.405000000000001
 30
0.0
 10
-47.247900000000001
 20
49.727800000000002
 30
0.0
 10
-47.247900000000001
 20
49.727800000000002
 30
0.0
  0
SPLINE
  5
FA
100
AcDbEntity
  8
LC-006-002-RND-0
370
    20
100
AcDbSpline
210
0.0
220
0.0
230
1.0
 70
     0
 71
     3
 72
     8
 73
     4
 74
     0
 42
0.0000000001
 43
0.0000000001
 40
0.0
 40
0.0
 40
0.0
 40
0.0
 40
1.0
 40
1.0
 40
1.0
 40
1.0
 10
-47.2239
 20
50.715299999999999
 30
0.0
 10
-47.2239
 20
50.715299999999999
 30
0.0
 10
-49.581200000000003
 20
50.405000000000001
 30
0.0
 10
-49.581200000000003
 20
50.405000000000001
 30
0.0
  0
SPLINE
  5
FB
100
AcDbEntity
  8
LC-006-002-RND-0
370
    20
100
AcDbSpline
210
0.0
220
0.0
230
1.0
 70
     0
 71
     3
 72
     8
 73
     4
 74
     0
 42
0.0000000001
 43
0.0000000001
 40
0.0
 40
0.0
 40
0.0
 40
0.0
 40
1.0
 40
1.0
 40
1.0
 40
1.0
 10
-49.581200000000003
 20
50.405000000000001
 30
0.0
 10
-49.581200000000003
 20
50.405000000000001
 30
0.0
 10
-47.2239
 20
50.094500000000004
 30
0.0
 10
-47.2239
 20
50.094500000000004
 30
0.0
  0
SPLINE
  5
FC
100
AcDbEntity
  8
LC-006-002-RND-0
370
    20
100
AcDbSpline
210
0.0
220
0.0
230
1.0
 70
     0
 71
     3
 72
     8
 73
     4
 74
     0
 42
0.0000000001
 43
0.0000000001
 40
0.0
 40
0.0
 40
0.0
 40
0.0
 40
1.0
 40
1.0
 40
1.0
 40
1.0
 10
-8.7041000000000004
 20
48.994199999999999
 30
0.0
 10
-8.7041000000000004
 20
48.994199999999999
 30
0.0
 10
2.0114000000000001
 20
50.405000000000001
 30
0.0
 10
2.0114000000000001
 20
50.405000000000001
 30
0.0
  0
SPLINE
  5
FD
100
AcDbEntity
  8
LC-006-002-RND-0
370
    20
100
AcDbSpline
210
0.0
220
0.0
230
1.0
 70
     0
 71
     3
 72
     8
 73
     4
 74
     0
 42
0.0000000001
 43
0.0000000001
 40
0.0
 40
0.0
 40
0.0
 40
0.0
 40
1.0
 40
1.0
 40
1.0
 40
1.0
 10
2.0114000000000001
 20
50.405000000000001
 30
0.0
 10
2.0114000000000001
 20
50.405000000000001
 30
0.0
 10
-8.7041000000000004
 20
51.815600000000003
 30
0.0
 10
-8.7041000000000004
 20
51.815600000000003
 30
0.0
  0
SPLINE
  5
FE
100
AcDbEntity
  8
LC-006-002-RND-0
370
    20
100
AcDbSpline
210
0.0
220
0.0
230
1.0
 70
     0
 71
     3
 72
     8
 73
     4
 74
     0
 42
0.0000000001
 43
0.0000000001
 40
0.0
 40
0.0
 40
0.0
 40
0.0
 40
1.0
 40
1.0
 40
1.0
 40
1.0
 10
-8.7041000000000004
 20
51.815600000000003
 30
0.0
 10
-8.7041000000000004
 20
51.815600000000003
 30
0.0
 10
-8.7041000000000004
 20
48.994199999999999
 30
0.0
 10
-8.7041000000000004
 20
48.994199999999999
 30
0.0
  0
SPLINE
  5
FF
100
AcDbEntity
  8
LC-006-002-RND-0
370
    20
100
AcDbSpline
210
0.0
220
0.0
230
1.0
 70
     0
 71
     3
 72
     8
 73
     4
 74
     0
 42
0.0000000001
 43
0.0000000001
 40
0.0
 40
0.0
 40
0.0
 40
0.0
 40
1.0
 40
1.0
 40
1.0
 40
1.0
 10
-8.7282000000000011
 20
49.360900000000001
 30
0.0
 10
-8.7282000000000011
 20
49.360900000000001
 30
0.0
 10
-0.7987000000000001
 20
50.405000000000001
 30
0.0
 10
-0.7987000000000001
 20
50.405000000000001
 30
0.0
  0
SPLINE
  5
100
100
AcDbEntity
  8
LC-006-002-RND-0
370
    20
100
AcDbSpline
210
0.0
220
0.0
230
1.0
 70
     0
 71
     3
 72
     8
 73
     4
 74
     0
 42
0.0000000001
 43
0.0000000001
 40
0.0
 40
0.0
 40
0.0
 40
0.0
 40
1.0
 40
1.0
 40
1.0
 40
1.0
 10
-0.7987000000000001
 20
50.405000000000001
 30
0.0
 10
-0.7987000000000001
 20
50.405000000000001
 30
0.0
 10
-8.7282000000000011
 20
51.448900000000002
 30
0.0
 10
-8.7282000000000011
 20
51.448900000000002
 30
0.0
  0
SPLINE
  5
101
100
AcDbEntity
  8
LC-006-002-RND-0
370
    20
100
AcDbSpline
210
0.0
220
0.0
230
1.0
 70
     0
 71
     3
 72
     8
 73
     4
 74
     0
 42
0.0000000001
 43
0.0000000001
 40
0.0
 40
0.0
 40
0.0
 40
0.0
 40
1.0
 40
1.0
 40
1.0
 40
1.0
 10
-8.7522000000000002
 20
49.727800000000002
 30
0.0
 10
-8.7522000000000002
 20
49.727800000000002
 30
0.0
 10
-3.6088
 20
50.405000000000001
 30
0.0
 10
-3.6088
 20
50.405000000000001
 30
0.0
  0
SPLINE
  5
102
100
AcDbEntity
  8
LC-006-002-RND-0
370
    20
100
AcDbSpline
210
0.0
220
0.0
230
1.0
 70
     0
 71
     3
 72
     8
 73
     4
 74
     0
 42
0.0000000001
 43
0.0000000001
 40
0.0
 40
0.0
 40
0.0
 40
0.0
 40
1.0
 40
1.0
 40
1.0
 40
1.0
 10
-3.6088
 20
50.405000000000001
 30
0.0
 10
-3.6088
 20
50.405000000000001
 30
0.0
 10
-8.7522000000000002
 20
51.082000000000001
 30
0.0
 10
-8.7522000000000002
 20
51.082000000000001
 30
0.0
  0
SPLINE
  5
103
100
AcDbEntity
  8
LC-006-002-RND-0
370
    20
100
AcDbSpline
210
0.0
220
0.0
230
1.0
 70
     0
 71
     3
 72
     8
 73
     4
 74
     0
 42
0.0000000001
 43
0.0000000001
 40
0.0
 40
0.0
 40
0.0
 40
0.0
 40
1.0
 40
1.0
 40
1.0
 40
1.0
 10
-8.7762000000000011
 20
50.094500000000004
 30
0.0
 10
-8.7762000000000011
 20
50.094500000000004
 30
0.0
 10
-6.4188000000000001
 20
50.405000000000001
 30
0.0
 10
-6.4188000000000001
 20
50.405000000000001
 30
0.0
  0
SPLINE
  5
104
100
AcDbEntity
  8
LC-006-002-RND-0
370
    20
100
AcDbSpline
210
0.0
220
0.0
230
1.0
 70
     0
 71
     3
 72
     8
 73
     4
 74
     0
 42
0.0000000001
 43
0.0000000001
 40
0.0
 40
0.0
 40
0.0
 40
0.0
 40
1.0
 40
1.0
 40
1.0
 40
1.0
 10
-6.4188000000000001
 20
50.405000000000001
 30
0.0
 10
-6.4188000000000001
 20
50.405000000000001
 30
0.0
 10
-8.7762000000000011
 20
50.715299999999999
 30
0.0
 10
-8.7762000000000011
 20
50.715299999999999
 30
0.0
  0
SPLINE
  5
105
100
AcDbEntity
  8
LC-006-002-RND-0
370
    20
100
AcDbSpline
210
0.0
220
0.0
230
1.0
 70
     0
 71
     3
 72
     8
 73
     4
 74
     0
 42
0.0000000001
 43
0.0000000001
 40
0.0
 40
0.0
 40
0.0
 40
0.0
 40
1.0
 40
1.0
 40
1.0
 40
1.0
 10
-53.039700000000003
 20
16.051200000000001
 30
0.0
 10
-53.039700000000003
 20
16.051200000000001
 30
0.0
 10
-53.039700000000003
 20
-9.7335000000000012
 30
0.0
 10
-53.039700000000003
 20
-9.7335000000000012
 30
0.0
  0
SPLINE
  5
106
100
AcDbEntity
  8
LC-006-002-RND-0
370
    20
100
AcDbSpline
210
0.0
220
0.0
230
1.0
 70
     0
 71
     3
 72
     8
 73
     4
 74
     0
 42
0.0000000001
 43
0.0000000001
 40
0.0
 40
0.0
 40
0.0
 40
0.0
 40
1.0
 40
1.0
 40
1.0
 40
1.0
 10
-2.9601999999999999
 20
16.051200000000001
 30
0.0
 10
-2.9601999999999999
 20
16.051200000000001
 30
0.0
 10
-2.9601999999999999
 20
-9.7335000000000012
 30
0.0
 10
-2.9601999999999999
 20
-9.7335000000000012
 30
0.0
  0
SPLINE
  5
107
100
AcDbEntity
  8
LC-006-002-RND-0
370
    20
100
AcDbSpline
210
0.0
220
0.0
230
1.0
 70
     0
 71
     3
 72
     8
 73
     4
 74
     0
 42
0.0000000001
 43
0.0000000001
 40
0.0
 40
0.0
 40
0.0
 40
0.0
 40
1.0
 40
1.0
 40
1.0
 40
1.0
 10
-53.039700000000003
 20
-3.2488000000000001
 30
0.0
 10
-53.039700000000003
 20
-3.2488000000000001
 30
0.0
 10
-2.9601999999999999
 20
-3.2488000000000001
 30
0.0
 10
-2.9601999999999999
 20
-3.2488000000000001
 30
0.0
  0
SPLINE
  5
108
100
AcDbEntity
  8
LC-006-002-RND-0
370
    20
100
AcDbSpline
210
0.0
220
0.0
230
1.0
 70
     0
 71
     3
 72
     8
 73
     4
 74
     0
 42
0.0000000001
 43
0.0000000001
 40
0.0
 40
0.0
 40
0.0
 40
0.0
 40
1.0
 40
1.0
 40
1.0
 40
1.0
 10
-42.324200000000005
 20
-1.8380000000000001
 30
0.0
 10
-42.324200000000005
 20
-1.8380000000000001
 30
0.0
 10
-53.039700000000003
 20
-3.2488000000000001
 30
0.0
 10
-53.039700000000003
 20
-3.2488000000000001
 30
0.0
  0
SPLINE
  5
109
100
AcDbEntity
  8
LC-006-002-RND-0
370
    20
100
AcDbSpline
210
0.0
220
0.0
230
1.0
 70
     0
 71
     3
 72
     8
 73
     4
 74
     0
 42
0.0000000001
 43
0.0000000001
 40
0.0
 40
0.0
 40
0.0
 40
0.0
 40
1.0
 40
1.0
 40
1.0
 40
1.0
 10
-53.039700000000003
 20
-3.2488000000000001
 30
0.0
 10
-53.039700000000003
 20
-3.2488000000000001
 30
0.0
 10
-42.324200000000005
 20
-4.6594000000000007
 30
0.0
 10
-42.324200000000005
 20
-4.6594000000000007
 30
0.0
  0
SPLINE
  5
10A
100
AcDbEntity
  8
LC-006-002-RND-0
370
    20
100
AcDbSpline
210
0.0
220
0.0
230
1.0
 70
     0
 71
     3
 72
     8
 73
     4
 74
     0
 42
0.0000000001
 43
0.0000000001
 40
0.0
 40
0.0
 40
0.0
 40
0.0
 40
1.0
 40
1.0
 40
1.0
 40
1.0
 10
-42.324200000000005
 20
-4.6594000000000007
 30
0.0
 10
-42.324200000000005
 20
-4.6594000000000007
 30
0.0
 10
-42.324200000000005
 20
-1.8380000000000001
 30
0.0
 10
-42.324200000000005
 20
-1.8380000000000001
 30
0.0
  0
SPLINE
  5
10B
100
AcDbEntity
  8
LC-006-002-RND-0
370
    20
100
AcDbSpline
210
0.0
220
0.0
230
1.0
 70
     0
 71
     3
 72
     8
 73
     4
 74
     0
 42
0.0000000001
 43
0.0000000001
 40
0.0
 40
0.0
 40
0.0
 40
0.0
 40
1.0
 40
1.0
 40
1.0
 40
1.0
 10
-42.300200000000004
 20
-2.2048000000000001
 30
0.0
 10
-42.300200000000004
 20
-2.2048000000000001
 30
0.0
 10
-50.229700000000001
 20
-3.2488000000000001
 30
0.0
 10
-50.229700000000001
 20
-3.2488000000000001
 30
0.0
  0
SPLINE
  5
10C
100
AcDbEntity
  8
LC-006-002-RND-0
370
    20
100
AcDbSpline
210
0.0
220
0.0
230
1.0
 70
     0
 71
     3
 72
     8
 73
     4
 74
     0
 42
0.0000000001
 43
0.0000000001
 40
0.0
 40
0.0
 40
0.0
 40
0.0
 40
1.0
 40
1.0
 40
1.0
 40
1.0
 10
-50.229700000000001
 20
-3.2488000000000001
 30
0.0
 10
-50.229700000000001
 20
-3.2488000000000001
 30
0.0
 10
-42.300200000000004
 20
-4.2927
 30
0.0
 10
-42.300200000000004
 20
-4.2927
 30
0.0
  0
SPLINE
  5
10D
100
AcDbEntity
  8
LC-006-002-RND-0
370
    20
100
AcDbSpline
210
0.0
220
0.0
230
1.0
 70
     0
 71
     3
 72
     8
 73
     4
 74
     0
 42
0.0000000001
 43
0.0000000001
 40
0.0
 40
0.0
 40
0.0
 40
0.0
 40
1.0
 40
1.0
 40
1.0
 40
1.0
 10
-42.276200000000003
 20
-2.5716000000000001
 30
0.0
 10
-42.276200000000003
 20
-2.5716000000000001
 30
0.0
 10
-47.419600000000003
 20
-3.2488000000000001
 30
0.0
 10
-47.419600000000003
 20
-3.2488000000000001
 30
0.0
  0
SPLINE
  5
10E
100
AcDbEntity
  8
LC-006-002-RND-0
370
    20
100
AcDbSpline
210
0.0
220
0.0
230
1.0
 70
     0
 71
     3
 72
     8
 73
     4
 74
     0
 42
0.0000000001
 43
0.0000000001
 40
0.0
 40
0.0
 40
0.0
 40
0.0
 40
1.0
 40
1.0
 40
1.0
 40
1.0
 10
-47.419600000000003
 20
-3.2488000000000001
 30
0.0
 10
-47.419600000000003
 20
-3.2488000000000001
 30
0.0
 10
-42.276200000000003
 20
-3.9259000000000004
 30
0.0
 10
-42.276200000000003
 20
-3.9259000000000004
 30
0.0
  0
SPLINE
  5
10F
100
AcDbEntity
  8
LC-006-002-RND-0
370
    20
100
AcDbSpline
210
0.0
220
0.0
230
1.0
 70
     0
 71
     3
 72
     8
 73
     4
 74
     0
 42
0.0000000001
 43
0.0000000001
 40
0.0
 40
0.0
 40
0.0
 40
0.0
 40
1.0
 40
1.0
 40
1.0
 40
1.0
 10
-42.252200000000002
 20
-2.9383000000000004
 30
0.0
 10
-42.252200000000002
 20
-2.9383000000000004
 30
0.0
 10
-44.6096
 20
-3.2488000000000001
 30
0.0
 10
-44.6096
 20
-3.2488000000000001
 30
0.0
  0
SPLINE
  5
110
100
AcDbEntity
  8
LC-006-002-RND-0
370
    20
100
AcDbSpline
210
0.0
220
0.0
230
1.0
 70
     0
 71
     3
 72
     8
 73
     4
 74
     0
 42
0.0000000001
 43
0.0000000001
 40
0.0
 40
0.0
 40
0.0
 40
0.0
 40
1.0
 40
1.0
 40
1.0
 40
1.0
 10
-44.6096
 20
-3.2488000000000001
 30
0.0
 10
-44.6096
 20
-3.2488000000000001
 30
0.0
 10
-42.252200000000002
 20
-3.5591000000000004
 30
0.0
 10
-42.252200000000002
 20
-3.5591000000000004
 30
0.0
  0
SPLINE
  5
111
100
AcDbEntity
  8
LC-006-002-RND-0
370
    20
100
AcDbSpline
210
0.0
220
0.0
230
1.0
 70
     0
 71
     3
 72
     8
 73
     4
 74
     0
 42
0.0000000001
 43
0.0000000001
 40
0.0
 40
0.0
 40
0.0
 40
0.0
 40
1.0
 40
1.0
 40
1.0
 40
1.0
 10
-13.675700000000001
 20
-4.6594000000000007
 30
0.0
 10
-13.675700000000001
 20
-4.6594000000000007
 30
0.0
 10
-2.9601999999999999
 20
-3.2488000000000001
 30
0.0
 10
-2.9601999999999999
 20
-3.2488000000000001
 30
0.0
  0
SPLINE
  5
112
100
AcDbEntity
  8
LC-006-002-RND-0
370
    20
100
AcDbSpline
210
0.0
220
0.0
230
1.0
 70
     0
 71
     3
 72
     8
 73
     4
 74
     0
 42
0.0000000001
 43
0.0000000001
 40
0.0
 40
0.0
 40
0.0
 40
0.0
 40
1.0
 40
1.0
 40
1.0
 40
1.0
 10
-2.9601999999999999
 20
-3.2488000000000001
 30
0.0
 10
-2.9601999999999999
 20
-3.2488000000000001
 30
0.0
 10
-13.675700000000001
 20
-1.8380000000000001
 30
0.0
 10
-13.675700000000001
 20
-1.8380000000000001
 30
0.0
  0
SPLINE
  5
113
100
AcDbEntity
  8
LC-006-002-RND-0
370
    20
100
AcDbSpline
210
0.0
220
0.0
230
1.0
 70
     0
 71
     3
 72
     8
 73
     4
 74
     0
 42
0.0000000001
 43
0.0000000001
 40
0.0
 40
0.0
 40
0.0
 40
0.0
 40
1.0
 40
1.0
 40
1.0
 40
1.0
 10
-13.675700000000001
 20
-1.8380000000000001
 30
0.0
 10
-13.675700000000001
 20
-1.8380000000000001
 30
0.0
 10
-13.675700000000001
 20
-4.6594000000000007
 30
0.0
 10
-13.675700000000001
 20
-4.6594000000000007
 30
0.0
  0
SPLINE
  5
114
100
AcDbEntity
  8
LC-006-002-RND-0
370
    20
100
AcDbSpline
210
0.0
220
0.0
230
1.0
 70
     0
 71
     3
 72
     8
 73
     4
 74
     0
 42
0.0000000001
 43
0.0000000001
 40
0.0
 40
0.0
 40
0.0
 40
0.0
 40
1.0
 40
1.0
 40
1.0
 40
1.0
 10
-13.699900000000001
 20
-4.2927
 30
0.0
 10
-13.699900000000001
 20
-4.2927
 30
0.0
 10
-5.7703000000000007
 20
-3.2488000000000001
 30
0.0
 10
-5.7703000000000007
 20
-3.2488000000000001
 30
0.0
  0
SPLINE
  5
115
100
AcDbEntity
  8
LC-006-002-RND-0
370
    20
100
AcDbSpline
210
0.0
220
0.0
230
1.0
 70
     0
 71
     3
 72
     8
 73
     4
 74
     0
 42
0.0000000001
 43
0.0000000001
 40
0.0
 40
0.0
 40
0.0
 40
0.0
 40
1.0
 40
1.0
 40
1.0
 40
1.0
 10
-5.7703000000000007
 20
-3.2488000000000001
 30
0.0
 10
-5.7703000000000007
 20
-3.2488000000000001
 30
0.0
 10
-13.699900000000001
 20
-2.2048000000000001
 30
0.0
 10
-13.699900000000001
 20
-2.2048000000000001
 30
0.0
  0
SPLINE
  5
116
100
AcDbEntity
  8
LC-006-002-RND-0
370
    20
100
AcDbSpline
210
0.0
220
0.0
230
1.0
 70
     0
 71
     3
 72
     8
 73
     4
 74
     0
 42
0.0000000001
 43
0.0000000001
 40
0.0
 40
0.0
 40
0.0
 40
0.0
 40
1.0
 40
1.0
 40
1.0
 40
1.0
 10
-13.7239
 20
-3.9259000000000004
 30
0.0
 10
-13.7239
 20
-3.9259000000000004
 30
0.0
 10
-8.5804000000000009
 20
-3.2488000000000001
 30
0.0
 10
-8.5804000000000009
 20
-3.2488000000000001
 30
0.0
  0
SPLINE
  5
117
100
AcDbEntity
  8
LC-006-002-RND-0
370
    20
100
AcDbSpline
210
0.0
220
0.0
230
1.0
 70
     0
 71
     3
 72
     8
 73
     4
 74
     0
 42
0.0000000001
 43
0.0000000001
 40
0.0
 40
0.0
 40
0.0
 40
0.0
 40
1.0
 40
1.0
 40
1.0
 40
1.0
 10
-8.5804000000000009
 20
-3.2488000000000001
 30
0.0
 10
-8.5804000000000009
 20
-3.2488000000000001
 30
0.0
 10
-13.7239
 20
-2.5716000000000001
 30
0.0
 10
-13.7239
 20
-2.5716000000000001
 30
0.0
  0
SPLINE
  5
118
100
AcDbEntity
  8
LC-006-002-RND-0
370
    20
100
AcDbSpline
210
0.0
220
0.0
230
1.0
 70
     0
 71
     3
 72
     8
 73
     4
 74
     0
 42
0.0000000001
 43
0.0000000001
 40
0.0
 40
0.0
 40
0.0
 40
0.0
 40
1.0
 40
1.0
 40
1.0
 40
1.0
 10
-13.747900000000001
 20
-3.5591000000000004
 30
0.0
 10
-13.747900000000001
 20
-3.5591000000000004
 30
0.0
 10
-11.390500000000001
 20
-3.2488000000000001
 30
0.0
 10
-11.390500000000001
 20
-3.2488000000000001
 30
0.0
  0
SPLINE
  5
119
100
AcDbEntity
  8
LC-006-002-RND-0
370
    20
100
AcDbSpline
210
0.0
220
0.0
230
1.0
 70
     0
 71
     3
 72
     8
 73
     4
 74
     0
 42
0.0000000001
 43
0.0000000001
 40
0.0
 40
0.0
 40
0.0
 40
0.0
 40
1.0
 40
1.0
 40
1.0
 40
1.0
 10
-11.390500000000001
 20
-3.2488000000000001
 30
0.0
 10
-11.390500000000001
 20
-3.2488000000000001
 30
0.0
 10
-13.747900000000001
 20
-2.9383000000000004
 30
0.0
 10
-13.747900000000001
 20
-2.9383000000000004
 30
0.0
  0
SPLINE
  5
11A
100
AcDbEntity
  8
LC-006-002-RND-0
370
    35
100
AcDbSpline
210
0.0
220
0.0
230
1.0
 70
     0
 71
     3
 72
    12
 73
     8
 74
     0
 42
0.0000000001
 43
0.0000000001
 40
0.0
 40
0.0
 40
0.0
 40
0.0
 40
0.5
 40
0.5
 40
0.5
 40
0.5
 40
1.0
 40
1.0
 40
1.0
 40
1.0
 10
0.0815
 20
32.648900000000005
 30
0.0
 10
0.235
 20
32.648900000000005
 30
0.0
 10
0.3823
 20
32.710000000000001
 30
0.0
 10
0.4908
 20
32.818600000000004
 30
0.0
 10
0.4908
 20
32.818600000000004
 30
0.0
 10
0.5994
 20
32.927100000000003
 30
0.0
 10
0.6605000000000001
 20
33.074400000000004
 30
0.0
 10
0.6605000000000001
 20
33.227899999999998
 30
0.0
  0
SPLINE
  5
11B
100
AcDbEntity
  8
LC-006-002-RND-0
370
    35
100
AcDbSpline
210
0.0
220
0.0
230
1.0
 70
     0
 71
     3
 72
     8
 73
     4
 74
     0
 42
0.0000000001
 43
0.0000000001
 40
0.0
 40
0.0
 40
0.0
 40
0.0
 40
1.0
 40
1.0
 40
1.0
 40
1.0
 10
-56.660400000000003
 20
33.227899999999998
 30
0.0
 10
-56.660400000000003
 20
32.908200000000001
 30
0.0
 10
-56.401300000000006
 20
32.648900000000005
 30
0.0
 10
-56.081400000000002
 20
32.648900000000005
 30
0.0
  0
SPLINE
  5
11C
100
AcDbEntity
  8
LC-006-002-RND-0
370
    20
100
AcDbSpline
210
0.0
220
0.0
230
1.0
 70
     0
 71
     3
 72
     8
 73
     4
 74
     0
 42
0.0000000001
 43
0.0000000001
 40
0.0
 40
0.0
 40
0.0
 40
0.0
 40
1.0
 40
1.0
 40
1.0
 40
1.0
 10
-3.7195
 20
17.233700000000002
 30
0.0
 10
-3.7195
 20
17.233700000000002
 30
0.0
 10
-52.023400000000002
 20
17.233700000000002
 30
0.0
 10
-52.023400000000002
 20
17.233700000000002
 30
0.0
  0
SPLINE
  5
11D
100
AcDbEntity
  8
LC-006-002-RND-0
370
    20
100
AcDbSpline
210
0.0
220
0.0
230
1.0
 70
     0
 71
     3
 72
     8
 73
     4
 74
     0
 42
0.0000000001
 43
0.0000000001
 40
0.0
 40
0.0
 40
0.0
 40
0.0
 40
1.0
 40
1.0
 40
1.0
 40
1.0
 10
-3.7195
 20
17.233700000000002
 30
0.0
 10
-3.7195
 20
17.233700000000002
 30
0.0
 10
26.998700000000003
 20
17.233700000000002
 30
0.0
 10
26.998700000000003
 20
17.233700000000002
 30
0.0
  0
SPLINE
  5
11E
100
AcDbEntity
  8
LC-006-002-RND-0
370
    20
100
AcDbSpline
210
0.0
220
0.0
230
1.0
 70
     0
 71
     3
 72
     8
 73
     4
 74
     0
 42
0.0000000001
 43
0.0000000001
 40
0.0
 40
0.0
 40
0.0
 40
0.0
 40
1.0
 40
1.0
 40
1.0
 40
1.0
 10
13.398900000000001
 20
4.5882000000000005
 30
0.0
 10
13.398900000000001
 20
4.5882000000000005
 30
0.0
 10
11.988200000000001
 20
15.303700000000001
 30
0.0
 10
11.988200000000001
 20
15.303700000000001
 30
0.0
  0
SPLINE
  5
11F
100
AcDbEntity
  8
LC-006-002-RND-0
370
    20
100
AcDbSpline
210
0.0
220
0.0
230
1.0
 70
     0
 71
     3
 72
     8
 73
     4
 74
     0
 42
0.0000000001
 43
0.0000000001
 40
0.0
 40
0.0
 40
0.0
 40
0.0
 40
1.0
 40
1.0
 40
1.0
 40
1.0
 10
11.988200000000001
 20
15.303700000000001
 30
0.0
 10
11.988200000000001
 20
15.303700000000001
 30
0.0
 10
10.577400000000001
 20
4.5882000000000005
 30
0.0
 10
10.577400000000001
 20
4.5882000000000005
 30
0.0
  0
SPLINE
  5
120
100
AcDbEntity
  8
LC-006-002-RND-0
370
    20
100
AcDbSpline
210
0.0
220
0.0
230
1.0
 70
     0
 71
     3
 72
     8
 73
     4
 74
     0
 42
0.0000000001
 43
0.0000000001
 40
0.0
 40
0.0
 40
0.0
 40
0.0
 40
1.0
 40
1.0
 40
1.0
 40
1.0
 10
10.577400000000001
 20
4.5882000000000005
 30
0.0
 10
10.577400000000001
 20
4.5882000000000005
 30
0.0
 10
13.398900000000001
 20
4.5882000000000005
 30
0.0
 10
13.398900000000001
 20
4.5882000000000005
 30
0.0
  0
SPLINE
  5
121
100
AcDbEntity
  8
LC-006-002-RND-0
370
    20
100
AcDbSpline
210
0.0
220
0.0
230
1.0
 70
     0
 71
     3
 72
     8
 73
     4
 74
     0
 42
0.0000000001
 43
0.0000000001
 40
0.0
 40
0.0
 40
0.0
 40
0.0
 40
1.0
 40
1.0
 40
1.0
 40
1.0
 10
13.0321
 20
4.5642000000000005
 30
0.0
 10
13.0321
 20
4.5642000000000005
 30
0.0
 10
11.988200000000001
 20
12.493600000000001
 30
0.0
 10
11.988200000000001
 20
12.493600000000001
 30
0.0
  0
SPLINE
  5
122
100
AcDbEntity
  8
LC-006-002-RND-0
370
    20
100
AcDbSpline
210
0.0
220
0.0
230
1.0
 70
     0
 71
     3
 72
     8
 73
     4
 74
     0
 42
0.0000000001
 43
0.0000000001
 40
0.0
 40
0.0
 40
0.0
 40
0.0
 40
1.0
 40
1.0
 40
1.0
 40
1.0
 10
11.988200000000001
 20
12.493600000000001
 30
0.0
 10
11.988200000000001
 20
12.493600000000001
 30
0.0
 10
10.9443
 20
4.5642000000000005
 30
0.0
 10
10.9443
 20
4.5642000000000005
 30
0.0
  0
SPLINE
  5
123
100
AcDbEntity
  8
LC-006-002-RND-0
370
    20
100
AcDbSpline
210
0.0
220
0.0
230
1.0
 70
     0
 71
     3
 72
     8
 73
     4
 74
     0
 42
0.0000000001
 43
0.0000000001
 40
0.0
 40
0.0
 40
0.0
 40
0.0
 40
1.0
 40
1.0
 40
1.0
 40
1.0
 10
12.6654
 20
4.5402000000000005
 30
0.0
 10
12.6654
 20
4.5402000000000005
 30
0.0
 10
11.988200000000001
 20
9.6836000000000002
 30
0.0
 10
11.988200000000001
 20
9.6836000000000002
 30
0.0
  0
SPLINE
  5
124
100
AcDbEntity
  8
LC-006-002-RND-0
370
    20
100
AcDbSpline
210
0.0
220
0.0
230
1.0
 70
     0
 71
     3
 72
     8
 73
     4
 74
     0
 42
0.0000000001
 43
0.0000000001
 40
0.0
 40
0.0
 40
0.0
 40
0.0
 40
1.0
 40
1.0
 40
1.0
 40
1.0
 10
11.988200000000001
 20
9.6836000000000002
 30
0.0
 10
11.988200000000001
 20
9.6836000000000002
 30
0.0
 10
11.311
 20
4.5402000000000005
 30
0.0
 10
11.311
 20
4.5402000000000005
 30
0.0
  0
SPLINE
  5
125
100
AcDbEntity
  8
LC-006-002-RND-0
370
    20
100
AcDbSpline
210
0.0
220
0.0
230
1.0
 70
     0
 71
     3
 72
     8
 73
     4
 74
     0
 42
0.0000000001
 43
0.0000000001
 40
0.0
 40
0.0
 40
0.0
 40
0.0
 40
1.0
 40
1.0
 40
1.0
 40
1.0
 10
12.298500000000001
 20
4.516
 30
0.0
 10
12.298500000000001
 20
4.516
 30
0.0
 10
11.988200000000001
 20
6.8734000000000002
 30
0.0
 10
11.988200000000001
 20
6.8734000000000002
 30
0.0
  0
SPLINE
  5
126
100
AcDbEntity
  8
LC-006-002-RND-0
370
    20
100
AcDbSpline
210
0.0
220
0.0
230
1.0
 70
     0
 71
     3
 72
     8
 73
     4
 74
     0
 42
0.0000000001
 43
0.0000000001
 40
0.0
 40
0.0
 40
0.0
 40
0.0
 40
1.0
 40
1.0
 40
1.0
 40
1.0
 10
11.988200000000001
 20
6.8734000000000002
 30
0.0
 10
11.988200000000001
 20
6.8734000000000002
 30
0.0
 10
11.677800000000001
 20
4.516
 30
0.0
 10
11.677800000000001
 20
4.516
 30
0.0
  0
SPLINE
  5
127
100
AcDbEntity
  8
LC-006-002-RND-0
370
    20
100
AcDbSpline
210
0.0
220
0.0
230
1.0
 70
     0
 71
     3
 72
     8
 73
     4
 74
     0
 42
0.0000000001
 43
0.0000000001
 40
0.0
 40
0.0
 40
0.0
 40
0.0
 40
1.0
 40
1.0
 40
1.0
 40
1.0
 10
10.577400000000001
 20
27.949100000000001
 30
0.0
 10
10.577400000000001
 20
27.949100000000001
 30
0.0
 10
11.988200000000001
 20
17.233700000000002
 30
0.0
 10
11.988200000000001
 20
17.233700000000002
 30
0.0
  0
SPLINE
  5
128
100
AcDbEntity
  8
LC-006-002-RND-0
370
    20
100
AcDbSpline
210
0.0
220
0.0
230
1.0
 70
     0
 71
     3
 72
     8
 73
     4
 74
     0
 42
0.0000000001
 43
0.0000000001
 40
0.0
 40
0.0
 40
0.0
 40
0.0
 40
1.0
 40
1.0
 40
1.0
 40
1.0
 10
11.988200000000001
 20
17.233700000000002
 30
0.0
 10
11.988200000000001
 20
17.233700000000002
 30
0.0
 10
13.398900000000001
 20
27.949100000000001
 30
0.0
 10
13.398900000000001
 20
27.949100000000001
 30
0.0
  0
SPLINE
  5
129
100
AcDbEntity
  8
LC-006-002-RND-0
370
    20
100
AcDbSpline
210
0.0
220
0.0
230
1.0
 70
     0
 71
     3
 72
     8
 73
     4
 74
     0
 42
0.0000000001
 43
0.0000000001
 40
0.0
 40
0.0
 40
0.0
 40
0.0
 40
1.0
 40
1.0
 40
1.0
 40
1.0
 10
13.398900000000001
 20
27.949100000000001
 30
0.0
 10
13.398900000000001
 20
27.949100000000001
 30
0.0
 10
10.577400000000001
 20
27.949100000000001
 30
0.0
 10
10.577400000000001
 20
27.949100000000001
 30
0.0
  0
SPLINE
  5
12A
100
AcDbEntity
  8
LC-006-002-RND-0
370
    20
100
AcDbSpline
210
0.0
220
0.0
230
1.0
 70
     0
 71
     3
 72
     8
 73
     4
 74
     0
 42
0.0000000001
 43
0.0000000001
 40
0.0
 40
0.0
 40
0.0
 40
0.0
 40
1.0
 40
1.0
 40
1.0
 40
1.0
 10
10.9443
 20
27.973300000000002
 30
0.0
 10
10.9443
 20
27.973300000000002
 30
0.0
 10
11.988200000000001
 20
20.043700000000001
 30
0.0
 10
11.988200000000001
 20
20.043700000000001
 30
0.0
  0
SPLINE
  5
12B
100
AcDbEntity
  8
LC-006-002-RND-0
370
    20
100
AcDbSpline
210
0.0
220
0.0
230
1.0
 70
     0
 71
     3
 72
     8
 73
     4
 74
     0
 42
0.0000000001
 43
0.0000000001
 40
0.0
 40
0.0
 40
0.0
 40
0.0
 40
1.0
 40
1.0
 40
1.0
 40
1.0
 10
11.988200000000001
 20
20.043700000000001
 30
0.0
 10
11.988200000000001
 20
20.043700000000001
 30
0.0
 10
13.0321
 20
27.973300000000002
 30
0.0
 10
13.0321
 20
27.973300000000002
 30
0.0
  0
SPLINE
  5
12C
100
AcDbEntity
  8
LC-006-002-RND-0
370
    20
100
AcDbSpline
210
0.0
220
0.0
230
1.0
 70
     0
 71
     3
 72
     8
 73
     4
 74
     0
 42
0.0000000001
 43
0.0000000001
 40
0.0
 40
0.0
 40
0.0
 40
0.0
 40
1.0
 40
1.0
 40
1.0
 40
1.0
 10
11.311
 20
27.997300000000003
 30
0.0
 10
11.311
 20
27.997300000000003
 30
0.0
 10
11.988200000000001
 20
22.853899999999999
 30
0.0
 10
11.988200000000001
 20
22.853899999999999
 30
0.0
  0
SPLINE
  5
12D
100
AcDbEntity
  8
LC-006-002-RND-0
370
    20
100
AcDbSpline
210
0.0
220
0.0
230
1.0
 70
     0
 71
     3
 72
     8
 73
     4
 74
     0
 42
0.0000000001
 43
0.0000000001
 40
0.0
 40
0.0
 40
0.0
 40
0.0
 40
1.0
 40
1.0
 40
1.0
 40
1.0
 10
11.988200000000001
 20
22.853899999999999
 30
0.0
 10
11.988200000000001
 20
22.853899999999999
 30
0.0
 10
12.6654
 20
27.997300000000003
 30
0.0
 10
12.6654
 20
27.997300000000003
 30
0.0
  0
SPLINE
  5
12E
100
AcDbEntity
  8
LC-006-002-RND-0
370
    20
100
AcDbSpline
210
0.0
220
0.0
230
1.0
 70
     0
 71
     3
 72
     8
 73
     4
 74
     0
 42
0.0000000001
 43
0.0000000001
 40
0.0
 40
0.0
 40
0.0
 40
0.0
 40
1.0
 40
1.0
 40
1.0
 40
1.0
 10
11.677800000000001
 20
28.0213
 30
0.0
 10
11.677800000000001
 20
28.0213
 30
0.0
 10
11.988200000000001
 20
25.663900000000002
 30
0.0
 10
11.988200000000001
 20
25.663900000000002
 30
0.0
  0
SPLINE
  5
12F
100
AcDbEntity
  8
LC-006-002-RND-0
370
    20
100
AcDbSpline
210
0.0
220
0.0
230
1.0
 70
     0
 71
     3
 72
     8
 73
     4
 74
     0
 42
0.0000000001
 43
0.0000000001
 40
0.0
 40
0.0
 40
0.0
 40
0.0
 40
1.0
 40
1.0
 40
1.0
 40
1.0
 10
11.988200000000001
 20
25.663900000000002
 30
0.0
 10
11.988200000000001
 20
25.663900000000002
 30
0.0
 10
12.298500000000001
 20
28.0213
 30
0.0
 10
12.298500000000001
 20
28.0213
 30
0.0
  0
SPLINE
  5
130
100
AcDbEntity
  8
LC-006-002-RND-0
370
    20
100
AcDbSpline
210
0.0
220
0.0
230
1.0
 70
     0
 71
     3
 72
     8
 73
     4
 74
     0
 42
0.0000000001
 43
0.0000000001
 40
0.0
 40
0.0
 40
0.0
 40
0.0
 40
1.0
 40
1.0
 40
1.0
 40
1.0
 10
11.988200000000001
 20
0.1726
 30
0.0
 10
11.988200000000001
 20
0.1726
 30
0.0
 10
11.988200000000001
 20
35.725900000000003
 30
0.0
 10
11.988200000000001
 20
35.725900000000003
 30
0.0
  0
SPLINE
  5
131
100
AcDbEntity
  8
LC-006-002-RND-0
370
    20
100
AcDbSpline
210
0.0
220
0.0
230
1.0
 70
     0
 71
     3
 72
     8
 73
     4
 74
     0
 42
0.0000000001
 43
0.0000000001
 40
0.0
 40
0.0
 40
0.0
 40
0.0
 40
1.0
 40
1.0
 40
1.0
 40
1.0
 10
-28.505000000000003
 20
15.303700000000001
 30
0.0
 10
-28.505000000000003
 20
15.303700000000001
 30
0.0
 10
-27.871500000000001
 20
15.937200000000001
 30
0.0
 10
-27.871500000000001
 20
15.937200000000001
 30
0.0
  0
SPLINE
  5
132
100
AcDbEntity
  8
LC-006-002-RND-0
370
    20
100
AcDbSpline
210
0.0
220
0.0
230
1.0
 70
     0
 71
     3
 72
     8
 73
     4
 74
     0
 42
0.0000000001
 43
0.0000000001
 40
0.0
 40
0.0
 40
0.0
 40
0.0
 40
1.0
 40
1.0
 40
1.0
 40
1.0
 10
-29.596800000000002
 20
15.303700000000001
 30
0.0
 10
-29.596800000000002
 20
15.303700000000001
 30
0.0
 10
-27.871500000000001
 20
17.029
 30
0.0
 10
-27.871500000000001
 20
17.029
 30
0.0
  0
SPLINE
  5
133
100
AcDbEntity
  8
LC-006-002-RND-0
370
    20
100
AcDbSpline
210
0.0
220
0.0
230
1.0
 70
     0
 71
     3
 72
     8
 73
     4
 74
     0
 42
0.0000000001
 43
0.0000000001
 40
0.0
 40
0.0
 40
0.0
 40
0.0
 40
1.0
 40
1.0
 40
1.0
 40
1.0
 10
-30.688500000000001
 20
15.303700000000001
 30
0.0
 10
-30.688500000000001
 20
15.303700000000001
 30
0.0
 10
-28.758500000000002
 20
17.233700000000002
 30
0.0
 10
-28.758500000000002
 20
17.233700000000002
 30
0.0
  0
SPLINE
  5
134
100
AcDbEntity
  8
LC-006-002-RND-0
370
    20
100
AcDbSpline
210
0.0
220
0.0
230
1.0
 70
     0
 71
     3
 72
     8
 73
     4
 74
     0
 42
0.0000000001
 43
0.0000000001
 40
0.0
 40
0.0
 40
0.0
 40
0.0
 40
1.0
 40
1.0
 40
1.0
 40
1.0
 10
-31.7803
 20
15.303700000000001
 30
0.0
 10
-31.7803
 20
15.303700000000001
 30
0.0
 10
-29.850300000000001
 20
17.233700000000002
 30
0.0
 10
-29.850300000000001
 20
17.233700000000002
 30
0.0
  0
SPLINE
  5
135
100
AcDbEntity
  8
LC-006-002-RND-0
370
    20
100
AcDbSpline
210
0.0
220
0.0
230
1.0
 70
     0
 71
     3
 72
     8
 73
     4
 74
     0
 42
0.0000000001
 43
0.0000000001
 40
0.0
 40
0.0
 40
0.0
 40
0.0
 40
1.0
 40
1.0
 40
1.0
 40
1.0
 10
-32.872100000000003
 20
15.303700000000001
 30
0.0
 10
-32.872100000000003
 20
15.303700000000001
 30
0.0
 10
-30.9421
 20
17.233700000000002
 30
0.0
 10
-30.9421
 20
17.233700000000002
 30
0.0
  0
SPLINE
  5
136
100
AcDbEntity
  8
LC-006-002-RND-0
370
    20
100
AcDbSpline
210
0.0
220
0.0
230
1.0
 70
     0
 71
     3
 72
     8
 73
     4
 74
     0
 42
0.0000000001
 43
0.0000000001
 40
0.0
 40
0.0
 40
0.0
 40
0.0
 40
1.0
 40
1.0
 40
1.0
 40
1.0
 10
-33.963799999999999
 20
15.303700000000001
 30
0.0
 10
-33.963799999999999
 20
15.303700000000001
 30
0.0
 10
-32.033799999999999
 20
17.233700000000002
 30
0.0
 10
-32.033799999999999
 20
17.233700000000002
 30
0.0
  0
SPLINE
  5
137
100
AcDbEntity
  8
LC-006-002-RND-0
370
    20
100
AcDbSpline
210
0.0
220
0.0
230
1.0
 70
     0
 71
     3
 72
     8
 73
     4
 74
     0
 42
0.0000000001
 43
0.0000000001
 40
0.0
 40
0.0
 40
0.0
 40
0.0
 40
1.0
 40
1.0
 40
1.0
 40
1.0
 10
-35.055599999999998
 20
15.303700000000001
 30
0.0
 10
-35.055599999999998
 20
15.303700000000001
 30
0.0
 10
-33.125599999999999
 20
17.233700000000002
 30
0.0
 10
-33.125599999999999
 20
17.233700000000002
 30
0.0
  0
SPLINE
  5
138
100
AcDbEntity
  8
LC-006-002-RND-0
370
    20
100
AcDbSpline
210
0.0
220
0.0
230
1.0
 70
     0
 71
     3
 72
     8
 73
     4
 74
     0
 42
0.0000000001
 43
0.0000000001
 40
0.0
 40
0.0
 40
0.0
 40
0.0
 40
1.0
 40
1.0
 40
1.0
 40
1.0
 10
-36.147400000000005
 20
15.303700000000001
 30
0.0
 10
-36.147400000000005
 20
15.303700000000001
 30
0.0
 10
-34.217400000000005
 20
17.233700000000002
 30
0.0
 10
-34.217400000000005
 20
17.233700000000002
 30
0.0
  0
SPLINE
  5
139
100
AcDbEntity
  8
LC-006-002-RND-0
370
    20
100
AcDbSpline
210
0.0
220
0.0
230
1.0
 70
     0
 71
     3
 72
     8
 73
     4
 74
     0
 42
0.0000000001
 43
0.0000000001
 40
0.0
 40
0.0
 40
0.0
 40
0.0
 40
1.0
 40
1.0
 40
1.0
 40
1.0
 10
-37.239100000000001
 20
15.303700000000001
 30
0.0
 10
-37.239100000000001
 20
15.303700000000001
 30
0.0
 10
-35.309100000000001
 20
17.233700000000002
 30
0.0
 10
-35.309100000000001
 20
17.233700000000002
 30
0.0
  0
SPLINE
  5
13A
100
AcDbEntity
  8
LC-006-002-RND-0
370
    20
100
AcDbSpline
210
0.0
220
0.0
230
1.0
 70
     0
 71
     3
 72
     8
 73
     4
 74
     0
 42
0.0000000001
 43
0.0000000001
 40
0.0
 40
0.0
 40
0.0
 40
0.0
 40
1.0
 40
1.0
 40
1.0
 40
1.0
 10
-38.3309
 20
15.303700000000001
 30
0.0
 10
-38.3309
 20
15.303700000000001
 30
0.0
 10
-36.401000000000003
 20
17.233700000000002
 30
0.0
 10
-36.401000000000003
 20
17.233700000000002
 30
0.0
  0
SPLINE
  5
13B
100
AcDbEntity
  8
LC-006-002-RND-0
370
    20
100
AcDbSpline
210
0.0
220
0.0
230
1.0
 70
     0
 71
     3
 72
     8
 73
     4
 74
     0
 42
0.0000000001
 43
0.0000000001
 40
0.0
 40
0.0
 40
0.0
 40
0.0
 40
1.0
 40
1.0
 40
1.0
 40
1.0
 10
-39.422699999999999
 20
15.303700000000001
 30
0.0
 10
-39.422699999999999
 20
15.303700000000001
 30
0.0
 10
-37.492699999999999
 20
17.233700000000002
 30
0.0
 10
-37.492699999999999
 20
17.233700000000002
 30
0.0
  0
SPLINE
  5
13C
100
AcDbEntity
  8
LC-006-002-RND-0
370
    20
100
AcDbSpline
210
0.0
220
0.0
230
1.0
 70
     0
 71
     3
 72
     8
 73
     4
 74
     0
 42
0.0000000001
 43
0.0000000001
 40
0.0
 40
0.0
 40
0.0
 40
0.0
 40
1.0
 40
1.0
 40
1.0
 40
1.0
 10
-40.514400000000002
 20
15.303700000000001
 30
0.0
 10
-40.514400000000002
 20
15.303700000000001
 30
0.0
 10
-38.584400000000002
 20
17.233700000000002
 30
0.0
 10
-38.584400000000002
 20
17.233700000000002
 30
0.0
  0
SPLINE
  5
13D
100
AcDbEntity
  8
LC-006-002-RND-0
370
    20
100
AcDbSpline
210
0.0
220
0.0
230
1.0
 70
     0
 71
     3
 72
     8
 73
     4
 74
     0
 42
0.0000000001
 43
0.0000000001
 40
0.0
 40
0.0
 40
0.0
 40
0.0
 40
1.0
 40
1.0
 40
1.0
 40
1.0
 10
-41.606300000000005
 20
15.303700000000001
 30
0.0
 10
-41.606300000000005
 20
15.303700000000001
 30
0.0
 10
-39.676300000000005
 20
17.233700000000002
 30
0.0
 10
-39.676300000000005
 20
17.233700000000002
 30
0.0
  0
SPLINE
  5
13E
100
AcDbEntity
  8
LC-006-002-RND-0
370
    20
100
AcDbSpline
210
0.0
220
0.0
230
1.0
 70
     0
 71
     3
 72
     8
 73
     4
 74
     0
 42
0.0000000001
 43
0.0000000001
 40
0.0
 40
0.0
 40
0.0
 40
0.0
 40
1.0
 40
1.0
 40
1.0
 40
1.0
 10
-42.698
 20
15.303700000000001
 30
0.0
 10
-42.698
 20
15.303700000000001
 30
0.0
 10
-40.768000000000001
 20
17.233700000000002
 30
0.0
 10
-40.768000000000001
 20
17.233700000000002
 30
0.0
  0
SPLINE
  5
13F
100
AcDbEntity
  8
LC-006-002-RND-0
370
    20
100
AcDbSpline
210
0.0
220
0.0
230
1.0
 70
     0
 71
     3
 72
     8
 73
     4
 74
     0
 42
0.0000000001
 43
0.0000000001
 40
0.0
 40
0.0
 40
0.0
 40
0.0
 40
1.0
 40
1.0
 40
1.0
 40
1.0
 10
-43.7898
 20
15.303700000000001
 30
0.0
 10
-43.7898
 20
15.303700000000001
 30
0.0
 10
-41.8598
 20
17.233700000000002
 30
0.0
 10
-41.8598
 20
17.233700000000002
 30
0.0
  0
SPLINE
  5
140
100
AcDbEntity
  8
LC-006-002-RND-0
370
    20
100
AcDbSpline
210
0.0
220
0.0
230
1.0
 70
     0
 71
     3
 72
     8
 73
     4
 74
     0
 42
0.0000000001
 43
0.0000000001
 40
0.0
 40
0.0
 40
0.0
 40
0.0
 40
1.0
 40
1.0
 40
1.0
 40
1.0
 10
-44.881599999999999
 20
15.303700000000001
 30
0.0
 10
-44.881599999999999
 20
15.303700000000001
 30
0.0
 10
-42.951599999999999
 20
17.233700000000002
 30
0.0
 10
-42.951599999999999
 20
17.233700000000002
 30
0.0
  0
SPLINE
  5
141
100
AcDbEntity
  8
LC-006-002-RND-0
370
    20
100
AcDbSpline
210
0.0
220
0.0
230
1.0
 70
     0
 71
     3
 72
     8
 73
     4
 74
     0
 42
0.0000000001
 43
0.0000000001
 40
0.0
 40
0.0
 40
0.0
 40
0.0
 40
1.0
 40
1.0
 40
1.0
 40
1.0
 10
-45.973300000000002
 20
15.303700000000001
 30
0.0
 10
-45.973300000000002
 20
15.303700000000001
 30
0.0
 10
-44.043300000000002
 20
17.233700000000002
 30
0.0
 10
-44.043300000000002
 20
17.233700000000002
 30
0.0
  0
SPLINE
  5
142
100
AcDbEntity
  8
LC-006-002-RND-0
370
    20
100
AcDbSpline
210
0.0
220
0.0
230
1.0
 70
     0
 71
     3
 72
     8
 73
     4
 74
     0
 42
0.0000000001
 43
0.0000000001
 40
0.0
 40
0.0
 40
0.0
 40
0.0
 40
1.0
 40
1.0
 40
1.0
 40
1.0
 10
-47.065100000000001
 20
15.303700000000001
 30
0.0
 10
-47.065100000000001
 20
15.303700000000001
 30
0.0
 10
-45.135100000000001
 20
17.233700000000002
 30
0.0
 10
-45.135100000000001
 20
17.233700000000002
 30
0.0
  0
SPLINE
  5
143
100
AcDbEntity
  8
LC-006-002-RND-0
370
    20
100
AcDbSpline
210
0.0
220
0.0
230
1.0
 70
     0
 71
     3
 72
     8
 73
     4
 74
     0
 42
0.0000000001
 43
0.0000000001
 40
0.0
 40
0.0
 40
0.0
 40
0.0
 40
1.0
 40
1.0
 40
1.0
 40
1.0
 10
-48.1569
 20
15.303700000000001
 30
0.0
 10
-48.1569
 20
15.303700000000001
 30
0.0
 10
-46.226900000000001
 20
17.233700000000002
 30
0.0
 10
-46.226900000000001
 20
17.233700000000002
 30
0.0
  0
SPLINE
  5
144
100
AcDbEntity
  8
LC-006-002-RND-0
370
    20
100
AcDbSpline
210
0.0
220
0.0
230
1.0
 70
     0
 71
     3
 72
     8
 73
     4
 74
     0
 42
0.0000000001
 43
0.0000000001
 40
0.0
 40
0.0
 40
0.0
 40
0.0
 40
1.0
 40
1.0
 40
1.0
 40
1.0
 10
-49.248600000000003
 20
15.303700000000001
 30
0.0
 10
-49.248600000000003
 20
15.303700000000001
 30
0.0
 10
-47.318600000000004
 20
17.233700000000002
 30
0.0
 10
-47.318600000000004
 20
17.233700000000002
 30
0.0
  0
SPLINE
  5
145
100
AcDbEntity
  8
LC-006-002-RND-0
370
    20
100
AcDbSpline
210
0.0
220
0.0
230
1.0
 70
     0
 71
     3
 72
     8
 73
     4
 74
     0
 42
0.0000000001
 43
0.0000000001
 40
0.0
 40
0.0
 40
0.0
 40
0.0
 40
1.0
 40
1.0
 40
1.0
 40
1.0
 10
-50.340400000000002
 20
15.303700000000001
 30
0.0
 10
-50.340400000000002
 20
15.303700000000001
 30
0.0
 10
-48.410499999999999
 20
17.233700000000002
 30
0.0
 10
-48.410499999999999
 20
17.233700000000002
 30
0.0
  0
SPLINE
  5
146
100
AcDbEntity
  8
LC-006-002-RND-0
370
    20
100
AcDbSpline
210
0.0
220
0.0
230
1.0
 70
     0
 71
     3
 72
     8
 73
     4
 74
     0
 42
0.0000000001
 43
0.0000000001
 40
0.0
 40
0.0
 40
0.0
 40
0.0
 40
1.0
 40
1.0
 40
1.0
 40
1.0
 10
-51.432200000000002
 20
15.303700000000001
 30
0.0
 10
-51.432200000000002
 20
15.303700000000001
 30
0.0
 10
-49.502200000000002
 20
17.233700000000002
 30
0.0
 10
-49.502200000000002
 20
17.233700000000002
 30
0.0
  0
SPLINE
  5
147
100
AcDbEntity
  8
LC-006-002-RND-0
370
    20
100
AcDbSpline
210
0.0
220
0.0
230
1.0
 70
     0
 71
     3
 72
     8
 73
     4
 74
     0
 42
0.0000000001
 43
0.0000000001
 40
0.0
 40
0.0
 40
0.0
 40
0.0
 40
1.0
 40
1.0
 40
1.0
 40
1.0
 10
-52.023400000000002
 20
15.804200000000002
 30
0.0
 10
-52.023400000000002
 20
15.804200000000002
 30
0.0
 10
-50.593900000000005
 20
17.233700000000002
 30
0.0
 10
-50.593900000000005
 20
17.233700000000002
 30
0.0
  0
SPLINE
  5
148
100
AcDbEntity
  8
LC-006-002-RND-0
370
    20
100
AcDbSpline
210
0.0
220
0.0
230
1.0
 70
     0
 71
     3
 72
     8
 73
     4
 74
     0
 42
0.0000000001
 43
0.0000000001
 40
0.0
 40
0.0
 40
0.0
 40
0.0
 40
1.0
 40
1.0
 40
1.0
 40
1.0
 10
-52.023400000000002
 20
16.896000000000001
 30
0.0
 10
-52.023400000000002
 20
16.896000000000001
 30
0.0
 10
-51.6858
 20
17.233700000000002
 30
0.0
 10
-51.6858
 20
17.233700000000002
 30
0.0
  0
SPLINE
  5
149
100
AcDbEntity
  8
LC-006-002-RND-0
370
    20
100
AcDbSpline
210
0.0
220
0.0
230
1.0
 70
     0
 71
     3
 72
     8
 73
     4
 74
     0
 42
0.0000000001
 43
0.0000000001
 40
0.0
 40
0.0
 40
0.0
 40
0.0
 40
1.0
 40
1.0
 40
1.0
 40
1.0
 10
-27.871500000000001
 20
16.5578
 30
0.0
 10
-27.871500000000001
 20
16.5578
 30
0.0
 10
-28.5473
 20
17.233700000000002
 30
0.0
 10
-28.5473
 20
17.233700000000002
 30
0.0
  0
SPLINE
  5
14A
100
AcDbEntity
  8
LC-006-002-RND-0
370
    20
100
AcDbSpline
210
0.0
220
0.0
230
1.0
 70
     0
 71
     3
 72
     8
 73
     4
 74
     0
 42
0.0000000001
 43
0.0000000001
 40
0.0
 40
0.0
 40
0.0
 40
0.0
 40
1.0
 40
1.0
 40
1.0
 40
1.0
 10
-27.871500000000001
 20
15.466000000000001
 30
0.0
 10
-27.871500000000001
 20
15.466000000000001
 30
0.0
 10
-29.639100000000003
 20
17.233700000000002
 30
0.0
 10
-29.639100000000003
 20
17.233700000000002
 30
0.0
  0
SPLINE
  5
14B
100
AcDbEntity
  8
LC-006-002-RND-0
370
    20
100
AcDbSpline
210
0.0
220
0.0
230
1.0
 70
     0
 71
     3
 72
     8
 73
     4
 74
     0
 42
0.0000000001
 43
0.0000000001
 40
0.0
 40
0.0
 40
0.0
 40
0.0
 40
1.0
 40
1.0
 40
1.0
 40
1.0
 10
-28.800900000000002
 20
15.303700000000001
 30
0.0
 10
-28.800900000000002
 20
15.303700000000001
 30
0.0
 10
-30.730800000000002
 20
17.233700000000002
 30
0.0
 10
-30.730800000000002
 20
17.233700000000002
 30
0.0
  0
SPLINE
  5
14C
100
AcDbEntity
  8
LC-006-002-RND-0
370
    20
100
AcDbSpline
210
0.0
220
0.0
230
1.0
 70
     0
 71
     3
 72
     8
 73
     4
 74
     0
 42
0.0000000001
 43
0.0000000001
 40
0.0
 40
0.0
 40
0.0
 40
0.0
 40
1.0
 40
1.0
 40
1.0
 40
1.0
 10
-29.892600000000002
 20
15.303700000000001
 30
0.0
 10
-29.892600000000002
 20
15.303700000000001
 30
0.0
 10
-31.822600000000001
 20
17.233700000000002
 30
0.0
 10
-31.822600000000001
 20
17.233700000000002
 30
0.0
  0
SPLINE
  5
14D
100
AcDbEntity
  8
LC-006-002-RND-0
370
    20
100
AcDbSpline
210
0.0
220
0.0
230
1.0
 70
     0
 71
     3
 72
     8
 73
     4
 74
     0
 42
0.0000000001
 43
0.0000000001
 40
0.0
 40
0.0
 40
0.0
 40
0.0
 40
1.0
 40
1.0
 40
1.0
 40
1.0
 10
-30.984400000000001
 20
15.303700000000001
 30
0.0
 10
-30.984400000000001
 20
15.303700000000001
 30
0.0
 10
-32.914400000000001
 20
17.233700000000002
 30
0.0
 10
-32.914400000000001
 20
17.233700000000002
 30
0.0
  0
SPLINE
  5
14E
100
AcDbEntity
  8
LC-006-002-RND-0
370
    20
100
AcDbSpline
210
0.0
220
0.0
230
1.0
 70
     0
 71
     3
 72
     8
 73
     4
 74
     0
 42
0.0000000001
 43
0.0000000001
 40
0.0
 40
0.0
 40
0.0
 40
0.0
 40
1.0
 40
1.0
 40
1.0
 40
1.0
 10
-32.0762
 20
15.303700000000001
 30
0.0
 10
-32.0762
 20
15.303700000000001
 30
0.0
 10
-34.0062
 20
17.233700000000002
 30
0.0
 10
-34.0062
 20
17.233700000000002
 30
0.0
  0
SPLINE
  5
14F
100
AcDbEntity
  8
LC-006-002-RND-0
370
    20
100
AcDbSpline
210
0.0
220
0.0
230
1.0
 70
     0
 71
     3
 72
     8
 73
     4
 74
     0
 42
0.0000000001
 43
0.0000000001
 40
0.0
 40
0.0
 40
0.0
 40
0.0
 40
1.0
 40
1.0
 40
1.0
 40
1.0
 10
-33.167900000000003
 20
15.303700000000001
 30
0.0
 10
-33.167900000000003
 20
15.303700000000001
 30
0.0
 10
-35.097900000000003
 20
17.233700000000002
 30
0.0
 10
-35.097900000000003
 20
17.233700000000002
 30
0.0
  0
SPLINE
  5
150
100
AcDbEntity
  8
LC-006-002-RND-0
370
    20
100
AcDbSpline
210
0.0
220
0.0
230
1.0
 70
     0
 71
     3
 72
     8
 73
     4
 74
     0
 42
0.0000000001
 43
0.0000000001
 40
0.0
 40
0.0
 40
0.0
 40
0.0
 40
1.0
 40
1.0
 40
1.0
 40
1.0
 10
-34.259700000000002
 20
15.303700000000001
 30
0.0
 10
-34.259700000000002
 20
15.303700000000001
 30
0.0
 10
-36.189700000000002
 20
17.233700000000002
 30
0.0
 10
-36.189700000000002
 20
17.233700000000002
 30
0.0
  0
SPLINE
  5
151
100
AcDbEntity
  8
LC-006-002-RND-0
370
    20
100
AcDbSpline
210
0.0
220
0.0
230
1.0
 70
     0
 71
     3
 72
     8
 73
     4
 74
     0
 42
0.0000000001
 43
0.0000000001
 40
0.0
 40
0.0
 40
0.0
 40
0.0
 40
1.0
 40
1.0
 40
1.0
 40
1.0
 10
-35.351500000000001
 20
15.303700000000001
 30
0.0
 10
-35.351500000000001
 20
15.303700000000001
 30
0.0
 10
-37.281500000000001
 20
17.233700000000002
 30
0.0
 10
-37.281500000000001
 20
17.233700000000002
 30
0.0
  0
SPLINE
  5
152
100
AcDbEntity
  8
LC-006-002-RND-0
370
    20
100
AcDbSpline
210
0.0
220
0.0
230
1.0
 70
     0
 71
     3
 72
     8
 73
     4
 74
     0
 42
0.0000000001
 43
0.0000000001
 40
0.0
 40
0.0
 40
0.0
 40
0.0
 40
1.0
 40
1.0
 40
1.0
 40
1.0
 10
-36.443200000000004
 20
15.303700000000001
 30
0.0
 10
-36.443200000000004
 20
15.303700000000001
 30
0.0
 10
-38.373200000000004
 20
17.233700000000002
 30
0.0
 10
-38.373200000000004
 20
17.233700000000002
 30
0.0
  0
SPLINE
  5
153
100
AcDbEntity
  8
LC-006-002-RND-0
370
    20
100
AcDbSpline
210
0.0
220
0.0
230
1.0
 70
     0
 71
     3
 72
     8
 73
     4
 74
     0
 42
0.0000000001
 43
0.0000000001
 40
0.0
 40
0.0
 40
0.0
 40
0.0
 40
1.0
 40
1.0
 40
1.0
 40
1.0
 10
-37.535000000000004
 20
15.303700000000001
 30
0.0
 10
-37.535000000000004
 20
15.303700000000001
 30
0.0
 10
-39.465000000000003
 20
17.233700000000002
 30
0.0
 10
-39.465000000000003
 20
17.233700000000002
 30
0.0
  0
SPLINE
  5
154
100
AcDbEntity
  8
LC-006-002-RND-0
370
    20
100
AcDbSpline
210
0.0
220
0.0
230
1.0
 70
     0
 71
     3
 72
     8
 73
     4
 74
     0
 42
0.0000000001
 43
0.0000000001
 40
0.0
 40
0.0
 40
0.0
 40
0.0
 40
1.0
 40
1.0
 40
1.0
 40
1.0
 10
-38.626800000000003
 20
15.303700000000001
 30
0.0
 10
-38.626800000000003
 20
15.303700000000001
 30
0.0
 10
-40.556800000000003
 20
17.233700000000002
 30
0.0
 10
-40.556800000000003
 20
17.233700000000002
 30
0.0
  0
SPLINE
  5
155
100
AcDbEntity
  8
LC-006-002-RND-0
370
    20
100
AcDbSpline
210
0.0
220
0.0
230
1.0
 70
     0
 71
     3
 72
     8
 73
     4
 74
     0
 42
0.0000000001
 43
0.0000000001
 40
0.0
 40
0.0
 40
0.0
 40
0.0
 40
1.0
 40
1.0
 40
1.0
 40
1.0
 10
-39.718499999999999
 20
15.303700000000001
 30
0.0
 10
-39.718499999999999
 20
15.303700000000001
 30
0.0
 10
-41.648499999999999
 20
17.233700000000002
 30
0.0
 10
-41.648499999999999
 20
17.233700000000002
 30
0.0
  0
SPLINE
  5
156
100
AcDbEntity
  8
LC-006-002-RND-0
370
    20
100
AcDbSpline
210
0.0
220
0.0
230
1.0
 70
     0
 71
     3
 72
     8
 73
     4
 74
     0
 42
0.0000000001
 43
0.0000000001
 40
0.0
 40
0.0
 40
0.0
 40
0.0
 40
1.0
 40
1.0
 40
1.0
 40
1.0
 10
-40.810400000000001
 20
15.303700000000001
 30
0.0
 10
-40.810400000000001
 20
15.303700000000001
 30
0.0
 10
-42.740300000000005
 20
17.233700000000002
 30
0.0
 10
-42.740300000000005
 20
17.233700000000002
 30
0.0
  0
SPLINE
  5
157
100
AcDbEntity
  8
LC-006-002-RND-0
370
    20
100
AcDbSpline
210
0.0
220
0.0
230
1.0
 70
     0
 71
     3
 72
     8
 73
     4
 74
     0
 42
0.0000000001
 43
0.0000000001
 40
0.0
 40
0.0
 40
0.0
 40
0.0
 40
1.0
 40
1.0
 40
1.0
 40
1.0
 10
-41.902100000000004
 20
15.303700000000001
 30
0.0
 10
-41.902100000000004
 20
15.303700000000001
 30
0.0
 10
-43.832100000000004
 20
17.233700000000002
 30
0.0
 10
-43.832100000000004
 20
17.233700000000002
 30
0.0
  0
SPLINE
  5
158
100
AcDbEntity
  8
LC-006-002-RND-0
370
    20
100
AcDbSpline
210
0.0
220
0.0
230
1.0
 70
     0
 71
     3
 72
     8
 73
     4
 74
     0
 42
0.0000000001
 43
0.0000000001
 40
0.0
 40
0.0
 40
0.0
 40
0.0
 40
1.0
 40
1.0
 40
1.0
 40
1.0
 10
-42.993900000000004
 20
15.303700000000001
 30
0.0
 10
-42.993900000000004
 20
15.303700000000001
 30
0.0
 10
-44.923900000000003
 20
17.233700000000002
 30
0.0
 10
-44.923900000000003
 20
17.233700000000002
 30
0.0
  0
SPLINE
  5
159
100
AcDbEntity
  8
LC-006-002-RND-0
370
    20
100
AcDbSpline
210
0.0
220
0.0
230
1.0
 70
     0
 71
     3
 72
     8
 73
     4
 74
     0
 42
0.0000000001
 43
0.0000000001
 40
0.0
 40
0.0
 40
0.0
 40
0.0
 40
1.0
 40
1.0
 40
1.0
 40
1.0
 10
-44.085700000000003
 20
15.303700000000001
 30
0.0
 10
-44.085700000000003
 20
15.303700000000001
 30
0.0
 10
-46.015700000000002
 20
17.233700000000002
 30
0.0
 10
-46.015700000000002
 20
17.233700000000002
 30
0.0
  0
SPLINE
  5
15A
100
AcDbEntity
  8
LC-006-002-RND-0
370
    20
100
AcDbSpline
210
0.0
220
0.0
230
1.0
 70
     0
 71
     3
 72
     8
 73
     4
 74
     0
 42
0.0000000001
 43
0.0000000001
 40
0.0
 40
0.0
 40
0.0
 40
0.0
 40
1.0
 40
1.0
 40
1.0
 40
1.0
 10
-45.177399999999999
 20
15.303700000000001
 30
0.0
 10
-45.177399999999999
 20
15.303700000000001
 30
0.0
 10
-47.107400000000005
 20
17.233700000000002
 30
0.0
 10
-47.107400000000005
 20
17.233700000000002
 30
0.0
  0
SPLINE
  5
15B
100
AcDbEntity
  8
LC-006-002-RND-0
370
    20
100
AcDbSpline
210
0.0
220
0.0
230
1.0
 70
     0
 71
     3
 72
     8
 73
     4
 74
     0
 42
0.0000000001
 43
0.0000000001
 40
0.0
 40
0.0
 40
0.0
 40
0.0
 40
1.0
 40
1.0
 40
1.0
 40
1.0
 10
-46.269200000000005
 20
15.303700000000001
 30
0.0
 10
-46.269200000000005
 20
15.303700000000001
 30
0.0
 10
-48.199200000000005
 20
17.233700000000002
 30
0.0
 10
-48.199200000000005
 20
17.233700000000002
 30
0.0
  0
SPLINE
  5
15C
100
AcDbEntity
  8
LC-006-002-RND-0
370
    20
100
AcDbSpline
210
0.0
220
0.0
230
1.0
 70
     0
 71
     3
 72
     8
 73
     4
 74
     0
 42
0.0000000001
 43
0.0000000001
 40
0.0
 40
0.0
 40
0.0
 40
0.0
 40
1.0
 40
1.0
 40
1.0
 40
1.0
 10
-47.361000000000004
 20
15.303700000000001
 30
0.0
 10
-47.361000000000004
 20
15.303700000000001
 30
0.0
 10
-49.291000000000004
 20
17.233700000000002
 30
0.0
 10
-49.291000000000004
 20
17.233700000000002
 30
0.0
  0
SPLINE
  5
15D
100
AcDbEntity
  8
LC-006-002-RND-0
370
    20
100
AcDbSpline
210
0.0
220
0.0
230
1.0
 70
     0
 71
     3
 72
     8
 73
     4
 74
     0
 42
0.0000000001
 43
0.0000000001
 40
0.0
 40
0.0
 40
0.0
 40
0.0
 40
1.0
 40
1.0
 40
1.0
 40
1.0
 10
-48.4527
 20
15.303700000000001
 30
0.0
 10
-48.4527
 20
15.303700000000001
 30
0.0
 10
-50.3827
 20
17.233700000000002
 30
0.0
 10
-50.3827
 20
17.233700000000002
 30
0.0
  0
SPLINE
  5
15E
100
AcDbEntity
  8
LC-006-002-RND-0
370
    20
100
AcDbSpline
210
0.0
220
0.0
230
1.0
 70
     0
 71
     3
 72
     8
 73
     4
 74
     0
 42
0.0000000001
 43
0.0000000001
 40
0.0
 40
0.0
 40
0.0
 40
0.0
 40
1.0
 40
1.0
 40
1.0
 40
1.0
 10
-49.544499999999999
 20
15.303700000000001
 30
0.0
 10
-49.544499999999999
 20
15.303700000000001
 30
0.0
 10
-51.474499999999999
 20
17.233700000000002
 30
0.0
 10
-51.474499999999999
 20
17.233700000000002
 30
0.0
  0
SPLINE
  5
15F
100
AcDbEntity
  8
LC-006-002-RND-0
370
    20
100
AcDbSpline
210
0.0
220
0.0
230
1.0
 70
     0
 71
     3
 72
     8
 73
     4
 74
     0
 42
0.0000000001
 43
0.0000000001
 40
0.0
 40
0.0
 40
0.0
 40
0.0
 40
1.0
 40
1.0
 40
1.0
 40
1.0
 10
-50.636300000000006
 20
15.303700000000001
 30
0.0
 10
-50.636300000000006
 20
15.303700000000001
 30
0.0
 10
-52.023400000000002
 20
16.690899999999999
 30
0.0
 10
-52.023400000000002
 20
16.690899999999999
 30
0.0
  0
SPLINE
  5
160
100
AcDbEntity
  8
LC-006-002-RND-0
370
    20
100
AcDbSpline
210
0.0
220
0.0
230
1.0
 70
     0
 71
     3
 72
     8
 73
     4
 74
     0
 42
0.0000000001
 43
0.0000000001
 40
0.0
 40
0.0
 40
0.0
 40
0.0
 40
1.0
 40
1.0
 40
1.0
 40
1.0
 10
-51.728000000000002
 20
15.303700000000001
 30
0.0
 10
-51.728000000000002
 20
15.303700000000001
 30
0.0
 10
-52.023400000000002
 20
15.599
 30
0.0
 10
-52.023400000000002
 20
15.599
 30
0.0
  0
SPLINE
  5
161
100
AcDbEntity
  8
LC-006-002-RND-0
370
    20
100
AcDbSpline
210
0.0
220
0.0
230
1.0
 70
     0
 71
     3
 72
     8
 73
     4
 74
     0
 42
0.0000000001
 43
0.0000000001
 40
0.0
 40
0.0
 40
0.0
 40
0.0
 40
1.0
 40
1.0
 40
1.0
 40
1.0
 10
-4.4860000000000007
 20
15.303700000000001
 30
0.0
 10
-4.4860000000000007
 20
15.303700000000001
 30
0.0
 10
-3.7195
 20
16.0702
 30
0.0
 10
-3.7195
 20
16.0702
 30
0.0
  0
SPLINE
  5
162
100
AcDbEntity
  8
LC-006-002-RND-0
370
    20
100
AcDbSpline
210
0.0
220
0.0
230
1.0
 70
     0
 71
     3
 72
     8
 73
     4
 74
     0
 42
0.0000000001
 43
0.0000000001
 40
0.0
 40
0.0
 40
0.0
 40
0.0
 40
1.0
 40
1.0
 40
1.0
 40
1.0
 10
-5.5777999999999999
 20
15.303700000000001
 30
0.0
 10
-5.5777999999999999
 20
15.303700000000001
 30
0.0
 10
-3.7195
 20
17.162100000000002
 30
0.0
 10
-3.7195
 20
17.162100000000002
 30
0.0
  0
SPLINE
  5
163
100
AcDbEntity
  8
LC-006-002-RND-0
370
    20
100
AcDbSpline
210
0.0
220
0.0
230
1.0
 70
     0
 71
     3
 72
     8
 73
     4
 74
     0
 42
0.0000000001
 43
0.0000000001
 40
0.0
 40
0.0
 40
0.0
 40
0.0
 40
1.0
 40
1.0
 40
1.0
 40
1.0
 10
-6.6696
 20
15.303700000000001
 30
0.0
 10
-6.6696
 20
15.303700000000001
 30
0.0
 10
-4.7396000000000003
 20
17.233700000000002
 30
0.0
 10
-4.7396000000000003
 20
17.233700000000002
 30
0.0
  0
SPLINE
  5
164
100
AcDbEntity
  8
LC-006-002-RND-0
370
    20
100
AcDbSpline
210
0.0
220
0.0
230
1.0
 70
     0
 71
     3
 72
     8
 73
     4
 74
     0
 42
0.0000000001
 43
0.0000000001
 40
0.0
 40
0.0
 40
0.0
 40
0.0
 40
1.0
 40
1.0
 40
1.0
 40
1.0
 10
-7.7613000000000003
 20
15.303700000000001
 30
0.0
 10
-7.7613000000000003
 20
15.303700000000001
 30
0.0
 10
-5.8313000000000006
 20
17.233700000000002
 30
0.0
 10
-5.8313000000000006
 20
17.233700000000002
 30
0.0
  0
SPLINE
  5
165
100
AcDbEntity
  8
LC-006-002-RND-0
370
    20
100
AcDbSpline
210
0.0
220
0.0
230
1.0
 70
     0
 71
     3
 72
     8
 73
     4
 74
     0
 42
0.0000000001
 43
0.0000000001
 40
0.0
 40
0.0
 40
0.0
 40
0.0
 40
1.0
 40
1.0
 40
1.0
 40
1.0
 10
-8.8531000000000013
 20
15.303700000000001
 30
0.0
 10
-8.8531000000000013
 20
15.303700000000001
 30
0.0
 10
-6.9231000000000007
 20
17.233700000000002
 30
0.0
 10
-6.9231000000000007
 20
17.233700000000002
 30
0.0
  0
SPLINE
  5
166
100
AcDbEntity
  8
LC-006-002-RND-0
370
    20
100
AcDbSpline
210
0.0
220
0.0
230
1.0
 70
     0
 71
     3
 72
     8
 73
     4
 74
     0
 42
0.0000000001
 43
0.0000000001
 40
0.0
 40
0.0
 40
0.0
 40
0.0
 40
1.0
 40
1.0
 40
1.0
 40
1.0
 10
-9.9449000000000005
 20
15.303700000000001
 30
0.0
 10
-9.9449000000000005
 20
15.303700000000001
 30
0.0
 10
-8.0149000000000008
 20
17.233700000000002
 30
0.0
 10
-8.0149000000000008
 20
17.233700000000002
 30
0.0
  0
SPLINE
  5
167
100
AcDbEntity
  8
LC-006-002-RND-0
370
    20
100
AcDbSpline
210
0.0
220
0.0
230
1.0
 70
     0
 71
     3
 72
     8
 73
     4
 74
     0
 42
0.0000000001
 43
0.0000000001
 40
0.0
 40
0.0
 40
0.0
 40
0.0
 40
1.0
 40
1.0
 40
1.0
 40
1.0
 10
-11.0366
 20
15.303700000000001
 30
0.0
 10
-11.0366
 20
15.303700000000001
 30
0.0
 10
-9.1067
 20
17.233700000000002
 30
0.0
 10
-9.1067
 20
17.233700000000002
 30
0.0
  0
SPLINE
  5
168
100
AcDbEntity
  8
LC-006-002-RND-0
370
    20
100
AcDbSpline
210
0.0
220
0.0
230
1.0
 70
     0
 71
     3
 72
     8
 73
     4
 74
     0
 42
0.0000000001
 43
0.0000000001
 40
0.0
 40
0.0
 40
0.0
 40
0.0
 40
1.0
 40
1.0
 40
1.0
 40
1.0
 10
-12.128400000000001
 20
15.303700000000001
 30
0.0
 10
-12.128400000000001
 20
15.303700000000001
 30
0.0
 10
-10.198400000000001
 20
17.233700000000002
 30
0.0
 10
-10.198400000000001
 20
17.233700000000002
 30
0.0
  0
SPLINE
  5
169
100
AcDbEntity
  8
LC-006-002-RND-0
370
    20
100
AcDbSpline
210
0.0
220
0.0
230
1.0
 70
     0
 71
     3
 72
     8
 73
     4
 74
     0
 42
0.0000000001
 43
0.0000000001
 40
0.0
 40
0.0
 40
0.0
 40
0.0
 40
1.0
 40
1.0
 40
1.0
 40
1.0
 10
-13.2202
 20
15.303700000000001
 30
0.0
 10
-13.2202
 20
15.303700000000001
 30
0.0
 10
-11.2902
 20
17.233700000000002
 30
0.0
 10
-11.2902
 20
17.233700000000002
 30
0.0
  0
SPLINE
  5
16A
100
AcDbEntity
  8
LC-006-002-RND-0
370
    20
100
AcDbSpline
210
0.0
220
0.0
230
1.0
 70
     0
 71
     3
 72
     8
 73
     4
 74
     0
 42
0.0000000001
 43
0.0000000001
 40
0.0
 40
0.0
 40
0.0
 40
0.0
 40
1.0
 40
1.0
 40
1.0
 40
1.0
 10
-14.312000000000001
 20
15.303700000000001
 30
0.0
 10
-14.312000000000001
 20
15.303700000000001
 30
0.0
 10
-12.382000000000001
 20
17.233700000000002
 30
0.0
 10
-12.382000000000001
 20
17.233700000000002
 30
0.0
  0
SPLINE
  5
16B
100
AcDbEntity
  8
LC-006-002-RND-0
370
    20
100
AcDbSpline
210
0.0
220
0.0
230
1.0
 70
     0
 71
     3
 72
     8
 73
     4
 74
     0
 42
0.0000000001
 43
0.0000000001
 40
0.0
 40
0.0
 40
0.0
 40
0.0
 40
1.0
 40
1.0
 40
1.0
 40
1.0
 10
-15.403700000000001
 20
15.303700000000001
 30
0.0
 10
-15.403700000000001
 20
15.303700000000001
 30
0.0
 10
-13.473700000000001
 20
17.233700000000002
 30
0.0
 10
-13.473700000000001
 20
17.233700000000002
 30
0.0
  0
SPLINE
  5
16C
100
AcDbEntity
  8
LC-006-002-RND-0
370
    20
100
AcDbSpline
210
0.0
220
0.0
230
1.0
 70
     0
 71
     3
 72
     8
 73
     4
 74
     0
 42
0.0000000001
 43
0.0000000001
 40
0.0
 40
0.0
 40
0.0
 40
0.0
 40
1.0
 40
1.0
 40
1.0
 40
1.0
 10
-16.4955
 20
15.303700000000001
 30
0.0
 10
-16.4955
 20
15.303700000000001
 30
0.0
 10
-14.5655
 20
17.233700000000002
 30
0.0
 10
-14.5655
 20
17.233700000000002
 30
0.0
  0
SPLINE
  5
16D
100
AcDbEntity
  8
LC-006-002-RND-0
370
    20
100
AcDbSpline
210
0.0
220
0.0
230
1.0
 70
     0
 71
     3
 72
     8
 73
     4
 74
     0
 42
0.0000000001
 43
0.0000000001
 40
0.0
 40
0.0
 40
0.0
 40
0.0
 40
1.0
 40
1.0
 40
1.0
 40
1.0
 10
-17.587300000000003
 20
15.303700000000001
 30
0.0
 10
-17.587300000000003
 20
15.303700000000001
 30
0.0
 10
-15.657300000000001
 20
17.233700000000002
 30
0.0
 10
-15.657300000000001
 20
17.233700000000002
 30
0.0
  0
SPLINE
  5
16E
100
AcDbEntity
  8
LC-006-002-RND-0
370
    20
100
AcDbSpline
210
0.0
220
0.0
230
1.0
 70
     0
 71
     3
 72
     8
 73
     4
 74
     0
 42
0.0000000001
 43
0.0000000001
 40
0.0
 40
0.0
 40
0.0
 40
0.0
 40
1.0
 40
1.0
 40
1.0
 40
1.0
 10
-18.679000000000002
 20
15.303700000000001
 30
0.0
 10
-18.679000000000002
 20
15.303700000000001
 30
0.0
 10
-16.749000000000002
 20
17.233700000000002
 30
0.0
 10
-16.749000000000002
 20
17.233700000000002
 30
0.0
  0
SPLINE
  5
16F
100
AcDbEntity
  8
LC-006-002-RND-0
370
    20
100
AcDbSpline
210
0.0
220
0.0
230
1.0
 70
     0
 71
     3
 72
     8
 73
     4
 74
     0
 42
0.0000000001
 43
0.0000000001
 40
0.0
 40
0.0
 40
0.0
 40
0.0
 40
1.0
 40
1.0
 40
1.0
 40
1.0
 10
-19.770800000000001
 20
15.303700000000001
 30
0.0
 10
-19.770800000000001
 20
15.303700000000001
 30
0.0
 10
-17.840800000000002
 20
17.233700000000002
 30
0.0
 10
-17.840800000000002
 20
17.233700000000002
 30
0.0
  0
SPLINE
  5
170
100
AcDbEntity
  8
LC-006-002-RND-0
370
    20
100
AcDbSpline
210
0.0
220
0.0
230
1.0
 70
     0
 71
     3
 72
     8
 73
     4
 74
     0
 42
0.0000000001
 43
0.0000000001
 40
0.0
 40
0.0
 40
0.0
 40
0.0
 40
1.0
 40
1.0
 40
1.0
 40
1.0
 10
-20.8626
 20
15.303700000000001
 30
0.0
 10
-20.8626
 20
15.303700000000001
 30
0.0
 10
-18.932600000000001
 20
17.233700000000002
 30
0.0
 10
-18.932600000000001
 20
17.233700000000002
 30
0.0
  0
SPLINE
  5
171
100
AcDbEntity
  8
LC-006-002-RND-0
370
    20
100
AcDbSpline
210
0.0
220
0.0
230
1.0
 70
     0
 71
     3
 72
     8
 73
     4
 74
     0
 42
0.0000000001
 43
0.0000000001
 40
0.0
 40
0.0
 40
0.0
 40
0.0
 40
1.0
 40
1.0
 40
1.0
 40
1.0
 10
-21.9544
 20
15.303700000000001
 30
0.0
 10
-21.9544
 20
15.303700000000001
 30
0.0
 10
-20.0244
 20
17.233700000000002
 30
0.0
 10
-20.0244
 20
17.233700000000002
 30
0.0
  0
SPLINE
  5
172
100
AcDbEntity
  8
LC-006-002-RND-0
370
    20
100
AcDbSpline
210
0.0
220
0.0
230
1.0
 70
     0
 71
     3
 72
     8
 73
     4
 74
     0
 42
0.0000000001
 43
0.0000000001
 40
0.0
 40
0.0
 40
0.0
 40
0.0
 40
1.0
 40
1.0
 40
1.0
 40
1.0
 10
-23.046100000000003
 20
15.303700000000001
 30
0.0
 10
-23.046100000000003
 20
15.303700000000001
 30
0.0
 10
-21.116099999999999
 20
17.233700000000002
 30
0.0
 10
-21.116099999999999
 20
17.233700000000002
 30
0.0
  0
SPLINE
  5
173
100
AcDbEntity
  8
LC-006-002-RND-0
370
    20
100
AcDbSpline
210
0.0
220
0.0
230
1.0
 70
     0
 71
     3
 72
     8
 73
     4
 74
     0
 42
0.0000000001
 43
0.0000000001
 40
0.0
 40
0.0
 40
0.0
 40
0.0
 40
1.0
 40
1.0
 40
1.0
 40
1.0
 10
-24.137900000000002
 20
15.303700000000001
 30
0.0
 10
-24.137900000000002
 20
15.303700000000001
 30
0.0
 10
-22.207900000000002
 20
17.233700000000002
 30
0.0
 10
-22.207900000000002
 20
17.233700000000002
 30
0.0
  0
SPLINE
  5
174
100
AcDbEntity
  8
LC-006-002-RND-0
370
    20
100
AcDbSpline
210
0.0
220
0.0
230
1.0
 70
     0
 71
     3
 72
     8
 73
     4
 74
     0
 42
0.0000000001
 43
0.0000000001
 40
0.0
 40
0.0
 40
0.0
 40
0.0
 40
1.0
 40
1.0
 40
1.0
 40
1.0
 10
-25.229700000000001
 20
15.303700000000001
 30
0.0
 10
-25.229700000000001
 20
15.303700000000001
 30
0.0
 10
-23.299700000000001
 20
17.233700000000002
 30
0.0
 10
-23.299700000000001
 20
17.233700000000002
 30
0.0
  0
SPLINE
  5
175
100
AcDbEntity
  8
LC-006-002-RND-0
370
    20
100
AcDbSpline
210
0.0
220
0.0
230
1.0
 70
     0
 71
     3
 72
     8
 73
     4
 74
     0
 42
0.0000000001
 43
0.0000000001
 40
0.0
 40
0.0
 40
0.0
 40
0.0
 40
1.0
 40
1.0
 40
1.0
 40
1.0
 10
-26.3215
 20
15.303700000000001
 30
0.0
 10
-26.3215
 20
15.303700000000001
 30
0.0
 10
-24.391500000000001
 20
17.233700000000002
 30
0.0
 10
-24.391500000000001
 20
17.233700000000002
 30
0.0
  0
SPLINE
  5
176
100
AcDbEntity
  8
LC-006-002-RND-0
370
    20
100
AcDbSpline
210
0.0
220
0.0
230
1.0
 70
     0
 71
     3
 72
     8
 73
     4
 74
     0
 42
0.0000000001
 43
0.0000000001
 40
0.0
 40
0.0
 40
0.0
 40
0.0
 40
1.0
 40
1.0
 40
1.0
 40
1.0
 10
-27.4132
 20
15.303700000000001
 30
0.0
 10
-27.4132
 20
15.303700000000001
 30
0.0
 10
-25.4832
 20
17.233700000000002
 30
0.0
 10
-25.4832
 20
17.233700000000002
 30
0.0
  0
SPLINE
  5
177
100
AcDbEntity
  8
LC-006-002-RND-0
370
    20
100
AcDbSpline
210
0.0
220
0.0
230
1.0
 70
     0
 71
     3
 72
     8
 73
     4
 74
     0
 42
0.0000000001
 43
0.0000000001
 40
0.0
 40
0.0
 40
0.0
 40
0.0
 40
1.0
 40
1.0
 40
1.0
 40
1.0
 10
-27.871500000000001
 20
15.937200000000001
 30
0.0
 10
-27.871500000000001
 20
15.937200000000001
 30
0.0
 10
-26.575000000000003
 20
17.233700000000002
 30
0.0
 10
-26.575000000000003
 20
17.233700000000002
 30
0.0
  0
SPLINE
  5
178
100
AcDbEntity
  8
LC-006-002-RND-0
370
    20
100
AcDbSpline
210
0.0
220
0.0
230
1.0
 70
     0
 71
     3
 72
     8
 73
     4
 74
     0
 42
0.0000000001
 43
0.0000000001
 40
0.0
 40
0.0
 40
0.0
 40
0.0
 40
1.0
 40
1.0
 40
1.0
 40
1.0
 10
-27.871500000000001
 20
17.029
 30
0.0
 10
-27.871500000000001
 20
17.029
 30
0.0
 10
-27.666800000000002
 20
17.233700000000002
 30
0.0
 10
-27.666800000000002
 20
17.233700000000002
 30
0.0
  0
SPLINE
  5
179
100
AcDbEntity
  8
LC-006-002-RND-0
370
    20
100
AcDbSpline
210
0.0
220
0.0
230
1.0
 70
     0
 71
     3
 72
     8
 73
     4
 74
     0
 42
0.0000000001
 43
0.0000000001
 40
0.0
 40
0.0
 40
0.0
 40
0.0
 40
1.0
 40
1.0
 40
1.0
 40
1.0
 10
-3.7195
 20
16.424800000000001
 30
0.0
 10
-3.7195
 20
16.424800000000001
 30
0.0
 10
-4.5284000000000004
 20
17.233700000000002
 30
0.0
 10
-4.5284000000000004
 20
17.233700000000002
 30
0.0
  0
SPLINE
  5
17A
100
AcDbEntity
  8
LC-006-002-RND-0
370
    20
100
AcDbSpline
210
0.0
220
0.0
230
1.0
 70
     0
 71
     3
 72
     8
 73
     4
 74
     0
 42
0.0000000001
 43
0.0000000001
 40
0.0
 40
0.0
 40
0.0
 40
0.0
 40
1.0
 40
1.0
 40
1.0
 40
1.0
 10
-3.7195
 20
15.333
 30
0.0
 10
-3.7195
 20
15.333
 30
0.0
 10
-5.6200999999999999
 20
17.233700000000002
 30
0.0
 10
-5.6200999999999999
 20
17.233700000000002
 30
0.0
  0
SPLINE
  5
17B
100
AcDbEntity
  8
LC-006-002-RND-0
370
    20
100
AcDbSpline
210
0.0
220
0.0
230
1.0
 70
     0
 71
     3
 72
     8
 73
     4
 74
     0
 42
0.0000000001
 43
0.0000000001
 40
0.0
 40
0.0
 40
0.0
 40
0.0
 40
1.0
 40
1.0
 40
1.0
 40
1.0
 10
-4.7819000000000003
 20
15.303700000000001
 30
0.0
 10
-4.7819000000000003
 20
15.303700000000001
 30
0.0
 10
-6.7119
 20
17.233700000000002
 30
0.0
 10
-6.7119
 20
17.233700000000002
 30
0.0
  0
SPLINE
  5
17C
100
AcDbEntity
  8
LC-006-002-RND-0
370
    20
100
AcDbSpline
210
0.0
220
0.0
230
1.0
 70
     0
 71
     3
 72
     8
 73
     4
 74
     0
 42
0.0000000001
 43
0.0000000001
 40
0.0
 40
0.0
 40
0.0
 40
0.0
 40
1.0
 40
1.0
 40
1.0
 40
1.0
 10
-5.8737000000000004
 20
15.303700000000001
 30
0.0
 10
-5.8737000000000004
 20
15.303700000000001
 30
0.0
 10
-7.8037000000000001
 20
17.233700000000002
 30
0.0
 10
-7.8037000000000001
 20
17.233700000000002
 30
0.0
  0
SPLINE
  5
17D
100
AcDbEntity
  8
LC-006-002-RND-0
370
    20
100
AcDbSpline
210
0.0
220
0.0
230
1.0
 70
     0
 71
     3
 72
     8
 73
     4
 74
     0
 42
0.0000000001
 43
0.0000000001
 40
0.0
 40
0.0
 40
0.0
 40
0.0
 40
1.0
 40
1.0
 40
1.0
 40
1.0
 10
-6.9654000000000007
 20
15.303700000000001
 30
0.0
 10
-6.9654000000000007
 20
15.303700000000001
 30
0.0
 10
-8.8954000000000004
 20
17.233700000000002
 30
0.0
 10
-8.8954000000000004
 20
17.233700000000002
 30
0.0
  0
SPLINE
  5
17E
100
AcDbEntity
  8
LC-006-002-RND-0
370
    20
100
AcDbSpline
210
0.0
220
0.0
230
1.0
 70
     0
 71
     3
 72
     8
 73
     4
 74
     0
 42
0.0000000001
 43
0.0000000001
 40
0.0
 40
0.0
 40
0.0
 40
0.0
 40
1.0
 40
1.0
 40
1.0
 40
1.0
 10
-8.0571999999999999
 20
15.303700000000001
 30
0.0
 10
-8.0571999999999999
 20
15.303700000000001
 30
0.0
 10
-9.9871999999999996
 20
17.233700000000002
 30
0.0
 10
-9.9871999999999996
 20
17.233700000000002
 30
0.0
  0
SPLINE
  5
17F
100
AcDbEntity
  8
LC-006-002-RND-0
370
    20
100
AcDbSpline
210
0.0
220
0.0
230
1.0
 70
     0
 71
     3
 72
     8
 73
     4
 74
     0
 42
0.0000000001
 43
0.0000000001
 40
0.0
 40
0.0
 40
0.0
 40
0.0
 40
1.0
 40
1.0
 40
1.0
 40
1.0
 10
-9.1490000000000009
 20
15.303700000000001
 30
0.0
 10
-9.1490000000000009
 20
15.303700000000001
 30
0.0
 10
-11.079000000000001
 20
17.233700000000002
 30
0.0
 10
-11.079000000000001
 20
17.233700000000002
 30
0.0
  0
SPLINE
  5
180
100
AcDbEntity
  8
LC-006-002-RND-0
370
    20
100
AcDbSpline
210
0.0
220
0.0
230
1.0
 70
     0
 71
     3
 72
     8
 73
     4
 74
     0
 42
0.0000000001
 43
0.0000000001
 40
0.0
 40
0.0
 40
0.0
 40
0.0
 40
1.0
 40
1.0
 40
1.0
 40
1.0
 10
-10.2407
 20
15.303700000000001
 30
0.0
 10
-10.2407
 20
15.303700000000001
 30
0.0
 10
-12.1707
 20
17.233700000000002
 30
0.0
 10
-12.1707
 20
17.233700000000002
 30
0.0
  0
SPLINE
  5
181
100
AcDbEntity
  8
LC-006-002-RND-0
370
    20
100
AcDbSpline
210
0.0
220
0.0
230
1.0
 70
     0
 71
     3
 72
     8
 73
     4
 74
     0
 42
0.0000000001
 43
0.0000000001
 40
0.0
 40
0.0
 40
0.0
 40
0.0
 40
1.0
 40
1.0
 40
1.0
 40
1.0
 10
-11.332500000000001
 20
15.303700000000001
 30
0.0
 10
-11.332500000000001
 20
15.303700000000001
 30
0.0
 10
-13.262500000000001
 20
17.233700000000002
 30
0.0
 10
-13.262500000000001
 20
17.233700000000002
 30
0.0
  0
SPLINE
  5
182
100
AcDbEntity
  8
LC-006-002-RND-0
370
    20
100
AcDbSpline
210
0.0
220
0.0
230
1.0
 70
     0
 71
     3
 72
     8
 73
     4
 74
     0
 42
0.0000000001
 43
0.0000000001
 40
0.0
 40
0.0
 40
0.0
 40
0.0
 40
1.0
 40
1.0
 40
1.0
 40
1.0
 10
-12.424300000000001
 20
15.303700000000001
 30
0.0
 10
-12.424300000000001
 20
15.303700000000001
 30
0.0
 10
-14.3543
 20
17.233700000000002
 30
0.0
 10
-14.3543
 20
17.233700000000002
 30
0.0
  0
SPLINE
  5
183
100
AcDbEntity
  8
LC-006-002-RND-0
370
    20
100
AcDbSpline
210
0.0
220
0.0
230
1.0
 70
     0
 71
     3
 72
     8
 73
     4
 74
     0
 42
0.0000000001
 43
0.0000000001
 40
0.0
 40
0.0
 40
0.0
 40
0.0
 40
1.0
 40
1.0
 40
1.0
 40
1.0
 10
-13.516
 20
15.303700000000001
 30
0.0
 10
-13.516
 20
15.303700000000001
 30
0.0
 10
-15.446000000000002
 20
17.233700000000002
 30
0.0
 10
-15.446000000000002
 20
17.233700000000002
 30
0.0
  0
SPLINE
  5
184
100
AcDbEntity
  8
LC-006-002-RND-0
370
    20
100
AcDbSpline
210
0.0
220
0.0
230
1.0
 70
     0
 71
     3
 72
     8
 73
     4
 74
     0
 42
0.0000000001
 43
0.0000000001
 40
0.0
 40
0.0
 40
0.0
 40
0.0
 40
1.0
 40
1.0
 40
1.0
 40
1.0
 10
-14.607800000000001
 20
15.303700000000001
 30
0.0
 10
-14.607800000000001
 20
15.303700000000001
 30
0.0
 10
-16.537800000000001
 20
17.233700000000002
 30
0.0
 10
-16.537800000000001
 20
17.233700000000002
 30
0.0
  0
SPLINE
  5
185
100
AcDbEntity
  8
LC-006-002-RND-0
370
    20
100
AcDbSpline
210
0.0
220
0.0
230
1.0
 70
     0
 71
     3
 72
     8
 73
     4
 74
     0
 42
0.0000000001
 43
0.0000000001
 40
0.0
 40
0.0
 40
0.0
 40
0.0
 40
1.0
 40
1.0
 40
1.0
 40
1.0
 10
-15.6996
 20
15.303700000000001
 30
0.0
 10
-15.6996
 20
15.303700000000001
 30
0.0
 10
-17.6296
 20
17.233700000000002
 30
0.0
 10
-17.6296
 20
17.233700000000002
 30
0.0
  0
SPLINE
  5
186
100
AcDbEntity
  8
LC-006-002-RND-0
370
    20
100
AcDbSpline
210
0.0
220
0.0
230
1.0
 70
     0
 71
     3
 72
     8
 73
     4
 74
     0
 42
0.0000000001
 43
0.0000000001
 40
0.0
 40
0.0
 40
0.0
 40
0.0
 40
1.0
 40
1.0
 40
1.0
 40
1.0
 10
-16.791399999999999
 20
15.303700000000001
 30
0.0
 10
-16.791399999999999
 20
15.303700000000001
 30
0.0
 10
-18.721399999999999
 20
17.233700000000002
 30
0.0
 10
-18.721399999999999
 20
17.233700000000002
 30
0.0
  0
SPLINE
  5
187
100
AcDbEntity
  8
LC-006-002-RND-0
370
    20
100
AcDbSpline
210
0.0
220
0.0
230
1.0
 70
     0
 71
     3
 72
     8
 73
     4
 74
     0
 42
0.0000000001
 43
0.0000000001
 40
0.0
 40
0.0
 40
0.0
 40
0.0
 40
1.0
 40
1.0
 40
1.0
 40
1.0
 10
-17.883200000000002
 20
15.303700000000001
 30
0.0
 10
-17.883200000000002
 20
15.303700000000001
 30
0.0
 10
-19.813200000000002
 20
17.233700000000002
 30
0.0
 10
-19.813200000000002
 20
17.233700000000002
 30
0.0
  0
SPLINE
  5
188
100
AcDbEntity
  8
LC-006-002-RND-0
370
    20
100
AcDbSpline
210
0.0
220
0.0
230
1.0
 70
     0
 71
     3
 72
     8
 73
     4
 74
     0
 42
0.0000000001
 43
0.0000000001
 40
0.0
 40
0.0
 40
0.0
 40
0.0
 40
1.0
 40
1.0
 40
1.0
 40
1.0
 10
-18.974900000000002
 20
15.303700000000001
 30
0.0
 10
-18.974900000000002
 20
15.303700000000001
 30
0.0
 10
-20.904900000000001
 20
17.233700000000002
 30
0.0
 10
-20.904900000000001
 20
17.233700000000002
 30
0.0
  0
SPLINE
  5
189
100
AcDbEntity
  8
LC-006-002-RND-0
370
    20
100
AcDbSpline
210
0.0
220
0.0
230
1.0
 70
     0
 71
     3
 72
     8
 73
     4
 74
     0
 42
0.0000000001
 43
0.0000000001
 40
0.0
 40
0.0
 40
0.0
 40
0.0
 40
1.0
 40
1.0
 40
1.0
 40
1.0
 10
-20.066700000000001
 20
15.303700000000001
 30
0.0
 10
-20.066700000000001
 20
15.303700000000001
 30
0.0
 10
-21.996700000000001
 20
17.233700000000002
 30
0.0
 10
-21.996700000000001
 20
17.233700000000002
 30
0.0
  0
SPLINE
  5
18A
100
AcDbEntity
  8
LC-006-002-RND-0
370
    20
100
AcDbSpline
210
0.0
220
0.0
230
1.0
 70
     0
 71
     3
 72
     8
 73
     4
 74
     0
 42
0.0000000001
 43
0.0000000001
 40
0.0
 40
0.0
 40
0.0
 40
0.0
 40
1.0
 40
1.0
 40
1.0
 40
1.0
 10
-21.1585
 20
15.303700000000001
 30
0.0
 10
-21.1585
 20
15.303700000000001
 30
0.0
 10
-23.0885
 20
17.233700000000002
 30
0.0
 10
-23.0885
 20
17.233700000000002
 30
0.0
  0
SPLINE
  5
18B
100
AcDbEntity
  8
LC-006-002-RND-0
370
    20
100
AcDbSpline
210
0.0
220
0.0
230
1.0
 70
     0
 71
     3
 72
     8
 73
     4
 74
     0
 42
0.0000000001
 43
0.0000000001
 40
0.0
 40
0.0
 40
0.0
 40
0.0
 40
1.0
 40
1.0
 40
1.0
 40
1.0
 10
-22.2502
 20
15.303700000000001
 30
0.0
 10
-22.2502
 20
15.303700000000001
 30
0.0
 10
-24.180200000000003
 20
17.233700000000002
 30
0.0
 10
-24.180200000000003
 20
17.233700000000002
 30
0.0
  0
SPLINE
  5
18C
100
AcDbEntity
  8
LC-006-002-RND-0
370
    20
100
AcDbSpline
210
0.0
220
0.0
230
1.0
 70
     0
 71
     3
 72
     8
 73
     4
 74
     0
 42
0.0000000001
 43
0.0000000001
 40
0.0
 40
0.0
 40
0.0
 40
0.0
 40
1.0
 40
1.0
 40
1.0
 40
1.0
 10
-23.342000000000002
 20
15.303700000000001
 30
0.0
 10
-23.342000000000002
 20
15.303700000000001
 30
0.0
 10
-25.272000000000002
 20
17.233700000000002
 30
0.0
 10
-25.272000000000002
 20
17.233700000000002
 30
0.0
  0
SPLINE
  5
18D
100
AcDbEntity
  8
LC-006-002-RND-0
370
    20
100
AcDbSpline
210
0.0
220
0.0
230
1.0
 70
     0
 71
     3
 72
     8
 73
     4
 74
     0
 42
0.0000000001
 43
0.0000000001
 40
0.0
 40
0.0
 40
0.0
 40
0.0
 40
1.0
 40
1.0
 40
1.0
 40
1.0
 10
-24.433800000000002
 20
15.303700000000001
 30
0.0
 10
-24.433800000000002
 20
15.303700000000001
 30
0.0
 10
-26.363800000000001
 20
17.233700000000002
 30
0.0
 10
-26.363800000000001
 20
17.233700000000002
 30
0.0
  0
SPLINE
  5
18E
100
AcDbEntity
  8
LC-006-002-RND-0
370
    20
100
AcDbSpline
210
0.0
220
0.0
230
1.0
 70
     0
 71
     3
 72
     8
 73
     4
 74
     0
 42
0.0000000001
 43
0.0000000001
 40
0.0
 40
0.0
 40
0.0
 40
0.0
 40
1.0
 40
1.0
 40
1.0
 40
1.0
 10
-25.525500000000001
 20
15.303700000000001
 30
0.0
 10
-25.525500000000001
 20
15.303700000000001
 30
0.0
 10
-27.455500000000001
 20
17.233700000000002
 30
0.0
 10
-27.455500000000001
 20
17.233700000000002
 30
0.0
  0
SPLINE
  5
18F
100
AcDbEntity
  8
LC-006-002-RND-0
370
    20
100
AcDbSpline
210
0.0
220
0.0
230
1.0
 70
     0
 71
     3
 72
     8
 73
     4
 74
     0
 42
0.0000000001
 43
0.0000000001
 40
0.0
 40
0.0
 40
0.0
 40
0.0
 40
1.0
 40
1.0
 40
1.0
 40
1.0
 10
-26.6173
 20
15.303700000000001
 30
0.0
 10
-26.6173
 20
15.303700000000001
 30
0.0
 10
-27.871500000000001
 20
16.5578
 30
0.0
 10
-27.871500000000001
 20
16.5578
 30
0.0
  0
SPLINE
  5
190
100
AcDbEntity
  8
LC-006-002-RND-0
370
    20
100
AcDbSpline
210
0.0
220
0.0
230
1.0
 70
     0
 71
     3
 72
     8
 73
     4
 74
     0
 42
0.0000000001
 43
0.0000000001
 40
0.0
 40
0.0
 40
0.0
 40
0.0
 40
1.0
 40
1.0
 40
1.0
 40
1.0
 10
-27.709100000000003
 20
15.303700000000001
 30
0.0
 10
-27.709100000000003
 20
15.303700000000001
 30
0.0
 10
-27.871500000000001
 20
15.466000000000001
 30
0.0
 10
-27.871500000000001
 20
15.466000000000001
 30
0.0
  0
SPLINE
  5
191
100
AcDbEntity
  8
LC-006-002-RND-0
100
AcDbSpline
210
0.0
220
0.0
230
1.0
 70
     1
 71
     3
 72
    48
 73
    44
 74
     0
 42
0.0000000001
 43
0.0000000001
 40
0.0
 40
0.0
 40
0.0
 40
0.0
 40
0.0909090909090909
 40
0.0909090909090909
 40
0.0909090909090909
 40
0.0909090909090909
 40
0.1818181818181818
 40
0.1818181818181818
 40
0.1818181818181818
 40
0.1818181818181818
 40
0.2727272727272727
 40
0.2727272727272727
 40
0.2727272727272727
 40
0.2727272727272727
 40
0.3636363636363637
 40
0.3636363636363637
 40
0.3636363636363637
 40
0.3636363636363637
 40
0.4545454545454546
 40
0.4545454545454546
 40
0.4545454545454546
 40
0.4545454545454546
 40
0.5454545454545455
 40
0.5454545454545455
 40
0.5454545454545455
 40
0.5454545454545455
 40
0.6363636363636365
 40
0.6363636363636365
 40
0.6363636363636365
 40
0.6363636363636365
 40
0.7272727272727274
 40
0.7272727272727274
 40
0.7272727272727274
 40
0.7272727272727274
 40
0.8181818181818183
 40
0.8181818181818183
 40
0.8181818181818183
 40
0.8181818181818183
 40
0.9090909090909093
 40
0.9090909090909093
 40
0.9090909090909093
 40
0.9090909090909093
 40
1.0
 40
1.0
 40
1.0
 40
1.0
 10
23.036000000000001
 20
22.901
 30
0.0
 10
23.036000000000001
 20
22.901
 30
0.0
 10
21.102800000000002
 20
23.308500000000002
 30
0.0
 10
21.102800000000002
 20
23.308500000000002
 30
0.0
 10
21.102800000000002
 20
23.308500000000002
 30
0.0
 10
21.102800000000002
 20
23.308500000000002
 30
0.0
 10
21.102800000000002
 20
20.2182
 30
0.0
 10
21.102800000000002
 20
20.2182
 30
0.0
 10
21.102800000000002
 20
20.2182
 30
0.0
 10
21.102800000000002
 20
20.2182
 30
0.0
 10
20.1785
 20
20.415700000000001
 30
0.0
 10
20.1785
 20
20.415700000000001
 30
0.0
 10
20.1785
 20
20.415700000000001
 30
0.0
 10
20.1785
 20
20.415700000000001
 30
0.0
 10
15.460100000000001
 20
24.657900000000001
 30
0.0
 10
15.460100000000001
 20
24.657900000000001
 30
0.0
 10
15.460100000000001
 20
24.657900000000001
 30
0.0
 10
15.460100000000001
 20
24.657900000000001
 30
0.0
 10
15.460100000000001
 20
25.423400000000001
 30
0.0
 10
15.460100000000001
 20
25.423400000000001
 30
0.0
 10
15.460100000000001
 20
25.423400000000001
 30
0.0
 10
15.460100000000001
 20
25.423400000000001
 30
0.0
 10
20.2773
 20
24.4145
 30
0.0
 10
20.2773
 20
24.4145
 30
0.0
 10
20.2773
 20
24.4145
 30
0.0
 10
20.2773
 20
24.4145
 30
0.0
 10
20.2773
 20
25.479800000000001
 30
0.0
 10
20.2773
 20
25.479800000000001
 30
0.0
 10
20.2773
 20
25.479800000000001
 30
0.0
 10
20.2773
 20
25.479800000000001
 30
0.0
 10
21.102800000000002
 20
25.308700000000002
 30
0.0
 10
21.102800000000002
 20
25.308700000000002
 30
0.0
 10
21.102800000000002
 20
25.308700000000002
 30
0.0
 10
21.102800000000002
 20
25.308700000000002
 30
0.0
 10
21.102800000000002
 20
24.245100000000001
 30
0.0
 10
21.102800000000002
 20
24.245100000000001
 30
0.0
 10
21.102800000000002
 20
24.245100000000001
 30
0.0
 10
21.102800000000002
 20
24.245100000000001
 30
0.0
 10
23.036000000000001
 20
23.835900000000002
 30
0.0
 10
23.036000000000001
 20
23.835900000000002
 30
0.0
 10
23.036000000000001
 20
23.835900000000002
 30
0.0
 10
23.036000000000001
 20
23.835900000000002
 30
0.0
 10
23.036000000000001
 20
22.901
 30
0.0
 10
23.036000000000001
 20
22.901
 30
0.0
  0
SPLINE
  5
192
100
AcDbEntity
  8
LC-006-002-RND-0
100
AcDbSpline
210
0.0
220
0.0
230
1.0
 70
     1
 71
     3
 72
    16
 73
    12
 74
     0
 42
0.0000000001
 43
0.0000000001
 40
0.0
 40
0.0
 40
0.0
 40
0.0
 40
0.3333333333333333
 40
0.3333333333333333
 40
0.3333333333333333
 40
0.3333333333333333
 40
0.6666666666666666
 40
0.6666666666666666
 40
0.6666666666666666
 40
0.6666666666666666
 40
1.0
 40
1.0
 40
1.0
 40
1.0
 10
20.2773
 20
23.479600000000001
 30
0.0
 10
20.2773
 20
23.479600000000001
 30
0.0
 10
17.114599999999999
 20
24.141100000000002
 30
0.0
 10
17.114599999999999
 20
24.141100000000002
 30
0.0
 10
17.114599999999999
 20
24.141100000000002
 30
0.0
 10
17.114599999999999
 20
24.141100000000002
 30
0.0
 10
20.2773
 20
21.3188
 30
0.0
 10
20.2773
 20
21.3188
 30
0.0
 10
20.2773
 20
21.3188
 30
0.0
 10
20.2773
 20
21.3188
 30
0.0
 10
20.2773
 20
23.479600000000001
 30
0.0
 10
20.2773
 20
23.479600000000001
 30
0.0
  0
SPLINE
  5
193
100
AcDbEntity
  8
LC-006-002-RND-0
100
AcDbSpline
210
0.0
220
0.0
230
1.0
 70
     1
 71
     3
 72
    44
 73
    40
 74
     0
 42
0.0000000001
 43
0.0000000001
 40
0.0
 40
0.0
 40
0.0
 40
0.0
 40
0.1
 40
0.1
 40
0.1
 40
0.1
 40
0.2
 40
0.2
 40
0.2
 40
0.2
 40
0.3
 40
0.3
 40
0.3
 40
0.3
 40
0.4
 40
0.4
 40
0.4
 40
0.4
 40
0.5
 40
0.5
 40
0.5
 40
0.5
 40
0.6
 40
0.6
 40
0.6
 40
0.6
 40
0.7
 40
0.7
 40
0.7
 40
0.7
 40
0.7999999999999999
 40
0.7999999999999999
 40
0.7999999999999999
 40
0.7999999999999999
 40
0.8999999999999999
 40
0.8999999999999999
 40
0.8999999999999999
 40
0.8999999999999999
 40
1.0
 40
1.0
 40
1.0
 40
1.0
 10
23.036000000000001
 20
27.159100000000002
 30
0.0
 10
22.526199999999999
 20
27.242000000000001
 30
0.0
 10
21.912400000000002
 20
27.418400000000002
 30
0.0
 10
21.196300000000001
 20
27.686500000000002
 30
0.0
 10
21.196300000000001
 20
27.686500000000002
 30
0.0
 10
20.332000000000001
 20
28.0075
 30
0.0
 10
19.473000000000003
 20
28.427300000000002
 30
0.0
 10
18.621000000000002
 20
28.947700000000001
 30
0.0
 10
18.621000000000002
 20
28.947700000000001
 30
0.0
 10
17.767300000000002
 20
29.468
 30
0.0
 10
17.035299999999999
 20
30.046600000000002
 30
0.0
 10
16.421400000000002
 20
30.683300000000003
 30
0.0
 10
16.421400000000002
 20
30.683300000000003
 30
0.0
 10
16.421400000000002
 20
30.683300000000003
 30
0.0
 10
16.421400000000002
 20
26.9068
 30
0.0
 10
16.421400000000002
 20
26.9068
 30
0.0
 10
16.421400000000002
 20
26.9068
 30
0.0
 10
16.421400000000002
 20
26.9068
 30
0.0
 10
15.564200000000001
 20
27.0868
 30
0.0
 10
15.564200000000001
 20
27.0868
 30
0.0
 10
15.564200000000001
 20
27.0868
 30
0.0
 10
15.564200000000001
 20
27.0868
 30
0.0
 10
15.564200000000001
 20
31.923300000000001
 30
0.0
 10
15.564200000000001
 20
31.923300000000001
 30
0.0
 10
15.564200000000001
 20
31.923300000000001
 30
0.0
 10
15.564200000000001
 20
31.923300000000001
 30
0.0
 10
16.421400000000002
 20
31.748700000000003
 30
0.0
 10
16.421400000000002
 20
31.748700000000003
 30
0.0
 10
16.421400000000002
 20
31.748700000000003
 30
0.0
 10
17.141100000000002
 20
30.928500000000003
 30
0.0
 10
18.070700000000002
 20
30.212400000000002
 30
0.0
 10
19.206600000000002
 20
29.598500000000001
 30
0.0
 10
19.206600000000002
 20
29.598500000000001
 30
0.0
 10
20.518900000000002
 20
28.885900000000003
 30
0.0
 10
21.795999999999999
 20
28.397300000000001
 30
0.0
 10
23.036000000000001
 20
28.136300000000002
 30
0.0
 10
23.036000000000001
 20
28.136300000000002
 30
0.0
 10
23.036000000000001
 20
28.136300000000002
 30
0.0
 10
23.036000000000001
 20
27.159100000000002
 30
0.0
 10
23.036000000000001
 20
27.159100000000002
 30
0.0
  0
SPLINE
  5
194
100
AcDbEntity
  8
LC-006-002-RND-0
100
AcDbSpline
210
0.0
220
0.0
230
1.0
 70
     1
 71
     3
 72
   120
 73
   116
 74
     0
 42
0.0000000001
 43
0.0000000001
 40
0.0
 40
0.0
 40
0.0
 40
0.0
 40
0.0344827586206897
 40
0.0344827586206897
 40
0.0344827586206897
 40
0.0344827586206897
 40
0.0689655172413793
 40
0.0689655172413793
 40
0.0689655172413793
 40
0.0689655172413793
 40
0.103448275862069
 40
0.103448275862069
 40
0.103448275862069
 40
0.103448275862069
 40
0.1379310344827586
 40
0.1379310344827586
 40
0.1379310344827586
 40
0.1379310344827586
 40
0.1724137931034483
 40
0.1724137931034483
 40
0.1724137931034483
 40
0.1724137931034483
 40
0.206896551724138
 40
0.206896551724138
 40
0.206896551724138
 40
0.206896551724138
 40
0.2413793103448276
 40
0.2413793103448276
 40
0.2413793103448276
 40
0.2413793103448276
 40
0.2758620689655173
 40
0.2758620689655173
 40
0.2758620689655173
 40
0.2758620689655173
 40
0.310344827586207
 40
0.310344827586207
 40
0.310344827586207
 40
0.310344827586207
 40
0.3448275862068966
 40
0.3448275862068966
 40
0.3448275862068966
 40
0.3448275862068966
 40
0.3793103448275863
 40
0.3793103448275863
 40
0.3793103448275863
 40
0.3793103448275863
 40
0.413793103448276
 40
0.413793103448276
 40
0.413793103448276
 40
0.413793103448276
 40
0.4482758620689656
 40
0.4482758620689656
 40
0.4482758620689656
 40
0.4482758620689656
 40
0.4827586206896553
 40
0.4827586206896553
 40
0.4827586206896553
 40
0.4827586206896553
 40
0.517241379310345
 40
0.517241379310345
 40
0.517241379310345
 40
0.517241379310345
 40
0.5517241379310346
 40
0.5517241379310346
 40
0.5517241379310346
 40
0.5517241379310346
 40
0.5862068965517242
 40
0.5862068965517242
 40
0.5862068965517242
 40
0.5862068965517242
 40
0.6206896551724138
 40
0.6206896551724138
 40
0.6206896551724138
 40
0.6206896551724138
 40
0.6551724137931034
 40
0.6551724137931034
 40
0.6551724137931034
 40
0.6551724137931034
 40
0.689655172413793
 40
0.689655172413793
 40
0.689655172413793
 40
0.689655172413793
 40
0.7241379310344827
 40
0.7241379310344827
 40
0.7241379310344827
 40
0.7241379310344827
 40
0.7586206896551723
 40
0.7586206896551723
 40
0.7586206896551723
 40
0.7586206896551723
 40
0.7931034482758619
 40
0.7931034482758619
 40
0.7931034482758619
 40
0.7931034482758619
 40
0.8275862068965515
 40
0.8275862068965515
 40
0.8275862068965515
 40
0.8275862068965515
 40
0.8620689655172411
 40
0.8620689655172411
 40
0.8620689655172411
 40
0.8620689655172411
 40
0.8965517241379307
 40
0.8965517241379307
 40
0.8965517241379307
 40
0.8965517241379307
 40
0.9310344827586203
 40
0.9310344827586203
 40
0.9310344827586203
 40
0.9310344827586203
 40
0.9655172413793099
 40
0.9655172413793099
 40
0.9655172413793099
 40
0.9655172413793099
 40
1.0
 40
1.0
 40
1.0
 40
1.0
 10
9.0801999999999996
 20
28.793100000000003
 30
0.0
 10
9.0801999999999996
 20
28.793100000000003
 30
0.0
 10
8.9884000000000004
 20
29.7438
 30
0.0
 10
8.9884000000000004
 20
29.7438
 30
0.0
 10
8.9884000000000004
 20
29.7438
 30
0.0
 10
9.1225000000000005
 20
29.736700000000003
 30
0.0
 10
9.2035999999999998
 20
29.7332
 30
0.0
 10
9.2301000000000002
 20
29.7332
 30
0.0
 10
9.2301000000000002
 20
29.7332
 30
0.0
 10
9.4576000000000011
 20
29.7332
 30
0.0
 10
9.6868999999999996
 20
29.791400000000003
 30
0.0
 10
9.918000000000001
 20
29.906100000000002
 30
0.0
 10
9.918000000000001
 20
29.906100000000002
 30
0.0
 10
10.149100000000001
 20
30.022500000000001
 30
0.0
 10
10.3255
 20
30.179500000000001
 30
0.0
 10
10.4472
 20
30.377000000000002
 30
0.0
 10
10.4472
 20
30.377000000000002
 30
0.0
 10
10.570600000000001
 20
30.5746
 30
0.0
 10
10.630600000000001
 20
30.784500000000001
 30
0.0
 10
10.630600000000001
 20
31.005000000000003
 30
0.0
 10
10.630600000000001
 20
31.005000000000003
 30
0.0
 10
10.630600000000001
 20
31.2943
 30
0.0
 10
10.5318
 20
31.588800000000003
 30
0.0
 10
10.3307
 20
31.8887
 30
0.0
 10
10.3307
 20
31.8887
 30
0.0
 10
10.131400000000001
 20
32.188500000000005
 30
0.0
 10
9.8404000000000007
 20
32.430199999999999
 30
0.0
 10
9.4576000000000011
 20
32.617200000000004
 30
0.0
 10
9.4576000000000011
 20
32.617200000000004
 30
0.0
 10
9.0766000000000009
 20
32.802399999999999
 30
0.0
 10
8.6974
 20
32.895900000000005
 30
0.0
 10
8.3216999999999999
 20
32.895900000000005
 30
0.0
 10
8.3216999999999999
 20
32.895900000000005
 30
0.0
 10
7.8983000000000008
 20
32.895900000000005
 30
0.0
 10
7.5579000000000001
 20
32.770600000000002
 30
0.0
 10
7.3039000000000005
 20
32.521900000000002
 30
0.0
 10
7.3039000000000005
 20
32.521900000000002
 30
0.0
 10
7.0482000000000005
 20
32.2714
 30
0.0
 10
6.9212000000000007
 20
31.9434
 30
0.0
 10
6.9212000000000007
 20
31.537700000000001
 30
0.0
 10
6.9212000000000007
 20
31.537700000000001
 30
0.0
 10
6.9212000000000007
 20
31.264300000000002
 30
0.0
 10
6.9864000000000006
 20
31.006700000000002
 30
0.0
 10
7.1169000000000002
 20
30.7651
 30
0.0
 10
7.1169000000000002
 20
30.7651
 30
0.0
 10
7.2475000000000005
 20
30.521700000000003
 30
0.0
 10
7.4450000000000003
 20
30.295900000000003
 30
0.0
 10
7.7061000000000002
 20
30.084200000000003
 30
0.0
 10
7.7061000000000002
 20
30.084200000000003
 30
0.0
 10
7.7061000000000002
 20
30.084200000000003
 30
0.0
 10
7.6496000000000004
 20
29.267600000000002
 30
0.0
 10
7.6496000000000004
 20
29.267600000000002
 30
0.0
 10
7.6496000000000004
 20
29.267600000000002
 30
0.0
 10
7.6496000000000004
 20
29.267600000000002
 30
0.0
 10
3.7744
 20
30.410500000000003
 30
0.0
 10
3.7744
 20
30.410500000000003
 30
0.0
 10
3.7744
 20
30.410500000000003
 30
0.0
 10
3.7744
 20
30.410500000000003
 30
0.0
 10
3.7744
 20
34.111200000000004
 30
0.0
 10
3.7744
 20
34.111200000000004
 30
0.0
 10
3.7744
 20
34.111200000000004
 30
0.0
 10
3.7744
 20
34.111200000000004
 30
0.0
 10
4.6316000000000006
 20
33.929500000000004
 30
0.0
 10
4.6316000000000006
 20
33.929500000000004
 30
0.0
 10
4.6316000000000006
 20
33.929500000000004
 30
0.0
 10
4.6316000000000006
 20
33.929500000000004
 30
0.0
 10
4.6316000000000006
 20
31.050800000000002
 30
0.0
 10
4.6316000000000006
 20
31.050800000000002
 30
0.0
 10
4.6316000000000006
 20
31.050800000000002
 30
0.0
 10
4.6316000000000006
 20
31.050800000000002
 30
0.0
 10
6.5596000000000005
 20
30.482900000000001
 30
0.0
 10
6.5596000000000005
 20
30.482900000000001
 30
0.0
 10
6.5596000000000005
 20
30.482900000000001
 30
0.0
 10
6.4043000000000001
 20
30.696300000000001
 30
0.0
 10
6.2879000000000005
 20
30.916800000000002
 30
0.0
 10
6.2103000000000002
 20
31.140800000000002
 30
0.0
 10
6.2103000000000002
 20
31.140800000000002
 30
0.0
 10
6.1327000000000007
 20
31.366600000000002
 30
0.0
 10
6.0939000000000005
 20
31.599400000000003
 30
0.0
 10
6.0939000000000005
 20
31.837500000000002
 30
0.0
 10
6.0939000000000005
 20
31.837500000000002
 30
0.0
 10
6.0939000000000005
 20
32.4161
 30
0.0
 10
6.2844000000000007
 20
32.890599999999999
 30
0.0
 10
6.6672000000000002
 20
33.262700000000002
 30
0.0
 10
6.6672000000000002
 20
33.262700000000002
 30
0.0
 10
7.0499000000000001
 20
33.634900000000002
 30
0.0
 10
7.5738000000000003
 20
33.821899999999999
 30
0.0
 10
8.2388000000000012
 20
33.821899999999999
 30
0.0
 10
8.2388000000000012
 20
33.821899999999999
 30
0.0
 10
8.8209
 20
33.821899999999999
 30
0.0
 10
9.3571000000000009
 20
33.693100000000001
 30
0.0
 10
9.8491999999999997
 20
33.439100000000003
 30
0.0
 10
9.8491999999999997
 20
33.439100000000003
 30
0.0
 10
10.339600000000001
 20
33.183399999999999
 30
0.0
 10
10.717000000000001
 20
32.8324
 30
0.0
 10
10.979900000000001
 20
32.387900000000002
 30
0.0
 10
10.979900000000001
 20
32.387900000000002
 30
0.0
 10
11.244400000000001
 20
31.941600000000001
 30
0.0
 10
11.375
 20
31.460100000000001
 30
0.0
 10
11.375
 20
30.943200000000001
 30
0.0
 10
11.375
 20
30.943200000000001
 30
0.0
 10
11.375
 20
30.509300000000003
 30
0.0
 10
11.277900000000001
 20
30.1248
 30
0.0
 10
11.080400000000001
 20
29.7897
 30
0.0
 10
11.080400000000001
 20
29.7897
 30
0.0
 10
10.884600000000001
 20
29.456300000000002
 30
0.0
 10
10.614700000000001
 20
29.2058
 30
0.0
 10
10.269
 20
29.0382
 30
0.0
 10
10.269
 20
29.0382
 30
0.0
 10
9.9251000000000005
 20
28.870700000000003
 30
0.0
 10
9.5811000000000011
 20
28.787800000000001
 30
0.0
 10
9.2354000000000003
 20
28.787800000000001
 30
0.0
 10
9.2354000000000003
 20
28.787800000000001
 30
0.0
 10
9.2019000000000002
 20
28.787800000000001
 30
0.0
 10
9.1507000000000005
 20
28.7895
 30
0.0
 10
9.0801999999999996
 20
28.793100000000003
 30
0.0
  0
ENDSEC
  0
SECTION
  2
OBJECTS
  0
DICTIONARY
  5
19
100
AcDbDictionary
280
     0
281
     1
  3
ACAD_GROUP
350
1A
  3
ACAD_MLINESTYLE
350
1B
  3
ACAD_LAYOUT
350
1E
  3
ACAD_PLOTSETTINGS
350
22
  3
ACAD_PLOTSTYLENAME
350
1F
  3
ACAD_WIPEOUT_VARS
350
23
  0
DICTIONARY
  5
1A
102
{ACAD_REACTORS
330
19
102
}
100
AcDbDictionary
280
     0
281
     1
  0
DICTIONARY
  5
1B
102
{ACAD_REACTORS
330
19
102
}
100
AcDbDictionary
280
     0
281
     1
  3
Standard
350
1C
  0
MLINESTYLE
  5
1C
102
{ACAD_REACTORS
330
1B
102
}
100
AcDbMlineStyle
  2
Standard
 70
     0
  3

 62
     0
 51
90.0
 52
90.0
 71
     2
 49
0.5
 62
   256
  6
BYLAYER
 49
-0.5
 62
   256
  6
BYLAYER
  0
ACDBDICTIONARYWDFLT
  5
1F
102
{ACAD_REACTORS
330
19
102
}
100
AcDbDictionary
281
     1
  3
Normal
350
1D
100
AcDbDictionaryWithDefault
340
1D
  0
ACDBPLACEHOLDER
  5
1D
102
{ACAD_REACTORS
330
1F
102
}
  0
LAYOUT
  5
20
102
{ACAD_REACTORS
330
1E
102
}
100
AcDbPlotSettings
  1

  2

  4

  6

 40
0.0
 41
0.0
 42
0.0
 43
0.0
 44
0.0
 45
0.0
 46
0.0
 47
0.0
 48
0.0
 49
0.0
140
0.0
141
0.0
142
1.0
143
1.0
 70
  1024
 72
     0
 73
     0
 74
     0
  7

 75
     0
147
1.0
148
0.0
149
0.0
100
AcDbLayout
  1
Model
 70
     0
 71
     0
 10
0.0
 20
0.0
 11
0.0
 21
0.0
 12
0.0
 22
0.0
 32
0.0
 14
0.0
 24
0.0
 34
0.0
 15
0.0
 25
0.0
 35
0.0
146
0.0
 13
0.0
 23
0.0
 33
0.0
 16
0.0
 26
0.0
 36
0.0
 17
0.0
 27
0.0
 37
0.0
 76
     0
330
A
331
0
345
0
346
0
  0
LAYOUT
  5
21
102
{ACAD_REACTORS
330
1E
102
}
100
AcDbPlotSettings
  1

  2

  4

  6

 40
0.0
 41
0.0
 42
0.0
 43
0.0
 44
0.0
 45
0.0
 46
0.0
 47
0.0
 48
0.0
 49
0.0
140
0.0
141
0.0
142
1.0
143
1.0
 70
     0
 72
     0
 73
     0
 74
     0
  7

 75
     0
147
1.0
148
0.0
149
0.0
100
AcDbLayout
  1
Layout1
 70
     0
 71
     0
 10
0.0
 20
0.0
 11
0.0
 21
0.0
 12
0.0
 22
0.0
 32
0.0
 14
0.0
 24
0.0
 34
0.0
 15
0.0
 25
0.0
 35
0.0
146
0.0
 13
0.0
 23
0.0
 33
0.0
 16
0.0
 26
0.0
 36
0.0
 17
0.0
 27
0.0
 37
0.0
 76
     0
330
B
331
0
345
0
346
0
  0
DICTIONARY
  5
1E
102
{ACAD_REACTORS
330
19
102
}
100
AcDbDictionary
280
     0
281
     1
  3
Layout1
350
21
  3
Model
350
20
  0
DICTIONARY
  5
22
102
{ACAD_REACTORS
330
19
102
}
100
AcDbDictionary
280
     0
281
     1
  0
WIPEOUTVARIABLES
  5
23
100
AcDbWipeoutVariables
 70
     1
  0
ENDSEC
  0
EOF
