  0
SECTION
  2
HEADER
  9
$ACADVER
  1
AC1018
  9
$ACADMAINTVER
 70
     0
  9
$DWGCODEPAGE
  3
ANSI_1252
  9
$INSBASE
 10
0.0
 20
0.0
 30
0.0
  9
$EXTMIN
 10
-20.0211
 20
-12.1566
 30
0.0
  9
$EXTMAX
 10
31.2953
 20
27.5626
 30
0.0
  9
$LIMMIN
 10
0.0
 20
0.0
  9
$LIMMAX
 10
12.0
 20
9.0
  9
$ORTHOMODE
 70
     0
  9
$REGENMODE
 70
     1
  9
$FILLMODE
 70
     1
  9
$QTEXTMODE
 70
     0
  9
$MIRRTEXT
 70
     1
  9
$LTSCALE
 40
1.0
  9
$ATTMODE
 70
     1
  9
$TEXTSIZE
 40
0.2
  9
$TRACEWID
 40
0.05
  9
$TEXTSTYLE
  7
Standard
  9
$CLAYER
  8
0
  9
$CELTYPE
  6
ByLayer
  9
$CECOLOR
 62
   256
  9
$CELTSCALE
 40
1.0
  9
$DISPSILH
 70
     0
  9
$DIMSCALE
 40
1.0
  9
$DIMASZ
 40
0.18
  9
$DIMEXO
 40
0.0625
  9
$DIMDLI
 40
0.38
  9
$DIMRND
 40
0.0
  9
$DIMDLE
 40
0.0
  9
$DIMEXE
 40
0.18
  9
$DIMTP
 40
0.0
  9
$DIMTM
 40
0.0
  9
$DIMTXT
 40
0.18
  9
$DIMCEN
 40
0.09
  9
$DIMTSZ
 40
0.0
  9
$DIMTOL
 70
     0
  9
$DIMLIM
 70
     0
  9
$DIMTIH
 70
     1
  9
$DIMTOH
 70
     1
  9
$DIMSE1
 70
     0
  9
$DIMSE2
 70
     0
  9
$DIMTAD
 70
     0
  9
$DIMZIN
 70
     0
  9
$DIMBLK
  1

  9
$DIMASO
 70
     1
  9
$DIMSHO
 70
     1
  9
$DIMPOST
  1

  9
$DIMAPOST
  1

  9
$DIMALT
 70
     0
  9
$DIMALTD
 70
     2
  9
$DIMALTF
 40
25.4
  9
$DIMLFAC
 40
1.0
  9
$DIMTOFL
 70
     0
  9
$DIMTVP
 40
0.0
  9
$DIMTIX
 70
     0
  9
$DIMSOXD
 70
     0
  9
$DIMSAH
 70
     0
  9
$DIMBLK1
  1

  9
$DIMBLK2
  1

  9
$DIMSTYLE
  2
Standard
  9
$DIMCLRD
 70
     0
  9
$DIMCLRE
 70
     0
  9
$DIMCLRT
 70
     0
  9
$DIMTFAC
 40
1.0
  9
$DIMGAP
 40
0.09
  9
$DIMJUST
 70
     0
  9
$DIMSD1
 70
     0
  9
$DIMSD2
 70
     0
  9
$DIMTOLJ
 70
     1
  9
$DIMTZIN
 70
     0
  9
$DIMALTZ
 70
     0
  9
$DIMALTTZ
 70
     0
  9
$DIMUPT
 70
     0
  9
$DIMDEC
 70
     4
  9
$DIMTDEC
 70
     4
  9
$DIMALTU
 70
     2
  9
$DIMALTTD
 70
     2
  9
$DIMTXSTY
  7
Standard
  9
$DIMAUNIT
 70
     0
  9
$DIMADEC
 70
     0
  9
$DIMALTRND
 40
0.0
  9
$DIMAZIN
 70
     0
  9
$DIMDSEP
 70
    46
  9
$DIMATFIT
 70
     3
  9
$DIMFRAC
 70
     0
  9
$DIMLDRBLK
  1

  9
$DIMLUNIT
 70
     2
  9
$DIMLWD
 70
    -2
  9
$DIMLWE
 70
    -2
  9
$DIMTMOVE
 70
     0
  9
$LUNITS
 70
     2
  9
$LUPREC
 70
     4
  9
$SKETCHINC
 40
0.1
  9
$FILLETRAD
 40
0.5
  9
$AUNITS
 70
     0
  9
$AUPREC
 70
     0
  9
$MENU
  1
.
  9
$ELEVATION
 40
0.0
  9
$PELEVATION
 40
0.0
  9
$THICKNESS
 40
0.0
  9
$LIMCHECK
 70
     0
  9
$CHAMFERA
 40
0.5
  9
$CHAMFERB
 40
0.5
  9
$CHAMFERC
 40
1.0
  9
$CHAMFERD
 40
0.0
  9
$SKPOLY
 70
     0
  9
$TDCREATE
 40
2455086.279342431
  9
$TDUCREATE
 40
2455086.237675764
  9
$TDUPDATE
 40
2455086.321009109
  9
$TDUUPDATE
 40
2455086.237675775
  9
$TDINDWG
 40
0.0000000116
  9
$TDUSRTIMER
 40
0.0000000116
  9
$USRTIMER
 70
     1
  9
$ANGBASE
 50
0.0
  9
$ANGDIR
 70
     0
  9
$PDMODE
 70
     0
  9
$PDSIZE
 40
0.0
  9
$PLINEWID
 40
0.0
  9
$SPLFRAME
 70
     0
  9
$SPLINETYPE
 70
     6
  9
$SPLINESEGS
 70
     8
  9
$HANDSEED
  5
A6
  9
$SURFTAB1
 70
     6
  9
$SURFTAB2
 70
     6
  9
$SURFTYPE
 70
     6
  9
$SURFU
 70
     6
  9
$SURFV
 70
     6
  9
$UCSBASE
  2

  9
$UCSNAME
  2

  9
$UCSORG
 10
0.0
 20
0.0
 30
0.0
  9
$UCSXDIR
 10
1.0
 20
0.0
 30
0.0
  9
$UCSYDIR
 10
0.0
 20
1.0
 30
0.0
  9
$UCSORTHOREF
  2

  9
$UCSORTHOVIEW
 70
     0
  9
$UCSORGTOP
 10
0.0
 20
0.0
 30
0.0
  9
$UCSORGBOTTOM
 10
0.0
 20
0.0
 30
0.0
  9
$UCSORGLEFT
 10
0.0
 20
0.0
 30
0.0
  9
$UCSORGRIGHT
 10
0.0
 20
0.0
 30
0.0
  9
$UCSORGFRONT
 10
0.0
 20
0.0
 30
0.0
  9
$UCSORGBACK
 10
0.0
 20
0.0
 30
0.0
  9
$PUCSBASE
  2

  9
$PUCSNAME
  2

  9
$PUCSORG
 10
0.0
 20
0.0
 30
0.0
  9
$PUCSXDIR
 10
1.0
 20
0.0
 30
0.0
  9
$PUCSYDIR
 10
0.0
 20
1.0
 30
0.0
  9
$PUCSORTHOREF
  2

  9
$PUCSORTHOVIEW
 70
     0
  9
$PUCSORGTOP
 10
0.0
 20
0.0
 30
0.0
  9
$PUCSORGBOTTOM
 10
0.0
 20
0.0
 30
0.0
  9
$PUCSORGLEFT
 10
0.0
 20
0.0
 30
0.0
  9
$PUCSORGRIGHT
 10
0.0
 20
0.0
 30
0.0
  9
$PUCSORGFRONT
 10
0.0
 20
0.0
 30
0.0
  9
$PUCSORGBACK
 10
0.0
 20
0.0
 30
0.0
  9
$USERI1
 70
     0
  9
$USERI2
 70
     0
  9
$USERI3
 70
     0
  9
$USERI4
 70
     0
  9
$USERI5
 70
     0
  9
$USERR1
 40
0.0
  9
$USERR2
 40
0.0
  9
$USERR3
 40
0.0
  9
$USERR4
 40
0.0
  9
$USERR5
 40
0.0
  9
$WORLDVIEW
 70
     1
  9
$SHADEDGE
 70
     3
  9
$SHADEDIF
 70
    70
  9
$TILEMODE
 70
     1
  9
$MAXACTVP
 70
    64
  9
$PINSBASE
 10
0.0
 20
0.0
 30
0.0
  9
$PLIMCHECK
 70
     0
  9
$PEXTMIN
 10
1.000000000000000E+20
 20
1.000000000000000E+20
 30
1.000000000000000E+20
  9
$PEXTMAX
 10
-1.000000000000000E+20
 20
-1.000000000000000E+20
 30
-1.000000000000000E+20
  9
$PLIMMIN
 10
0.0
 20
0.0
  9
$PLIMMAX
 10
12.0
 20
9.0
  9
$UNITMODE
 70
     0
  9
$VISRETAIN
 70
     1
  9
$PLINEGEN
 70
     0
  9
$PSLTSCALE
 70
     1
  9
$TREEDEPTH
 70
  3020
  9
$CMLSTYLE
  2
Standard
  9
$CMLJUST
 70
     0
  9
$CMLSCALE
 40
1.0
  9
$PROXYGRAPHICS
 70
     1
  9
$MEASUREMENT
 70
     0
  9
$CELWEIGHT
370
    -1
  9
$ENDCAPS
280
     0
  9
$JOINSTYLE
280
     0
  9
$LWDISPLAY
290
     0
  9
$INSUNITS
 70
     4
  9
$HYPERLINKBASE
  1

  9
$STYLESHEET
  1

  9
$XEDIT
290
     1
  9
$CEPSNTYPE
380
     0
  9
$PSTYLEMODE
290
     0
  9
$FINGERPRINTGUID
  2
{FAEB1C30-E019-11D5-929B-00C0DF256EC4}
  9
$VERSIONGUID
  2
{FAEB1C32-E019-11D5-929B-00C0DF256EC4}
  9
$EXTNAMES
290
     1
  9
$PSVPSCALE
 40
0.0
  9
$OLESTARTUP
290
     0
  9
$SORTENTS
280
   127
  9
$INDEXCTL
280
     0
  9
$HIDETEXT
280
     1
  9
$XCLIPFRAME
290
     0
  9
$HALOGAP
280
     0
  9
$OBSCOLOR
 70
   257
  9
$OBSLTYPE
280
     0
  9
$INTERSECTIONDISPLAY
280
     0
  9
$INTERSECTIONCOLOR
 70
   257
  9
$DIMASSOC
280
     2
  9
$PROJECTNAME
  1

  0
ENDSEC
  0
SECTION
  2
CLASSES
  0
CLASS
  1
ACDBDICTIONARYWDFLT
  2
AcDbDictionaryWithDefault
  3
ObjectDBX Classes
 90
        0
 91
        1
280
     0
281
     0
  0
ENDSEC
  0
SECTION
  2
TABLES
  0
TABLE
  2
VPORT
  5
8
330
0
100
AcDbSymbolTable
 70
     2
  0
VPORT
  5
29
330
8
100
AcDbSymbolTableRecord
100
AcDbViewportTableRecord
  2
*Active
 70
     0
 10
0.0
 20
0.0
 11
1.0
 21
1.0
 12
10.42990654205607
 22
4.5
 13
0.0
 23
0.0
 14
0.5
 24
0.5
 15
0.5
 25
0.5
 16
0.0
 26
0.0
 36
1.0
 17
0.0
 27
0.0
 37
0.0
 40
9.0
 41
1.972972972850329
 42
50.0
 43
0.0
 44
0.0
 50
0.0
 51
0.0
 71
     0
 72
   100
 73
     1
 74
     3
 75
     0
 76
     0
 77
     0
 78
     0
281
     0
 65
     1
110
0.0
120
0.0
130
0.0
111
1.0
121
0.0
131
0.0
112
0.0
122
1.0
132
0.0
 79
     0
146
0.0
  0
ENDTAB
  0
TABLE
  2
LTYPE
  5
5
330
0
100
AcDbSymbolTable
 70
     2
  0
LTYPE
  5
14
330
5
100
AcDbSymbolTableRecord
100
AcDbLinetypeTableRecord
  2
ByBlock
 70
     0
  3

 72
    65
 73
     0
 40
0.0
  0
LTYPE
  5
15
330
5
100
AcDbSymbolTableRecord
100
AcDbLinetypeTableRecord
  2
ByLayer
 70
     0
  3

 72
    65
 73
     0
 40
0.0
  0
LTYPE
  5
16
330
5
100
AcDbSymbolTableRecord
100
AcDbLinetypeTableRecord
  2
Continuous
 70
     0
  3
Solid line
 72
    65
 73
     0
 40
0.0
  0
LTYPE
  5
A5
330
5
100
AcDbSymbolTableRecord
100
AcDbLinetypeTableRecord
  2
New Line1
 70
     0
  3

 72
    65
 73
     4
 40
1.2
 49
0.5
 74
     4
 75
     0
340
0
 46
1.0
 50
0.0
 44
0.0
 45
0.0
 49
-0.3
 74
     4
 75
     0
340
0
 46
1.0
 50
0.0
 44
0.0
 45
0.0
 49
0.1
 74
     4
 75
     0
340
0
 46
1.0
 50
0.0
 44
0.0
 45
0.0
 49
-0.3
 74
     4
 75
     0
340
0
 46
1.0
 50
0.0
 44
0.0
 45
0.0
  0
ENDTAB
  0
TABLE
  2
LAYER
  5
2
330
0
100
AcDbSymbolTable
 70
     2
  0
LAYER
  5
10
330
2
100
AcDbSymbolTableRecord
100
AcDbLayerTableRecord
  2
0
 70
     0
 62
     7
  6
Continuous
370
    -3
390
F
  0
LAYER
  5
2B
330
2
100
AcDbSymbolTableRecord
100
AcDbLayerTableRecord
  2
Ebene 1
 70
     0
 62
     7
  6
Continuous
370
    -3
390
F
  0
ENDTAB
  0
TABLE
  2
STYLE
  5
3
330
0
100
AcDbSymbolTable
 70
     1
  0
STYLE
  5
11
330
3
100
AcDbSymbolTableRecord
100
AcDbTextStyleTableRecord
  2
Standard
 70
     0
 40
0.0
 41
1.0
 50
0.0
 71
     0
 42
0.2
  3
txt
  4

  0
ENDTAB
  0
TABLE
  2
VIEW
  5
6
330
0
100
AcDbSymbolTable
 70
     0
  0
ENDTAB
  0
TABLE
  2
UCS
  5
7
330
0
100
AcDbSymbolTable
 70
     0
  0
ENDTAB
  0
TABLE
  2
APPID
  5
9
330
0
100
AcDbSymbolTable
 70
     2
  0
APPID
  5
12
330
9
100
AcDbSymbolTableRecord
100
AcDbRegAppTableRecord
  2
ACAD
 70
     0
  0
APPID
  5
2A
330
9
100
AcDbSymbolTableRecord
100
AcDbRegAppTableRecord
  2
ODA
 70
     0
  0
ENDTAB
  0
TABLE
  2
DIMSTYLE
  5
A
330
0
100
AcDbSymbolTable
 70
     1
100
AcDbDimStyleTable
  0
DIMSTYLE
105
27
330
A
100
AcDbSymbolTableRecord
100
AcDbDimStyleTableRecord
  2
Standard
 70
     0
340
11
  0
ENDTAB
  0
TABLE
  2
BLOCK_RECORD
  5
1
330
0
100
AcDbSymbolTable
 70
     1
  0
BLOCK_RECORD
  5
1F
330
1
100
AcDbSymbolTableRecord
100
AcDbBlockTableRecord
  2
*Model_Space
340
22
  0
BLOCK_RECORD
  5
1B
330
1
100
AcDbSymbolTableRecord
100
AcDbBlockTableRecord
  2
*Paper_Space
340
1E
  0
BLOCK_RECORD
  5
23
330
1
100
AcDbSymbolTableRecord
100
AcDbBlockTableRecord
  2
*Paper_Space0
340
26
  0
ENDTAB
  0
ENDSEC
  0
SECTION
  2
BLOCKS
  0
BLOCK
  5
20
330
1F
100
AcDbEntity
  8
0
100
AcDbBlockBegin
  2
*Model_Space
 70
     0
 71
     0
 10
0.0
 20
0.0
 30
0.0
  3
*Model_Space
  1

  0
ENDBLK
  5
21
330
1F
100
AcDbEntity
  8
0
100
AcDbBlockEnd
  0
BLOCK
  5
1C
330
1B
100
AcDbEntity
 67
     1
  8
0
100
AcDbBlockBegin
  2
*Paper_Space
 70
     0
 71
     0
 10
0.0
 20
0.0
 30
0.0
  3
*Paper_Space
  1

  0
ENDBLK
  5
1D
330
1B
100
AcDbEntity
 67
     1
  8
0
100
AcDbBlockEnd
  0
BLOCK
  5
24
330
23
100
AcDbEntity
  8
0
100
AcDbBlockBegin
  2
*Paper_Space0
 70
     0
 71
     0
 10
0.0
 20
0.0
 30
0.0
  3
*Paper_Space0
  1

  0
ENDBLK
  5
25
330
23
100
AcDbEntity
  8
0
100
AcDbBlockEnd
  0
ENDSEC
  0
SECTION
  2
ENTITIES
  0
SPLINE
  5
2C
330
1F
100
AcDbEntity
  8
Ebene 1
100
AcDbSpline
210
0.0
220
0.0
230
1.0
 70
    11
 71
     3
 72
    40
 73
    36
 74
     0
 42
0.0000000001
 43
0.0000000001
 40
0.0
 40
0.0
 40
0.0
 40
0.0
 40
0.1111111111111111
 40
0.1111111111111111
 40
0.1111111111111111
 40
0.1111111111111111
 40
0.2222222222222222
 40
0.2222222222222222
 40
0.2222222222222222
 40
0.2222222222222222
 40
0.3333333333333333
 40
0.3333333333333333
 40
0.3333333333333333
 40
0.3333333333333333
 40
0.4444444444444444
 40
0.4444444444444444
 40
0.4444444444444444
 40
0.4444444444444444
 40
0.5555555555555556
 40
0.5555555555555556
 40
0.5555555555555556
 40
0.5555555555555556
 40
0.6666666666666667
 40
0.6666666666666667
 40
0.6666666666666667
 40
0.6666666666666667
 40
0.7777777777777779
 40
0.7777777777777779
 40
0.7777777777777779
 40
0.7777777777777779
 40
0.8888888888888891
 40
0.8888888888888891
 40
0.8888888888888891
 40
0.8888888888888891
 40
1.0
 40
1.0
 40
1.0
 40
1.0
 10
-13.1095
 20
1.9472
 30
0.0
 10
-13.1095
 20
1.9472
 30
0.0
 10
-13.1095
 20
1.1025
 30
0.0
 10
-13.1095
 20
1.1025
 30
0.0
 10
-13.1095
 20
1.1025
 30
0.0
 10
-13.1095
 20
1.1025
 30
0.0
 10
-18.494
 20
2.5453
 30
0.0
 10
-18.494
 20
2.5453
 30
0.0
 10
-18.494
 20
2.5453
 30
0.0
 10
-18.3
 20
2.2897
 30
0.0
 10
-18.1061
 20
1.9717
 30
0.0
 10
-17.9122
 20
1.5896
 30
0.0
 10
-17.9122
 20
1.5896
 30
0.0
 10
-17.7183
 20
1.2059
 30
0.0
 10
-17.5725
 20
0.8702000000000001
 30
0.0
 10
-17.4764
 20
0.5815
 30
0.0
 10
-17.4764
 20
0.5815
 30
0.0
 10
-17.4764
 20
0.5815
 30
0.0
 10
-18.292
 20
0.8001
 30
0.0
 10
-18.292
 20
0.8001
 30
0.0
 10
-18.292
 20
0.8001
 30
0.0
 10
-18.5147
 20
1.3327
 30
0.0
 10
-18.7839
 20
1.8183
 30
0.0
 10
-19.0997
 20
2.2571
 30
0.0
 10
-19.0997
 20
2.2571
 30
0.0
 10
-19.417
 20
2.6948
 30
0.0
 10
-19.723
 20
3.0285
 30
0.0
 10
-20.0211
 20
3.2558
 30
0.0
 10
-20.0211
 20
3.2558
 30
0.0
 10
-20.0211
 20
3.2558
 30
0.0
 10
-20.0211
 20
3.7992
 30
0.0
 10
-20.0211
 20
3.7992
 30
0.0
 10
-20.0211
 20
3.7992
 30
0.0
 10
-20.0211
 20
3.7992
 30
0.0
 10
-13.1095
 20
1.9472
 30
0.0
 10
-13.1095
 20
1.9472
 30
0.0
  0
SPLINE
  5
2D
330
1F
100
AcDbEntity
  8
Ebene 1
100
AcDbSpline
210
0.0
220
0.0
230
1.0
 70
    11
 71
     3
 72
    92
 73
    88
 74
     0
 42
0.0000000001
 43
0.0000000001
 40
0.0
 40
0.0
 40
0.0
 40
0.0
 40
0.0454545454545455
 40
0.0454545454545455
 40
0.0454545454545455
 40
0.0454545454545455
 40
0.0909090909090909
 40
0.0909090909090909
 40
0.0909090909090909
 40
0.0909090909090909
 40
0.1363636363636364
 40
0.1363636363636364
 40
0.1363636363636364
 40
0.1363636363636364
 40
0.1818181818181818
 40
0.1818181818181818
 40
0.1818181818181818
 40
0.1818181818181818
 40
0.2272727272727273
 40
0.2272727272727273
 40
0.2272727272727273
 40
0.2272727272727273
 40
0.2727272727272728
 40
0.2727272727272728
 40
0.2727272727272728
 40
0.2727272727272728
 40
0.3181818181818182
 40
0.3181818181818182
 40
0.3181818181818182
 40
0.3181818181818182
 40
0.3636363636363637
 40
0.3636363636363637
 40
0.3636363636363637
 40
0.3636363636363637
 40
0.4090909090909092
 40
0.4090909090909092
 40
0.4090909090909092
 40
0.4090909090909092
 40
0.4545454545454546
 40
0.4545454545454546
 40
0.4545454545454546
 40
0.4545454545454546
 40
0.5000000000000001
 40
0.5000000000000001
 40
0.5000000000000001
 40
0.5000000000000001
 40
0.5454545454545455
 40
0.5454545454545455
 40
0.5454545454545455
 40
0.5454545454545455
 40
0.5909090909090909
 40
0.5909090909090909
 40
0.5909090909090909
 40
0.5909090909090909
 40
0.6363636363636364
 40
0.6363636363636364
 40
0.6363636363636364
 40
0.6363636363636364
 40
0.6818181818181818
 40
0.6818181818181818
 40
0.6818181818181818
 40
0.6818181818181818
 40
0.7272727272727272
 40
0.7272727272727272
 40
0.7272727272727272
 40
0.7272727272727272
 40
0.7727272727272726
 40
0.7727272727272726
 40
0.7727272727272726
 40
0.7727272727272726
 40
0.818181818181818
 40
0.818181818181818
 40
0.818181818181818
 40
0.818181818181818
 40
0.8636363636363634
 40
0.8636363636363634
 40
0.8636363636363634
 40
0.8636363636363634
 40
0.9090909090909088
 40
0.9090909090909088
 40
0.9090909090909088
 40
0.9090909090909088
 40
0.9545454545454543
 40
0.9545454545454543
 40
0.9545454545454543
 40
0.9545454545454543
 40
1.0
 40
1.0
 40
1.0
 40
1.0
 10
-14.7008
 20
4.6658
 30
0.0
 10
-14.7008
 20
4.6658
 30
0.0
 10
-14.7761
 20
5.498600000000001
 30
0.0
 10
-14.7761
 20
5.498600000000001
 30
0.0
 10
-14.7761
 20
5.498600000000001
 30
0.0
 10
-14.3947
 20
5.4653
 30
0.0
 10
-14.1174
 20
5.5225
 30
0.0
 10
-13.9444
 20
5.67
 30
0.0
 10
-13.9444
 20
5.67
 30
0.0
 10
-13.7729
 20
5.8181
 30
0.0
 10
-13.6864
 20
6.0433
 30
0.0
 10
-13.6864
 20
6.3478
 30
0.0
 10
-13.6864
 20
6.3478
 30
0.0
 10
-13.6864
 20
6.6075
 30
0.0
 10
-13.7457
 20
6.851
 30
0.0
 10
-13.8659
 20
7.0788
 30
0.0
 10
-13.8659
 20
7.0788
 30
0.0
 10
-13.9844
 20
7.306100000000001
 30
0.0
 10
-14.1431
 20
7.508900000000001
 30
0.0
 10
-14.3418
 20
7.687200000000001
 30
0.0
 10
-14.3418
 20
7.687200000000001
 30
0.0
 10
-14.5405
 20
7.867
 30
0.0
 10
-14.8097
 20
8.0434
 30
0.0
 10
-15.1463
 20
8.218500000000001
 30
0.0
 10
-15.1463
 20
8.218500000000001
 30
0.0
 10
-15.4844
 20
8.3924
 30
0.0
 10
-15.829
 20
8.5281
 30
0.0
 10
-16.1799
 20
8.6221
 30
0.0
 10
-16.1799
 20
8.6221
 30
0.0
 10
-16.2168
 20
8.632
 30
0.0
 10
-16.2745
 20
8.645800000000001
 30
0.0
 10
-16.3482
 20
8.6623
 30
0.0
 10
-16.3482
 20
8.6623
 30
0.0
 10
-16.0805
 20
8.4207
 30
0.0
 10
-15.861
 20
8.1311
 30
0.0
 10
-15.6943
 20
7.794700000000001
 30
0.0
 10
-15.6943
 20
7.794700000000001
 30
0.0
 10
-15.5261
 20
7.456300000000001
 30
0.0
 10
-15.4428
 20
7.1166
 30
0.0
 10
-15.4428
 20
6.776800000000001
 30
0.0
 10
-15.4428
 20
6.776800000000001
 30
0.0
 10
-15.4428
 20
6.2062
 30
0.0
 10
-15.6495
 20
5.779100000000001
 30
0.0
 10
-16.0629
 20
5.495600000000001
 30
0.0
 10
-16.0629
 20
5.495600000000001
 30
0.0
 10
-16.4763
 20
5.212000000000001
 30
0.0
 10
-17.0196
 20
5.1604
 30
0.0
 10
-17.6959
 20
5.341600000000001
 30
0.0
 10
-17.6959
 20
5.341600000000001
 30
0.0
 10
-18.3946
 20
5.5288
 30
0.0
 10
-18.9555
 20
5.8844
 30
0.0
 10
-19.3817
 20
6.4104
 30
0.0
 10
-19.3817
 20
6.4104
 30
0.0
 10
-19.808
 20
6.9366
 30
0.0
 10
-20.0211
 20
7.5098
 30
0.0
 10
-20.0211
 20
8.1302
 30
0.0
 10
-20.0211
 20
8.1302
 30
0.0
 10
-20.0211
 20
8.577300000000001
 30
0.0
 10
-19.8993
 20
8.9535
 30
0.0
 10
-19.659
 20
9.261000000000001
 30
0.0
 10
-19.659
 20
9.261000000000001
 30
0.0
 10
-19.4185
 20
9.566800000000001
 30
0.0
 10
-19.074
 20
9.756600000000001
 30
0.0
 10
-18.6285
 20
9.829600000000001
 30
0.0
 10
-18.6285
 20
9.829600000000001
 30
0.0
 10
-18.183
 20
9.9026
 30
0.0
 10
-17.5372
 20
9.8256
 30
0.0
 10
-16.6911
 20
9.5989
 30
0.0
 10
-16.6911
 20
9.5989
 30
0.0
 10
-15.8129
 20
9.3636
 30
0.0
 10
-15.1126
 20
9.0814
 30
0.0
 10
-14.5902
 20
8.7507
 30
0.0
 10
-14.5902
 20
8.7507
 30
0.0
 10
-14.0694
 20
8.418800000000001
 30
0.0
 10
-13.6736
 20
8.0291
 30
0.0
 10
-13.4011
 20
7.579400000000001
 30
0.0
 10
-13.4011
 20
7.579400000000001
 30
0.0
 10
-13.1287
 20
7.128100000000001
 30
0.0
 10
-12.9925
 20
6.6508
 30
0.0
 10
-12.9925
 20
6.142700000000001
 30
0.0
 10
-12.9925
 20
6.142700000000001
 30
0.0
 10
-12.9925
 20
5.6041
 30
0.0
 10
-13.1416
 20
5.2049
 30
0.0
 10
-13.4412
 20
4.943700000000001
 30
0.0
 10
-13.4412
 20
4.943700000000001
 30
0.0
 10
-13.7393
 20
4.6822
 30
0.0
 10
-14.1592
 20
4.5895
 30
0.0
 10
-14.7008
 20
4.6658
 30
0.0
  0
SPLINE
  5
2E
330
1F
100
AcDbEntity
  8
Ebene 1
100
AcDbSpline
210
0.0
220
0.0
230
1.0
 70
    11
 71
     3
 72
    36
 73
    32
 74
     0
 42
0.0000000001
 43
0.0000000001
 40
0.0
 40
0.0
 40
0.0
 40
0.0
 40
0.125
 40
0.125
 40
0.125
 40
0.125
 40
0.25
 40
0.25
 40
0.25
 40
0.25
 40
0.375
 40
0.375
 40
0.375
 40
0.375
 40
0.5
 40
0.5
 40
0.5
 40
0.5
 40
0.625
 40
0.625
 40
0.625
 40
0.625
 40
0.75
 40
0.75
 40
0.75
 40
0.75
 40
0.875
 40
0.875
 40
0.875
 40
0.875
 40
1.0
 40
1.0
 40
1.0
 40
1.0
 10
-17.7391
 20
8.9404
 30
0.0
 10
-18.2231
 20
9.0701
 30
0.0
 10
-18.6093
 20
9.045400000000001
 30
0.0
 10
-18.893
 20
8.8634
 30
0.0
 10
-18.893
 20
8.8634
 30
0.0
 10
-19.1782
 20
8.680100000000001
 30
0.0
 10
-19.3208
 20
8.408900000000001
 30
0.0
 10
-19.3208
 20
8.0451
 30
0.0
 10
-19.3208
 20
8.0451
 30
0.0
 10
-19.3208
 20
7.67
 30
0.0
 10
-19.1669
 20
7.3018
 30
0.0
 10
-18.8609
 20
6.9409
 30
0.0
 10
-18.8609
 20
6.9409
 30
0.0
 10
-18.5532
 20
6.5795
 30
0.0
 10
-18.1558
 20
6.333600000000001
 30
0.0
 10
-17.6687
 20
6.2031
 30
0.0
 10
-17.6687
 20
6.2031
 30
0.0
 10
-17.2296
 20
6.085500000000001
 30
0.0
 10
-16.8738
 20
6.123200000000001
 30
0.0
 10
-16.5998
 20
6.314200000000001
 30
0.0
 10
-16.5998
 20
6.314200000000001
 30
0.0
 10
-16.3257
 20
6.5053
 30
0.0
 10
-16.1895
 20
6.7942
 30
0.0
 10
-16.1895
 20
7.182
 30
0.0
 10
-16.1895
 20
7.182
 30
0.0
 10
-16.1895
 20
7.5747
 30
0.0
 10
-16.3257
 20
7.9318
 30
0.0
 10
-16.5998
 20
8.2569
 30
0.0
 10
-16.5998
 20
8.2569
 30
0.0
 10
-16.8738
 20
8.583600000000001
 30
0.0
 10
-17.2536
 20
8.8104
 30
0.0
 10
-17.7391
 20
8.9404
 30
0.0
  0
SPLINE
  5
2F
330
1F
100
AcDbEntity
  8
Ebene 1
100
AcDbSpline
210
0.0
220
0.0
230
1.0
 70
    11
 71
     3
 72
    40
 73
    36
 74
     0
 42
0.0000000001
 43
0.0000000001
 40
0.0
 40
0.0
 40
0.0
 40
0.0
 40
0.1111111111111111
 40
0.1111111111111111
 40
0.1111111111111111
 40
0.1111111111111111
 40
0.2222222222222222
 40
0.2222222222222222
 40
0.2222222222222222
 40
0.2222222222222222
 40
0.3333333333333333
 40
0.3333333333333333
 40
0.3333333333333333
 40
0.3333333333333333
 40
0.4444444444444444
 40
0.4444444444444444
 40
0.4444444444444444
 40
0.4444444444444444
 40
0.5555555555555556
 40
0.5555555555555556
 40
0.5555555555555556
 40
0.5555555555555556
 40
0.6666666666666667
 40
0.6666666666666667
 40
0.6666666666666667
 40
0.6666666666666667
 40
0.7777777777777779
 40
0.7777777777777779
 40
0.7777777777777779
 40
0.7777777777777779
 40
0.8888888888888891
 40
0.8888888888888891
 40
0.8888888888888891
 40
0.8888888888888891
 40
1.0
 40
1.0
 40
1.0
 40
1.0
 10
-1.778
 20
-1.1198
 30
0.0
 10
-1.778
 20
-1.1198
 30
0.0
 10
-1.778
 20
-1.9645
 30
0.0
 10
-1.778
 20
-1.9645
 30
0.0
 10
-1.778
 20
-1.9645
 30
0.0
 10
-1.778
 20
-1.9645
 30
0.0
 10
-7.162500000000001
 20
-0.5217000000000001
 30
0.0
 10
-7.162500000000001
 20
-0.5217000000000001
 30
0.0
 10
-7.162500000000001
 20
-0.5217000000000001
 30
0.0
 10
-6.968500000000001
 20
-0.7773
 30
0.0
 10
-6.7746
 20
-1.0953
 30
0.0
 10
-6.5807
 20
-1.4774
 30
0.0
 10
-6.5807
 20
-1.4774
 30
0.0
 10
-6.3868
 20
-1.8611
 30
0.0
 10
-6.241000000000001
 20
-2.1968
 30
0.0
 10
-6.144900000000001
 20
-2.4855
 30
0.0
 10
-6.144900000000001
 20
-2.4855
 30
0.0
 10
-6.144900000000001
 20
-2.4855
 30
0.0
 10
-6.960500000000001
 20
-2.2669
 30
0.0
 10
-6.960500000000001
 20
-2.2669
 30
0.0
 10
-6.960500000000001
 20
-2.2669
 30
0.0
 10
-7.1832
 20
-1.7343
 30
0.0
 10
-7.4524
 20
-1.2487
 30
0.0
 10
-7.7682
 20
-0.8099000000000001
 30
0.0
 10
-7.7682
 20
-0.8099000000000001
 30
0.0
 10
-8.0855
 20
-0.3722
 30
0.0
 10
-8.391500000000001
 20
-0.0385
 30
0.0
 10
-8.6896
 20
0.1888
 30
0.0
 10
-8.6896
 20
0.1888
 30
0.0
 10
-8.6896
 20
0.1888
 30
0.0
 10
-8.6896
 20
0.7322000000000001
 30
0.0
 10
-8.6896
 20
0.7322000000000001
 30
0.0
 10
-8.6896
 20
0.7322000000000001
 30
0.0
 10
-8.6896
 20
0.7322000000000001
 30
0.0
 10
-1.778
 20
-1.1198
 30
0.0
 10
-1.778
 20
-1.1198
 30
0.0
  0
SPLINE
  5
30
330
1F
100
AcDbEntity
  8
Ebene 1
100
AcDbSpline
210
0.0
220
0.0
230
1.0
 70
    11
 71
     3
 72
    92
 73
    88
 74
     0
 42
0.0000000001
 43
0.0000000001
 40
0.0
 40
0.0
 40
0.0
 40
0.0
 40
0.0454545454545455
 40
0.0454545454545455
 40
0.0454545454545455
 40
0.0454545454545455
 40
0.0909090909090909
 40
0.0909090909090909
 40
0.0909090909090909
 40
0.0909090909090909
 40
0.1363636363636364
 40
0.1363636363636364
 40
0.1363636363636364
 40
0.1363636363636364
 40
0.1818181818181818
 40
0.1818181818181818
 40
0.1818181818181818
 40
0.1818181818181818
 40
0.2272727272727273
 40
0.2272727272727273
 40
0.2272727272727273
 40
0.2272727272727273
 40
0.2727272727272728
 40
0.2727272727272728
 40
0.2727272727272728
 40
0.2727272727272728
 40
0.3181818181818182
 40
0.3181818181818182
 40
0.3181818181818182
 40
0.3181818181818182
 40
0.3636363636363637
 40
0.3636363636363637
 40
0.3636363636363637
 40
0.3636363636363637
 40
0.4090909090909092
 40
0.4090909090909092
 40
0.4090909090909092
 40
0.4090909090909092
 40
0.4545454545454546
 40
0.4545454545454546
 40
0.4545454545454546
 40
0.4545454545454546
 40
0.5000000000000001
 40
0.5000000000000001
 40
0.5000000000000001
 40
0.5000000000000001
 40
0.5454545454545455
 40
0.5454545454545455
 40
0.5454545454545455
 40
0.5454545454545455
 40
0.5909090909090909
 40
0.5909090909090909
 40
0.5909090909090909
 40
0.5909090909090909
 40
0.6363636363636364
 40
0.6363636363636364
 40
0.6363636363636364
 40
0.6363636363636364
 40
0.6818181818181818
 40
0.6818181818181818
 40
0.6818181818181818
 40
0.6818181818181818
 40
0.7272727272727272
 40
0.7272727272727272
 40
0.7272727272727272
 40
0.7272727272727272
 40
0.7727272727272726
 40
0.7727272727272726
 40
0.7727272727272726
 40
0.7727272727272726
 40
0.818181818181818
 40
0.818181818181818
 40
0.818181818181818
 40
0.818181818181818
 40
0.8636363636363634
 40
0.8636363636363634
 40
0.8636363636363634
 40
0.8636363636363634
 40
0.9090909090909088
 40
0.9090909090909088
 40
0.9090909090909088
 40
0.9090909090909088
 40
0.9545454545454543
 40
0.9545454545454543
 40
0.9545454545454543
 40
0.9545454545454543
 40
1.0
 40
1.0
 40
1.0
 40
1.0
 10
-2.5904
 20
5.7066
 30
0.0
 10
-2.5904
 20
5.7066
 30
0.0
 10
-1.778
 20
5.4889
 30
0.0
 10
-1.778
 20
5.4889
 30
0.0
 10
-1.778
 20
5.4889
 30
0.0
 10
-1.778
 20
5.4889
 30
0.0
 10
-1.778
 20
0.9383
 30
0.0
 10
-1.778
 20
0.9383
 30
0.0
 10
-1.778
 20
0.9383
 30
0.0
 10
-1.9815
 20
0.9864000000000001
 30
0.0
 10
-2.177
 20
1.0709
 30
0.0
 10
-2.3645
 20
1.1932
 30
0.0
 10
-2.3645
 20
1.1932
 30
0.0
 10
-2.6754
 20
1.392
 30
0.0
 10
-2.9799
 20
1.6594
 30
0.0
 10
-3.2812
 20
1.995
 30
0.0
 10
-3.2812
 20
1.995
 30
0.0
 10
-3.5808
 20
2.3318
 30
0.0
 10
-3.9285
 20
2.7937
 30
0.0
 10
-4.3227
 20
3.3802
 30
0.0
 10
-4.3227
 20
3.3802
 30
0.0
 10
-4.9366
 20
4.2931
 30
0.0
 10
-5.4221
 20
4.9298
 30
0.0
 10
-5.7811
 20
5.2889
 30
0.0
 10
-5.7811
 20
5.2889
 30
0.0
 10
-6.1384
 20
5.6474
 30
0.0
 10
-6.4781
 20
5.8699
 30
0.0
 10
-6.797000000000001
 20
5.9554
 30
0.0
 10
-6.797000000000001
 20
5.9554
 30
0.0
 10
-7.1319
 20
6.045100000000001
 30
0.0
 10
-7.414000000000001
 20
6.000500000000001
 30
0.0
 10
-7.6447
 20
5.8235
 30
0.0
 10
-7.6447
 20
5.8235
 30
0.0
 10
-7.874000000000001
 20
5.6444
 30
0.0
 10
-7.9893
 20
5.3628
 30
0.0
 10
-7.9893
 20
4.9781
 30
0.0
 10
-7.9893
 20
4.9781
 30
0.0
 10
-7.9893
 20
4.5709
 30
0.0
 10
-7.867500000000001
 20
4.213
 30
0.0
 10
-7.6223
 20
3.9036
 30
0.0
 10
-7.6223
 20
3.9036
 30
0.0
 10
-7.3787
 20
3.5931
 30
0.0
 10
-7.0407
 20
3.3791
 30
0.0
 10
-6.6096
 20
3.2604
 30
0.0
 10
-6.6096
 20
3.2604
 30
0.0
 10
-6.6096
 20
3.2604
 30
0.0
 10
-6.6977
 20
2.4152
 30
0.0
 10
-6.6977
 20
2.4152
 30
0.0
 10
-6.6977
 20
2.4152
 30
0.0
 10
-7.3467
 20
2.6485
 30
0.0
 10
-7.8402
 20
3.0051
 30
0.0
 10
-8.18
 20
3.484
 30
0.0
 10
-8.18
 20
3.484
 30
0.0
 10
-8.5198
 20
3.963
 30
0.0
 10
-8.6896
 20
4.5311
 30
0.0
 10
-8.6896
 20
5.1849
 30
0.0
 10
-8.6896
 20
5.1849
 30
0.0
 10
-8.6896
 20
5.845400000000001
 30
0.0
 10
-8.5053
 20
6.3185
 30
0.0
 10
-8.140000000000001
 20
6.6054
 30
0.0
 10
-8.140000000000001
 20
6.6054
 30
0.0
 10
-7.772900000000001
 20
6.8933
 30
0.0
 10
-7.319400000000001
 20
6.9641
 30
0.0
 10
-6.7778
 20
6.819
 30
0.0
 10
-6.7778
 20
6.819
 30
0.0
 10
-6.5022
 20
6.745100000000001
 30
0.0
 10
-6.231400000000001
 20
6.6165
 30
0.0
 10
-5.965400000000001
 20
6.4314
 30
0.0
 10
-5.965400000000001
 20
6.4314
 30
0.0
 10
-5.699400000000001
 20
6.247900000000001
 30
0.0
 10
-5.4189
 20
5.9852
 30
0.0
 10
-5.1256
 20
5.6454
 30
0.0
 10
-5.1256
 20
5.6454
 30
0.0
 10
-4.8308
 20
5.3051
 30
0.0
 10
-4.427000000000001
 20
4.7625
 30
0.0
 10
-3.9141
 20
4.0176
 30
0.0
 10
-3.9141
 20
4.0176
 30
0.0
 10
-3.4879
 20
3.3969
 30
0.0
 10
-3.1995
 20
2.9942
 30
0.0
 10
-3.0472
 20
2.8091
 30
0.0
 10
-3.0472
 20
2.8091
 30
0.0
 10
-2.8965
 20
2.6245
 30
0.0
 10
-2.7443
 20
2.4651
 30
0.0
 10
-2.5904
 20
2.3294
 30
0.0
 10
-2.5904
 20
2.3294
 30
0.0
 10
-2.5904
 20
2.3294
 30
0.0
 10
-2.5904
 20
5.7066
 30
0.0
 10
-2.5904
 20
5.7066
 30
0.0
  0
SPLINE
  5
31
330
1F
100
AcDbEntity
  8
Ebene 1
100
AcDbSpline
210
0.0
220
0.0
230
1.0
 70
    11
 71
     3
 72
   124
 73
   120
 74
     0
 42
0.0000000001
 43
0.0000000001
 40
0.0
 40
0.0
 40
0.0
 40
0.0
 40
0.0333333333333333
 40
0.0333333333333333
 40
0.0333333333333333
 40
0.0333333333333333
 40
0.0666666666666667
 40
0.0666666666666667
 40
0.0666666666666667
 40
0.0666666666666667
 40
0.1
 40
0.1
 40
0.1
 40
0.1
 40
0.1333333333333333
 40
0.1333333333333333
 40
0.1333333333333333
 40
0.1333333333333333
 40
0.1666666666666667
 40
0.1666666666666667
 40
0.1666666666666667
 40
0.1666666666666667
 40
0.2
 40
0.2
 40
0.2
 40
0.2
 40
0.2333333333333333
 40
0.2333333333333333
 40
0.2333333333333333
 40
0.2333333333333333
 40
0.2666666666666667
 40
0.2666666666666667
 40
0.2666666666666667
 40
0.2666666666666667
 40
0.3
 40
0.3
 40
0.3
 40
0.3
 40
0.3333333333333333
 40
0.3333333333333333
 40
0.3333333333333333
 40
0.3333333333333333
 40
0.3666666666666666
 40
0.3666666666666666
 40
0.3666666666666666
 40
0.3666666666666666
 40
0.4
 40
0.4
 40
0.4
 40
0.4
 40
0.4333333333333333
 40
0.4333333333333333
 40
0.4333333333333333
 40
0.4333333333333333
 40
0.4666666666666666
 40
0.4666666666666666
 40
0.4666666666666666
 40
0.4666666666666666
 40
0.4999999999999999
 40
0.4999999999999999
 40
0.4999999999999999
 40
0.4999999999999999
 40
0.5333333333333333
 40
0.5333333333333333
 40
0.5333333333333333
 40
0.5333333333333333
 40
0.5666666666666667
 40
0.5666666666666667
 40
0.5666666666666667
 40
0.5666666666666667
 40
0.6
 40
0.6
 40
0.6
 40
0.6
 40
0.6333333333333333
 40
0.6333333333333333
 40
0.6333333333333333
 40
0.6333333333333333
 40
0.6666666666666666
 40
0.6666666666666666
 40
0.6666666666666666
 40
0.6666666666666666
 40
0.7
 40
0.7
 40
0.7
 40
0.7
 40
0.7333333333333333
 40
0.7333333333333333
 40
0.7333333333333333
 40
0.7333333333333333
 40
0.7666666666666666
 40
0.7666666666666666
 40
0.7666666666666666
 40
0.7666666666666666
 40
0.7999999999999999
 40
0.7999999999999999
 40
0.7999999999999999
 40
0.7999999999999999
 40
0.8333333333333333
 40
0.8333333333333333
 40
0.8333333333333333
 40
0.8333333333333333
 40
0.8666666666666666
 40
0.8666666666666666
 40
0.8666666666666666
 40
0.8666666666666666
 40
0.8999999999999999
 40
0.8999999999999999
 40
0.8999999999999999
 40
0.8999999999999999
 40
0.9333333333333332
 40
0.9333333333333332
 40
0.9333333333333332
 40
0.9333333333333332
 40
0.9666666666666666
 40
0.9666666666666666
 40
0.9666666666666666
 40
0.9666666666666666
 40
1.0
 40
1.0
 40
1.0
 40
1.0
 10
10.2706
 20
22.4682
 30
0.0
 10
10.2706
 20
22.4682
 30
0.0
 10
11.1453
 20
22.5804
 30
0.0
 10
11.1453
 20
22.5804
 30
0.0
 10
11.1453
 20
22.5804
 30
0.0
 10
11.1147
 20
22.1012
 30
0.0
 10
11.1875
 20
21.7567
 30
0.0
 10
11.3632
 20
21.5452
 30
0.0
 10
11.3632
 20
21.5452
 30
0.0
 10
11.5405
 20
21.3336
 30
0.0
 10
11.796
 20
21.2279
 30
0.0
 10
12.1309
 20
21.2279
 30
0.0
 10
12.1309
 20
21.2279
 30
0.0
 10
12.5285
 20
21.2279
 30
0.0
 10
12.902
 20
21.3657
 30
0.0
 10
13.25
 20
21.6414
 30
0.0
 10
13.25
 20
21.6414
 30
0.0
 10
13.5963
 20
21.9169
 30
0.0
 10
13.8256
 20
22.2583
 30
0.0
 10
13.9347
 20
22.6653
 30
0.0
 10
13.9347
 20
22.6653
 30
0.0
 10
14.0386
 20
23.0532
 30
0.0
 10
13.9978
 20
23.3737
 30
0.0
 10
13.812
 20
23.6253
 30
0.0
 10
13.812
 20
23.6253
 30
0.0
 10
13.6245
 20
23.8768
 30
0.0
 10
13.3362
 20
24.0034
 30
0.0
 10
12.9451
 20
24.0034
 30
0.0
 10
12.9451
 20
24.0034
 30
0.0
 10
12.7849
 20
24.0034
 30
0.0
 10
12.5775
 20
23.9714
 30
0.0
 10
12.3236
 20
23.9089
 30
0.0
 10
12.3236
 20
23.9089
 30
0.0
 10
12.3236
 20
23.9089
 30
0.0
 10
12.617
 20
24.6508
 30
0.0
 10
12.617
 20
24.6508
 30
0.0
 10
12.617
 20
24.6508
 30
0.0
 10
12.6713
 20
24.6444
 30
0.0
 10
12.7154
 20
24.6412
 30
0.0
 10
12.7506
 20
24.6412
 30
0.0
 10
12.7506
 20
24.6412
 30
0.0
 10
13.1097
 20
24.6412
 30
0.0
 10
13.4588
 20
24.7358
 30
0.0
 10
13.7975
 20
24.9233
 30
0.0
 10
13.7975
 20
24.9233
 30
0.0
 10
14.1363
 20
25.1108
 30
0.0
 10
14.3583
 20
25.4008
 30
0.0
 10
14.4631
 20
25.7919
 30
0.0
 10
14.4631
 20
25.7919
 30
0.0
 10
14.5459
 20
26.1011
 30
0.0
 10
14.5093
 20
26.3591
 30
0.0
 10
14.3534
 20
26.561
 30
0.0
 10
14.3534
 20
26.561
 30
0.0
 10
14.1979
 20
26.7645
 30
0.0
 10
13.9545
 20
26.8671
 30
0.0
 10
13.6227
 20
26.8671
 30
0.0
 10
13.6227
 20
26.8671
 30
0.0
 10
13.2941
 20
26.8671
 30
0.0
 10
12.9921
 20
26.763
 30
0.0
 10
12.7192
 20
26.5578
 30
0.0
 10
12.7192
 20
26.5578
 30
0.0
 10
12.4442
 20
26.3511
 30
0.0
 10
12.2198
 20
26.0402
 30
0.0
 10
12.0465
 20
25.6268
 30
0.0
 10
12.0465
 20
25.6268
 30
0.0
 10
12.0465
 20
25.6268
 30
0.0
 10
11.2422
 20
25.7774
 30
0.0
 10
11.2422
 20
25.7774
 30
0.0
 10
11.2422
 20
25.7774
 30
0.0
 10
11.4968
 20
26.3447
 30
0.0
 10
11.8501
 20
26.7838
 30
0.0
 10
12.2988
 20
27.0947
 30
0.0
 10
12.2988
 20
27.0947
 30
0.0
 10
12.7491
 20
27.4055
 30
0.0
 10
13.2465
 20
27.5626
 30
0.0
 10
13.7915
 20
27.5626
 30
0.0
 10
13.7915
 20
27.5626
 30
0.0
 10
14.1665
 20
27.5626
 30
0.0
 10
14.4908
 20
27.4809
 30
0.0
 10
14.7637
 20
27.3206
 30
0.0
 10
14.7637
 20
27.3206
 30
0.0
 10
15.0361
 20
27.1587
 30
0.0
 10
15.2193
 20
26.9392
 30
0.0
 10
15.3129
 20
26.6604
 30
0.0
 10
15.3129
 20
26.6604
 30
0.0
 10
15.4049
 20
26.3815
 30
0.0
 10
15.4108
 20
26.0867
 30
0.0
 10
15.3267
 20
25.7726
 30
0.0
 10
15.3267
 20
25.7726
 30
0.0
 10
15.2472
 20
25.4761
 30
0.0
 10
15.0945
 20
25.2053
 30
0.0
 10
14.8685
 20
24.9601
 30
0.0
 10
14.8685
 20
24.9601
 30
0.0
 10
14.643
 20
24.7166
 30
0.0
 10
14.3553
 20
24.5226
 30
0.0
 10
14.0041
 20
24.3784
 30
0.0
 10
14.0041
 20
24.3784
 30
0.0
 10
14.3864
 20
24.2855
 30
0.0
 10
14.6498
 20
24.09
 30
0.0
 10
14.7964
 20
23.7935
 30
0.0
 10
14.7964
 20
23.7935
 30
0.0
 10
14.9417
 20
23.4986
 30
0.0
 10
14.9548
 20
23.1285
 30
0.0
 10
14.8358
 20
22.6846
 30
0.0
 10
14.8358
 20
22.6846
 30
0.0
 10
14.6748
 20
22.0837
 30
0.0
 10
14.3202
 20
21.574
 30
0.0
 10
13.769
 20
21.1558
 30
0.0
 10
13.769
 20
21.1558
 30
0.0
 10
13.2194
 20
20.7375
 30
0.0
 10
12.6089
 20
20.5292
 30
0.0
 10
11.939
 20
20.5292
 30
0.0
 10
11.939
 20
20.5292
 30
0.0
 10
11.3346
 20
20.5292
 30
0.0
 10
10.881
 20
20.7087
 30
0.0
 10
10.5785
 20
21.0692
 30
0.0
 10
10.5785
 20
21.0692
 30
0.0
 10
10.2756
 20
21.4282
 30
0.0
 10
10.1729
 20
21.8945
 30
0.0
 10
10.2706
 20
22.4682
 30
0.0
  0
SPLINE
  5
32
330
1F
100
AcDbEntity
  8
Ebene 1
100
AcDbSpline
210
0.0
220
0.0
230
1.0
 70
    11
 71
     3
 72
    80
 73
    76
 74
     0
 42
0.0000000001
 43
0.0000000001
 40
0.0
 40
0.0
 40
0.0
 40
0.0
 40
0.0526315789473684
 40
0.0526315789473684
 40
0.0526315789473684
 40
0.0526315789473684
 40
0.1052631578947368
 40
0.1052631578947368
 40
0.1052631578947368
 40
0.1052631578947368
 40
0.1578947368421053
 40
0.1578947368421053
 40
0.1578947368421053
 40
0.1578947368421053
 40
0.2105263157894737
 40
0.2105263157894737
 40
0.2105263157894737
 40
0.2105263157894737
 40
0.2631578947368421
 40
0.2631578947368421
 40
0.2631578947368421
 40
0.2631578947368421
 40
0.3157894736842105
 40
0.3157894736842105
 40
0.3157894736842105
 40
0.3157894736842105
 40
0.3684210526315789
 40
0.3684210526315789
 40
0.3684210526315789
 40
0.3684210526315789
 40
0.4210526315789474
 40
0.4210526315789474
 40
0.4210526315789474
 40
0.4210526315789474
 40
0.4736842105263158
 40
0.4736842105263158
 40
0.4736842105263158
 40
0.4736842105263158
 40
0.5263157894736842
 40
0.5263157894736842
 40
0.5263157894736842
 40
0.5263157894736842
 40
0.5789473684210527
 40
0.5789473684210527
 40
0.5789473684210527
 40
0.5789473684210527
 40
0.631578947368421
 40
0.631578947368421
 40
0.631578947368421
 40
0.631578947368421
 40
0.6842105263157894
 40
0.6842105263157894
 40
0.6842105263157894
 40
0.6842105263157894
 40
0.7368421052631577
 40
0.7368421052631577
 40
0.7368421052631577
 40
0.7368421052631577
 40
0.7894736842105261
 40
0.7894736842105261
 40
0.7894736842105261
 40
0.7894736842105261
 40
0.8421052631578945
 40
0.8421052631578945
 40
0.8421052631578945
 40
0.8421052631578945
 40
0.8947368421052628
 40
0.8947368421052628
 40
0.8947368421052628
 40
0.8947368421052628
 40
0.9473684210526312
 40
0.9473684210526312
 40
0.9473684210526312
 40
0.9473684210526312
 40
1.0
 40
1.0
 40
1.0
 40
1.0
 10
20.9056
 20
25.8479
 30
0.0
 10
20.9056
 20
25.8479
 30
0.0
 10
20.0481
 20
25.7822
 30
0.0
 10
20.0481
 20
25.7822
 30
0.0
 10
20.0481
 20
25.7822
 30
0.0
 10
20.0616
 20
26.1139
 30
0.0
 10
20.0207
 20
26.356
 30
0.0
 10
19.9227
 20
26.5049
 30
0.0
 10
19.9227
 20
26.5049
 30
0.0
 10
19.7584
 20
26.747
 30
0.0
 10
19.5085
 20
26.8671
 30
0.0
 10
19.1735
 20
26.8671
 30
0.0
 10
19.1735
 20
26.8671
 30
0.0
 10
18.9042
 20
26.8671
 30
0.0
 10
18.6484
 20
26.7918
 30
0.0
 10
18.4045
 20
26.6412
 30
0.0
 10
18.4045
 20
26.6412
 30
0.0
 10
18.0865
 20
26.4472
 30
0.0
 10
17.8004
 20
26.1636
 30
0.0
 10
17.547
 20
25.7919
 30
0.0
 10
17.547
 20
25.7919
 30
0.0
 10
17.2951
 20
25.4201
 30
0.0
 10
17.0728
 20
24.8896
 30
0.0
 10
16.8818
 20
24.2006
 30
0.0
 10
16.8818
 20
24.2006
 30
0.0
 10
17.1682
 20
24.5099
 30
0.0
 10
17.4785
 20
24.7406
 30
0.0
 10
17.8138
 20
24.8912
 30
0.0
 10
17.8138
 20
24.8912
 30
0.0
 10
18.147
 20
25.0403
 30
0.0
 10
18.4766
 20
25.1156
 30
0.0
 10
18.7987
 20
25.1156
 30
0.0
 10
18.7987
 20
25.1156
 30
0.0
 10
19.3629
 20
25.1156
 30
0.0
 10
19.7869
 20
24.9089
 30
0.0
 10
20.0716
 20
24.4938
 30
0.0
 10
20.0716
 20
24.4938
 30
0.0
 10
20.3562
 20
24.0788
 30
0.0
 10
20.4116
 20
23.5436
 30
0.0
 10
20.2356
 20
22.8865
 30
0.0
 10
20.2356
 20
22.8865
 30
0.0
 10
20.1196
 20
22.4538
 30
0.0
 10
19.9177
 20
22.0532
 30
0.0
 10
19.6321
 20
21.6814
 30
0.0
 10
19.6321
 20
21.6814
 30
0.0
 10
19.347
 20
21.3112
 30
0.0
 10
19.0141
 20
21.026
 30
0.0
 10
18.636
 20
20.8289
 30
0.0
 10
18.636
 20
20.8289
 30
0.0
 10
18.2577
 20
20.6318
 30
0.0
 10
17.8629
 20
20.534
 30
0.0
 10
17.4493
 20
20.534
 30
0.0
 10
17.4493
 20
20.534
 30
0.0
 10
16.7441
 20
20.534
 30
0.0
 10
16.2394
 20
20.792
 30
0.0
 10
15.9345
 20
21.3112
 30
0.0
 10
15.9345
 20
21.3112
 30
0.0
 10
15.6276
 20
21.8289
 30
0.0
 10
15.6352
 20
22.683
 30
0.0
 10
15.9538
 20
23.8721
 30
0.0
 10
15.9538
 20
23.8721
 30
0.0
 10
16.3102
 20
25.2022
 30
0.0
 10
16.8144
 20
26.1685
 30
0.0
 10
17.4683
 20
26.7726
 30
0.0
 10
17.4683
 20
26.7726
 30
0.0
 10
18.0372
 20
27.2982
 30
0.0
 10
18.685
 20
27.5626
 30
0.0
 10
19.4127
 20
27.5626
 30
0.0
 10
19.4127
 20
27.5626
 30
0.0
 10
19.9529
 20
27.5626
 30
0.0
 10
20.3562
 20
27.4104
 30
0.0
 10
20.6208
 20
27.1059
 30
0.0
 10
20.6208
 20
27.1059
 30
0.0
 10
20.8859
 20
26.803
 30
0.0
 10
20.9801
 20
26.3832
 30
0.0
 10
20.9056
 20
25.8479
 30
0.0
  0
SPLINE
  5
33
330
1F
100
AcDbEntity
  8
Ebene 1
100
AcDbSpline
210
0.0
220
0.0
230
1.0
 70
    11
 71
     3
 72
    40
 73
    36
 74
     0
 42
0.0000000001
 43
0.0000000001
 40
0.0
 40
0.0
 40
0.0
 40
0.0
 40
0.1111111111111111
 40
0.1111111111111111
 40
0.1111111111111111
 40
0.1111111111111111
 40
0.2222222222222222
 40
0.2222222222222222
 40
0.2222222222222222
 40
0.2222222222222222
 40
0.3333333333333333
 40
0.3333333333333333
 40
0.3333333333333333
 40
0.3333333333333333
 40
0.4444444444444444
 40
0.4444444444444444
 40
0.4444444444444444
 40
0.4444444444444444
 40
0.5555555555555556
 40
0.5555555555555556
 40
0.5555555555555556
 40
0.5555555555555556
 40
0.6666666666666667
 40
0.6666666666666667
 40
0.6666666666666667
 40
0.6666666666666667
 40
0.7777777777777779
 40
0.7777777777777779
 40
0.7777777777777779
 40
0.7777777777777779
 40
0.8888888888888891
 40
0.8888888888888891
 40
0.8888888888888891
 40
0.8888888888888891
 40
1.0
 40
1.0
 40
1.0
 40
1.0
 10
16.6598
 20
22.8817
 30
0.0
 10
16.5816
 20
22.59
 30
0.0
 10
16.5695
 20
22.3112
 30
0.0
 10
16.6216
 20
22.0452
 30
0.0
 10
16.6216
 20
22.0452
 30
0.0
 10
16.6737
 20
21.7792
 30
0.0
 10
16.7928
 20
21.5772
 30
0.0
 10
16.9766
 20
21.4378
 30
0.0
 10
16.9766
 20
21.4378
 30
0.0
 10
17.162
 20
21.2984
 30
0.0
 10
17.3772
 20
21.2279
 30
0.0
 10
17.6208
 20
21.2279
 30
0.0
 10
17.6208
 20
21.2279
 30
0.0
 10
17.9783
 20
21.2279
 30
0.0
 10
18.3231
 20
21.3722
 30
0.0
 10
18.6568
 20
21.6606
 30
0.0
 10
18.6568
 20
21.6606
 30
0.0
 10
18.9906
 20
21.949
 30
0.0
 10
19.2236
 20
22.34
 30
0.0
 10
19.3558
 20
22.8336
 30
0.0
 10
19.3558
 20
22.8336
 30
0.0
 10
19.4833
 20
23.3095
 30
0.0
 10
19.4572
 20
23.6846
 30
0.0
 10
19.2773
 20
23.9585
 30
0.0
 10
19.2773
 20
23.9585
 30
0.0
 10
19.0975
 20
24.2326
 30
0.0
 10
18.815
 20
24.3688
 30
0.0
 10
18.4303
 20
24.3688
 30
0.0
 10
18.4303
 20
24.3688
 30
0.0
 10
18.0472
 20
24.3688
 30
0.0
 10
17.687
 20
24.2326
 30
0.0
 10
17.3474
 20
23.9585
 30
0.0
 10
17.3474
 20
23.9585
 30
0.0
 10
17.008
 20
23.6846
 30
0.0
 10
16.7787
 20
23.3256
 30
0.0
 10
16.6598
 20
22.8817
 30
0.0
  0
SPLINE
  5
34
330
1F
100
AcDbEntity
  8
Ebene 1
100
AcDbSpline
210
0.0
220
0.0
230
1.0
 70
    11
 71
     3
 72
    40
 73
    36
 74
     0
 42
0.0000000001
 43
0.0000000001
 40
0.0
 40
0.0
 40
0.0
 40
0.0
 40
0.1111111111111111
 40
0.1111111111111111
 40
0.1111111111111111
 40
0.1111111111111111
 40
0.2222222222222222
 40
0.2222222222222222
 40
0.2222222222222222
 40
0.2222222222222222
 40
0.3333333333333333
 40
0.3333333333333333
 40
0.3333333333333333
 40
0.3333333333333333
 40
0.4444444444444444
 40
0.4444444444444444
 40
0.4444444444444444
 40
0.4444444444444444
 40
0.5555555555555556
 40
0.5555555555555556
 40
0.5555555555555556
 40
0.5555555555555556
 40
0.6666666666666667
 40
0.6666666666666667
 40
0.6666666666666667
 40
0.6666666666666667
 40
0.7777777777777779
 40
0.7777777777777779
 40
0.7777777777777779
 40
0.7777777777777779
 40
0.8888888888888891
 40
0.8888888888888891
 40
0.8888888888888891
 40
0.8888888888888891
 40
1.0
 40
1.0
 40
1.0
 40
1.0
 10
20.9318
 20
20.651
 30
0.0
 10
20.9318
 20
20.651
 30
0.0
 10
21.1898
 20
21.6141
 30
0.0
 10
21.1898
 20
21.6141
 30
0.0
 10
21.1898
 20
21.6141
 30
0.0
 10
21.1898
 20
21.6141
 30
0.0
 10
22.1531
 20
21.6141
 30
0.0
 10
22.1531
 20
21.6141
 30
0.0
 10
22.1531
 20
21.6141
 30
0.0
 10
22.1531
 20
21.6141
 30
0.0
 10
21.895
 20
20.651
 30
0.0
 10
21.895
 20
20.651
 30
0.0
 10
21.895
 20
20.651
 30
0.0
 10
21.8001
 20
20.2969
 30
0.0
 10
21.6612
 20
20.0116
 30
0.0
 10
21.4778
 20
19.7936
 30
0.0
 10
21.4778
 20
19.7936
 30
0.0
 10
21.2932
 20
19.5773
 30
0.0
 10
21.0494
 20
19.409
 30
0.0
 10
20.7463
 20
19.2889
 30
0.0
 10
20.7463
 20
19.2889
 30
0.0
 10
20.7463
 20
19.2889
 30
0.0
 10
20.6077
 20
19.6511
 30
0.0
 10
20.6077
 20
19.6511
 30
0.0
 10
20.6077
 20
19.6511
 30
0.0
 10
20.8067
 20
19.7296
 30
0.0
 10
20.969
 20
19.8449
 30
0.0
 10
21.0943
 20
19.9956
 30
0.0
 10
21.0943
 20
19.9956
 30
0.0
 10
21.22
 20
20.1478
 30
0.0
 10
21.325
 20
20.3658
 30
0.0
 10
21.411
 20
20.651
 30
0.0
 10
21.411
 20
20.651
 30
0.0
 10
21.411
 20
20.651
 30
0.0
 10
20.9318
 20
20.651
 30
0.0
 10
20.9318
 20
20.651
 30
0.0
  0
SPLINE
  5
35
330
1F
100
AcDbEntity
  8
Ebene 1
100
AcDbSpline
210
0.0
220
0.0
230
1.0
 70
    11
 71
     3
 72
    92
 73
    88
 74
     0
 42
0.0000000001
 43
0.0000000001
 40
0.0
 40
0.0
 40
0.0
 40
0.0
 40
0.0454545454545455
 40
0.0454545454545455
 40
0.0454545454545455
 40
0.0454545454545455
 40
0.0909090909090909
 40
0.0909090909090909
 40
0.0909090909090909
 40
0.0909090909090909
 40
0.1363636363636364
 40
0.1363636363636364
 40
0.1363636363636364
 40
0.1363636363636364
 40
0.1818181818181818
 40
0.1818181818181818
 40
0.1818181818181818
 40
0.1818181818181818
 40
0.2272727272727273
 40
0.2272727272727273
 40
0.2272727272727273
 40
0.2272727272727273
 40
0.2727272727272728
 40
0.2727272727272728
 40
0.2727272727272728
 40
0.2727272727272728
 40
0.3181818181818182
 40
0.3181818181818182
 40
0.3181818181818182
 40
0.3181818181818182
 40
0.3636363636363637
 40
0.3636363636363637
 40
0.3636363636363637
 40
0.3636363636363637
 40
0.4090909090909092
 40
0.4090909090909092
 40
0.4090909090909092
 40
0.4090909090909092
 40
0.4545454545454546
 40
0.4545454545454546
 40
0.4545454545454546
 40
0.4545454545454546
 40
0.5000000000000001
 40
0.5000000000000001
 40
0.5000000000000001
 40
0.5000000000000001
 40
0.5454545454545455
 40
0.5454545454545455
 40
0.5454545454545455
 40
0.5454545454545455
 40
0.5909090909090909
 40
0.5909090909090909
 40
0.5909090909090909
 40
0.5909090909090909
 40
0.6363636363636364
 40
0.6363636363636364
 40
0.6363636363636364
 40
0.6363636363636364
 40
0.6818181818181818
 40
0.6818181818181818
 40
0.6818181818181818
 40
0.6818181818181818
 40
0.7272727272727272
 40
0.7272727272727272
 40
0.7272727272727272
 40
0.7272727272727272
 40
0.7727272727272726
 40
0.7727272727272726
 40
0.7727272727272726
 40
0.7727272727272726
 40
0.818181818181818
 40
0.818181818181818
 40
0.818181818181818
 40
0.818181818181818
 40
0.8636363636363634
 40
0.8636363636363634
 40
0.8636363636363634
 40
0.8636363636363634
 40
0.9090909090909088
 40
0.9090909090909088
 40
0.9090909090909088
 40
0.9090909090909088
 40
0.9545454545454543
 40
0.9545454545454543
 40
0.9545454545454543
 40
0.9545454545454543
 40
1.0
 40
1.0
 40
1.0
 40
1.0
 10
23.6316
 20
22.4538
 30
0.0
 10
23.6316
 20
22.4538
 30
0.0
 10
24.5398
 20
22.5291
 30
0.0
 10
24.5398
 20
22.5291
 30
0.0
 10
24.5398
 20
22.5291
 30
0.0
 10
24.4895
 20
22.0964
 30
0.0
 10
24.555
 20
21.7727
 30
0.0
 10
24.7355
 20
21.5548
 30
0.0
 10
24.7355
 20
21.5548
 30
0.0
 10
24.9176
 20
21.3369
 30
0.0
 10
25.1769
 20
21.2279
 30
0.0
 10
25.5151
 20
21.2279
 30
0.0
 10
25.5151
 20
21.2279
 30
0.0
 10
25.9223
 20
21.2279
 30
0.0
 10
26.3081
 20
21.3817
 30
0.0
 10
26.6706
 20
21.6878
 30
0.0
 10
26.6706
 20
21.6878
 30
0.0
 10
27.0351
 20
21.9955
 30
0.0
 10
27.2853
 20
22.4025
 30
0.0
 10
27.421
 20
22.9089
 30
0.0
 10
27.421
 20
22.9089
 30
0.0
 10
27.5502
 20
23.3912
 30
0.0
 10
27.5173
 20
23.771
 30
0.0
 10
27.3211
 20
24.0499
 30
0.0
 10
27.3211
 20
24.0499
 30
0.0
 10
27.125
 20
24.3288
 30
0.0
 10
26.8081
 20
24.4681
 30
0.0
 10
26.3688
 20
24.4681
 30
0.0
 10
26.3688
 20
24.4681
 30
0.0
 10
26.0964
 20
24.4681
 30
0.0
 10
25.8344
 20
24.4057
 30
0.0
 10
25.5818
 20
24.2823
 30
0.0
 10
25.5818
 20
24.2823
 30
0.0
 10
25.3291
 20
24.1589
 30
0.0
 10
25.1147
 20
23.9986
 30
0.0
 10
24.9368
 20
23.8016
 30
0.0
 10
24.9368
 20
23.8016
 30
0.0
 10
24.9368
 20
23.8016
 30
0.0
 10
24.1708
 20
23.904
 30
0.0
 10
24.1708
 20
23.904
 30
0.0
 10
24.1708
 20
23.904
 30
0.0
 10
24.1708
 20
23.904
 30
0.0
 10
25.7849
 20
27.4392
 30
0.0
 10
25.7849
 20
27.4392
 30
0.0
 10
25.7849
 20
27.4392
 30
0.0
 10
25.7849
 20
27.4392
 30
0.0
 10
29.2086
 20
27.4392
 30
0.0
 10
29.2086
 20
27.4392
 30
0.0
 10
29.2086
 20
27.4392
 30
0.0
 10
29.2086
 20
27.4392
 30
0.0
 10
28.9922
 20
26.6315
 30
0.0
 10
28.9922
 20
26.6315
 30
0.0
 10
28.9922
 20
26.6315
 30
0.0
 10
28.9922
 20
26.6315
 30
0.0
 10
26.2449
 20
26.6315
 30
0.0
 10
26.2449
 20
26.6315
 30
0.0
 10
26.2449
 20
26.6315
 30
0.0
 10
26.2449
 20
26.6315
 30
0.0
 10
25.3775
 20
24.7823
 30
0.0
 10
25.3775
 20
24.7823
 30
0.0
 10
25.3775
 20
24.7823
 30
0.0
 10
25.8684
 20
25.0707
 30
0.0
 10
26.3414
 20
25.2149
 30
0.0
 10
26.795
 20
25.2149
 30
0.0
 10
26.795
 20
25.2149
 30
0.0
 10
27.3961
 20
25.2149
 30
0.0
 10
27.8467
 20
25.0067
 30
0.0
 10
28.1487
 20
24.5899
 30
0.0
 10
28.1487
 20
24.5899
 30
0.0
 10
28.4506
 20
24.1733
 30
0.0
 10
28.5139
 20
23.638
 30
0.0
 10
28.3387
 20
22.9843
 30
0.0
 10
28.3387
 20
22.9843
 30
0.0
 10
28.1717
 20
22.3609
 30
0.0
 10
27.8447
 20
21.8225
 30
0.0
 10
27.3609
 20
21.3689
 30
0.0
 10
27.3609
 20
21.3689
 30
0.0
 10
26.7696
 20
20.8129
 30
0.0
 10
26.0922
 20
20.534
 30
0.0
 10
25.3292
 20
20.534
 30
0.0
 10
25.3292
 20
20.534
 30
0.0
 10
24.7024
 20
20.534
 30
0.0
 10
24.2379
 20
20.7087
 30
0.0
 10
23.9361
 20
21.0597
 30
0.0
 10
23.9361
 20
21.0597
 30
0.0
 10
23.6342
 20
21.4106
 30
0.0
 10
23.5327
 20
21.8753
 30
0.0
 10
23.6316
 20
22.4538
 30
0.0
  0
SPLINE
  5
36
330
1F
100
AcDbEntity
  8
Ebene 1
 62
   250
370
    15
100
AcDbSpline
210
0.0
220
0.0
230
1.0
 70
    24
 71
     3
 72
     8
 73
     4
 74
     0
 42
0.0000000001
 43
0.0000000001
 40
0.0
 40
0.0
 40
0.0
 40
0.0
 40
1.0
 40
1.0
 40
1.0
 40
1.0
 10
4.745200000000001
 20
21.7492
 30
0.0
 10
4.745200000000001
 20
21.7492
 30
0.0
 10
9.154400000000001
 20
21.7492
 30
0.0
 10
9.154400000000001
 20
21.7492
 30
0.0
  0
SPLINE
  5
37
330
1F
100
AcDbEntity
  8
Ebene 1
 62
   250
370
    15
100
AcDbSpline
210
0.0
220
0.0
230
1.0
 70
    24
 71
     3
 72
     8
 73
     4
 74
     0
 42
0.0000000001
 43
0.0000000001
 40
0.0
 40
0.0
 40
0.0
 40
0.0
 40
1.0
 40
1.0
 40
1.0
 40
1.0
 10
4.745200000000001
 20
21.7492
 30
0.0
 10
4.745200000000001
 20
21.7492
 30
0.0
 10
4.745200000000001
 20
26.1585
 30
0.0
 10
4.745200000000001
 20
26.1585
 30
0.0
  0
SPLINE
  5
38
330
1F
100
AcDbEntity
  8
Ebene 1
 62
   250
370
    15
100
AcDbSpline
210
0.0
220
0.0
230
1.0
 70
    24
 71
     3
 72
     8
 73
     4
 74
     0
 42
0.0000000001
 43
0.0000000001
 40
0.0
 40
0.0
 40
0.0
 40
0.0
 40
1.0
 40
1.0
 40
1.0
 40
1.0
 10
4.745200000000001
 20
26.1585
 30
0.0
 10
4.745200000000001
 20
26.1585
 30
0.0
 10
9.154400000000001
 20
26.1585
 30
0.0
 10
9.154400000000001
 20
26.1585
 30
0.0
  0
SPLINE
  5
39
330
1F
100
AcDbEntity
  8
Ebene 1
 62
   250
370
    15
100
AcDbSpline
210
0.0
220
0.0
230
1.0
 70
    24
 71
     3
 72
     8
 73
     4
 74
     0
 42
0.0000000001
 43
0.0000000001
 40
0.0
 40
0.0
 40
0.0
 40
0.0
 40
1.0
 40
1.0
 40
1.0
 40
1.0
 10
9.154400000000001
 20
26.1585
 30
0.0
 10
9.154400000000001
 20
26.1585
 30
0.0
 10
9.154400000000001
 20
21.7492
 30
0.0
 10
9.154400000000001
 20
21.7492
 30
0.0
  0
SPLINE
  5
3A
330
1F
100
AcDbEntity
  8
Ebene 1
370
    15
100
AcDbSpline
210
0.0
220
0.0
230
1.0
 70
    11
 71
     3
 72
    16
 73
    12
 74
     0
 42
0.0000000001
 43
0.0000000001
 40
0.0
 40
0.0
 40
0.0
 40
0.0
 40
0.3333333333333333
 40
0.3333333333333333
 40
0.3333333333333333
 40
0.3333333333333333
 40
0.6666666666666666
 40
0.6666666666666666
 40
0.6666666666666666
 40
0.6666666666666666
 40
1.0
 40
1.0
 40
1.0
 40
1.0
 10
30.6895
 20
18.3832
 30
0.0
 10
30.6895
 20
18.3832
 30
0.0
 10
26.0494
 20
17.6735
 30
0.0
 10
26.0494
 20
17.6735
 30
0.0
 10
26.0494
 20
17.6735
 30
0.0
 10
26.0494
 20
17.6735
 30
0.0
 10
26.0494
 20
19.0655
 30
0.0
 10
26.0494
 20
19.0655
 30
0.0
 10
26.0494
 20
19.0655
 30
0.0
 10
26.0494
 20
19.0655
 30
0.0
 10
30.6895
 20
18.3832
 30
0.0
 10
30.6895
 20
18.3832
 30
0.0
  0
SPLINE
  5
3B
330
1F
100
AcDbEntity
  8
Ebene 1
370
    15
100
AcDbSpline
210
0.0
220
0.0
230
1.0
 70
    11
 71
     3
 72
    16
 73
    12
 74
     0
 42
0.0000000001
 43
0.0000000001
 40
0.0
 40
0.0
 40
0.0
 40
0.0
 40
0.3333333333333333
 40
0.3333333333333333
 40
0.3333333333333333
 40
0.3333333333333333
 40
0.6666666666666666
 40
0.6666666666666666
 40
0.6666666666666666
 40
0.6666666666666666
 40
1.0
 40
1.0
 40
1.0
 40
1.0
 10
2.4398
 20
18.3832
 30
0.0
 10
2.4398
 20
18.3832
 30
0.0
 10
7.079800000000001
 20
19.0655
 30
0.0
 10
7.079800000000001
 20
19.0655
 30
0.0
 10
7.079800000000001
 20
19.0655
 30
0.0
 10
7.079800000000001
 20
19.0655
 30
0.0
 10
7.079800000000001
 20
17.6735
 30
0.0
 10
7.079800000000001
 20
17.6735
 30
0.0
 10
7.079800000000001
 20
17.6735
 30
0.0
 10
7.079800000000001
 20
17.6735
 30
0.0
 10
2.4398
 20
18.3832
 30
0.0
 10
2.4398
 20
18.3832
 30
0.0
  0
SPLINE
  5
3C
330
1F
100
AcDbEntity
  8
Ebene 1
 62
   250
370
    15
100
AcDbSpline
210
0.0
220
0.0
230
1.0
 70
    11
 71
     3
 72
    16
 73
    12
 74
     0
 42
0.0000000001
 43
0.0000000001
 40
0.0
 40
0.0
 40
0.0
 40
0.0
 40
0.3333333333333333
 40
0.3333333333333333
 40
0.3333333333333333
 40
0.3333333333333333
 40
0.6666666666666666
 40
0.6666666666666666
 40
0.6666666666666666
 40
0.6666666666666666
 40
1.0
 40
1.0
 40
1.0
 40
1.0
 10
-11.2075
 20
-2.7865
 30
0.0
 10
-11.2075
 20
-2.7865
 30
0.0
 10
-11.9172
 20
1.8535
 30
0.0
 10
-11.9172
 20
1.8535
 30
0.0
 10
-11.9172
 20
1.8535
 30
0.0
 10
-11.9172
 20
1.8535
 30
0.0
 10
-10.5251
 20
1.8535
 30
0.0
 10
-10.5251
 20
1.8535
 30
0.0
 10
-10.5251
 20
1.8535
 30
0.0
 10
-10.5251
 20
1.8535
 30
0.0
 10
-11.2075
 20
-2.7865
 30
0.0
 10
-11.2075
 20
-2.7865
 30
0.0
  0
SPLINE
  5
3D
330
1F
100
AcDbEntity
  8
Ebene 1
 62
   250
370
    15
100
AcDbSpline
210
0.0
220
0.0
230
1.0
 70
    11
 71
     3
 72
    16
 73
    12
 74
     0
 42
0.0000000001
 43
0.0000000001
 40
0.0
 40
0.0
 40
0.0
 40
0.0
 40
0.3333333333333333
 40
0.3333333333333333
 40
0.3333333333333333
 40
0.3333333333333333
 40
0.6666666666666666
 40
0.6666666666666666
 40
0.6666666666666666
 40
0.6666666666666666
 40
1.0
 40
1.0
 40
1.0
 40
1.0
 10
-11.2075
 20
11.8979
 30
0.0
 10
-11.2075
 20
11.8979
 30
0.0
 10
-10.5251
 20
7.257800000000001
 30
0.0
 10
-10.5251
 20
7.257800000000001
 30
0.0
 10
-10.5251
 20
7.257800000000001
 30
0.0
 10
-10.5251
 20
7.257800000000001
 30
0.0
 10
-11.9172
 20
7.257800000000001
 30
0.0
 10
-11.9172
 20
7.257800000000001
 30
0.0
 10
-11.9172
 20
7.257800000000001
 30
0.0
 10
-11.9172
 20
7.257800000000001
 30
0.0
 10
-11.2075
 20
11.8979
 30
0.0
 10
-11.2075
 20
11.8979
 30
0.0
  0
SPLINE
  5
3E
330
1F
100
AcDbEntity
  8
Ebene 1
 62
   250
370
    15
100
AcDbSpline
210
0.0
220
0.0
230
1.0
 70
    11
 71
     3
 72
    16
 73
    12
 74
     0
 42
0.0000000001
 43
0.0000000001
 40
0.0
 40
0.0
 40
0.0
 40
0.0
 40
0.3333333333333333
 40
0.3333333333333333
 40
0.3333333333333333
 40
0.3333333333333333
 40
0.6666666666666666
 40
0.6666666666666666
 40
0.6666666666666666
 40
0.6666666666666666
 40
1.0
 40
1.0
 40
1.0
 40
1.0
 10
-0.3103
 20
-2.7865
 30
0.0
 10
-0.3103
 20
-2.7865
 30
0.0
 10
0.3993
 20
-7.426600000000001
 30
0.0
 10
0.3993
 20
-7.426600000000001
 30
0.0
 10
0.3993
 20
-7.426600000000001
 30
0.0
 10
0.3993
 20
-7.426600000000001
 30
0.0
 10
-0.9927
 20
-7.426600000000001
 30
0.0
 10
-0.9927
 20
-7.426600000000001
 30
0.0
 10
-0.9927
 20
-7.426600000000001
 30
0.0
 10
-0.9927
 20
-7.426600000000001
 30
0.0
 10
-0.3103
 20
-2.7865
 30
0.0
 10
-0.3103
 20
-2.7865
 30
0.0
  0
SPLINE
  5
3F
330
1F
100
AcDbEntity
  8
Ebene 1
 62
   250
370
    15
100
AcDbSpline
210
0.0
220
0.0
230
1.0
 70
    11
 71
     3
 72
    16
 73
    12
 74
     0
 42
0.0000000001
 43
0.0000000001
 40
0.0
 40
0.0
 40
0.0
 40
0.0
 40
0.3333333333333333
 40
0.3333333333333333
 40
0.3333333333333333
 40
0.3333333333333333
 40
0.6666666666666666
 40
0.6666666666666666
 40
0.6666666666666666
 40
0.6666666666666666
 40
1.0
 40
1.0
 40
1.0
 40
1.0
 10
-0.3103
 20
6.493600000000001
 30
0.0
 10
-0.3103
 20
6.493600000000001
 30
0.0
 10
-0.9927
 20
11.1336
 30
0.0
 10
-0.9927
 20
11.1336
 30
0.0
 10
-0.9927
 20
11.1336
 30
0.0
 10
-0.9927
 20
11.1336
 30
0.0
 10
0.3993
 20
11.1336
 30
0.0
 10
0.3993
 20
11.1336
 30
0.0
 10
0.3993
 20
11.1336
 30
0.0
 10
0.3993
 20
11.1336
 30
0.0
 10
-0.3103
 20
6.493600000000001
 30
0.0
 10
-0.3103
 20
6.493600000000001
 30
0.0
  0
SPLINE
  5
40
330
1F
100
AcDbEntity
  8
Ebene 1
 62
   250
370
    15
100
AcDbSpline
210
0.0
220
0.0
230
1.0
 70
    24
 71
     3
 72
     8
 73
     4
 74
     0
 42
0.0000000001
 43
0.0000000001
 40
0.0
 40
0.0
 40
0.0
 40
0.0
 40
1.0
 40
1.0
 40
1.0
 40
1.0
 10
2.4398
 20
18.3832
 30
0.0
 10
2.4398
 20
18.3832
 30
0.0
 10
30.6895
 20
18.3832
 30
0.0
 10
30.6895
 20
18.3832
 30
0.0
  0
SPLINE
  5
41
330
1F
100
AcDbEntity
  8
Ebene 1
 62
   250
370
    15
100
AcDbSpline
210
0.0
220
0.0
230
1.0
 70
    24
 71
     3
 72
     8
 73
     4
 74
     0
 42
0.0000000001
 43
0.0000000001
 40
0.0
 40
0.0
 40
0.0
 40
0.0
 40
1.0
 40
1.0
 40
1.0
 40
1.0
 10
30.6895
 20
11.8979
 30
0.0
 10
30.6895
 20
11.8979
 30
0.0
 10
30.6895
 20
21.2082
 30
0.0
 10
30.6895
 20
21.2082
 30
0.0
  0
SPLINE
  5
42
330
1F
100
AcDbEntity
  8
Ebene 1
 62
   250
370
    15
100
AcDbSpline
210
0.0
220
0.0
230
1.0
 70
    24
 71
     3
 72
     8
 73
     4
 74
     0
 42
0.0000000001
 43
0.0000000001
 40
0.0
 40
0.0
 40
0.0
 40
0.0
 40
1.0
 40
1.0
 40
1.0
 40
1.0
 10
2.4398
 20
11.8979
 30
0.0
 10
2.4398
 20
11.8979
 30
0.0
 10
2.4398
 20
21.2082
 30
0.0
 10
2.4398
 20
21.2082
 30
0.0
  0
SPLINE
  5
43
330
1F
100
AcDbEntity
  8
Ebene 1
 62
   250
370
    15
100
AcDbSpline
210
0.0
220
0.0
230
1.0
 70
    24
 71
     3
 72
     8
 73
     4
 74
     0
 42
0.0000000001
 43
0.0000000001
 40
0.0
 40
0.0
 40
0.0
 40
0.0
 40
1.0
 40
1.0
 40
1.0
 40
1.0
 10
-11.2075
 20
11.8979
 30
0.0
 10
-11.2075
 20
11.8979
 30
0.0
 10
-11.2075
 20
-2.7865
 30
0.0
 10
-11.2075
 20
-2.7865
 30
0.0
  0
SPLINE
  5
44
330
1F
100
AcDbEntity
  8
Ebene 1
 62
     8
370
    15
100
AcDbSpline
210
0.0
220
0.0
230
1.0
 70
    24
 71
     3
 72
     8
 73
     4
 74
     0
 42
0.0000000001
 43
0.0000000001
 40
0.0
 40
0.0
 40
0.0
 40
0.0
 40
1.0
 40
1.0
 40
1.0
 40
1.0
 10
9.0177
 20
-2.7865
 30
0.0
 10
9.0177
 20
-2.7865
 30
0.0
 10
-11.999
 20
-2.7865
 30
0.0
 10
-11.999
 20
-2.7865
 30
0.0
  0
SPLINE
  5
45
330
1F
100
AcDbEntity
  8
Ebene 1
 62
   250
370
    15
100
AcDbSpline
210
0.0
220
0.0
230
1.0
 70
    24
 71
     3
 72
     8
 73
     4
 74
     0
 42
0.0000000001
 43
0.0000000001
 40
0.0
 40
0.0
 40
0.0
 40
0.0
 40
1.0
 40
1.0
 40
1.0
 40
1.0
 10
2.4398
 20
11.8979
 30
0.0
 10
2.4398
 20
11.8979
 30
0.0
 10
-11.999
 20
11.8979
 30
0.0
 10
-11.999
 20
11.8979
 30
0.0
  0
SPLINE
  5
46
330
1F
100
AcDbEntity
  8
Ebene 1
 62
   250
370
    15
100
AcDbSpline
210
0.0
220
0.0
230
1.0
 70
    24
 71
     3
 72
     8
 73
     4
 74
     0
 42
0.0000000001
 43
0.0000000001
 40
0.0
 40
0.0
 40
0.0
 40
0.0
 40
1.0
 40
1.0
 40
1.0
 40
1.0
 10
-0.3103
 20
-2.7865
 30
0.0
 10
-0.3103
 20
-2.7865
 30
0.0
 10
-0.3103
 20
-12.0666
 30
0.0
 10
-0.3103
 20
-12.0666
 30
0.0
  0
SPLINE
  5
47
330
1F
100
AcDbEntity
  8
Ebene 1
 62
   250
370
    15
100
AcDbSpline
210
0.0
220
0.0
230
1.0
 70
    24
 71
     3
 72
     8
 73
     4
 74
     0
 42
0.0000000001
 43
0.0000000001
 40
0.0
 40
0.0
 40
0.0
 40
0.0
 40
1.0
 40
1.0
 40
1.0
 40
1.0
 10
-0.3103
 20
6.493600000000001
 30
0.0
 10
-0.3103
 20
6.493600000000001
 30
0.0
 10
-0.3103
 20
-2.7865
 30
0.0
 10
-0.3103
 20
-2.7865
 30
0.0
  0
SPLINE
  5
48
330
1F
100
AcDbEntity
  8
Ebene 1
 62
   250
370
    15
100
AcDbSpline
210
0.0
220
0.0
230
1.0
 70
    24
 71
     3
 72
     8
 73
     4
 74
     0
 42
0.0000000001
 43
0.0000000001
 40
0.0
 40
0.0
 40
0.0
 40
0.0
 40
1.0
 40
1.0
 40
1.0
 40
1.0
 10
-0.3103
 20
6.493600000000001
 30
0.0
 10
-0.3103
 20
6.493600000000001
 30
0.0
 10
-0.3103
 20
15.7736
 30
0.0
 10
-0.3103
 20
15.7736
 30
0.0
  0
SPLINE
  5
49
330
1F
100
AcDbEntity
  8
Ebene 1
 62
   250
370
    15
100
AcDbSpline
210
0.0
220
0.0
230
1.0
 70
    24
 71
     3
 72
     8
 73
     4
 74
     0
 42
0.0000000001
 43
0.0000000001
 40
0.0
 40
0.0
 40
0.0
 40
0.0
 40
1.0
 40
1.0
 40
1.0
 40
1.0
 10
9.0177
 20
-2.7865
 30
0.0
 10
9.0177
 20
-2.7865
 30
0.0
 10
-4.5477
 20
-2.7865
 30
0.0
 10
-4.5477
 20
-2.7865
 30
0.0
  0
SPLINE
  5
4A
330
1F
100
AcDbEntity
  8
Ebene 1
 62
   250
370
    15
100
AcDbSpline
210
0.0
220
0.0
230
1.0
 70
    24
 71
     3
 72
     8
 73
     4
 74
     0
 42
0.0000000001
 43
0.0000000001
 40
0.0
 40
0.0
 40
0.0
 40
0.0
 40
1.0
 40
1.0
 40
1.0
 40
1.0
 10
1.6755
 20
6.493600000000001
 30
0.0
 10
1.6755
 20
6.493600000000001
 30
0.0
 10
-1.9734
 20
6.493600000000001
 30
0.0
 10
-1.9734
 20
6.493600000000001
 30
0.0
  0
SPLINE
  5
4B
330
1F
100
AcDbEntity
  8
Ebene 1
100
AcDbSpline
210
0.0
220
0.0
230
1.0
 70
    11
 71
     3
 72
    16
 73
    12
 74
     0
 42
0.0000000001
 43
0.0000000001
 40
0.0
 40
0.0
 40
0.0
 40
0.0
 40
0.3333333333333333
 40
0.3333333333333333
 40
0.3333333333333333
 40
0.3333333333333333
 40
0.6666666666666666
 40
0.6666666666666666
 40
0.6666666666666666
 40
0.6666666666666666
 40
1.0
 40
1.0
 40
1.0
 40
1.0
 10
30.6895
 20
18.3832
 30
0.0
 10
30.6895
 20
18.3832
 30
0.0
 10
26.0494
 20
17.6735
 30
0.0
 10
26.0494
 20
17.6735
 30
0.0
 10
26.0494
 20
17.6735
 30
0.0
 10
26.0494
 20
17.6735
 30
0.0
 10
26.0494
 20
19.0655
 30
0.0
 10
26.0494
 20
19.0655
 30
0.0
 10
26.0494
 20
19.0655
 30
0.0
 10
26.0494
 20
19.0655
 30
0.0
 10
30.6895
 20
18.3832
 30
0.0
 10
30.6895
 20
18.3832
 30
0.0
  0
SPLINE
  5
4C
330
1F
100
AcDbEntity
  8
Ebene 1
 62
   250
100
AcDbSpline
210
0.0
220
0.0
230
1.0
 70
    11
 71
     3
 72
    16
 73
    12
 74
     0
 42
0.0000000001
 43
0.0000000001
 40
0.0
 40
0.0
 40
0.0
 40
0.0
 40
0.3333333333333333
 40
0.3333333333333333
 40
0.3333333333333333
 40
0.3333333333333333
 40
0.6666666666666666
 40
0.6666666666666666
 40
0.6666666666666666
 40
0.6666666666666666
 40
1.0
 40
1.0
 40
1.0
 40
1.0
 10
-11.2075
 20
-2.7865
 30
0.0
 10
-11.2075
 20
-2.7865
 30
0.0
 10
-11.9172
 20
1.8535
 30
0.0
 10
-11.9172
 20
1.8535
 30
0.0
 10
-11.9172
 20
1.8535
 30
0.0
 10
-11.9172
 20
1.8535
 30
0.0
 10
-10.5251
 20
1.8535
 30
0.0
 10
-10.5251
 20
1.8535
 30
0.0
 10
-10.5251
 20
1.8535
 30
0.0
 10
-10.5251
 20
1.8535
 30
0.0
 10
-11.2075
 20
-2.7865
 30
0.0
 10
-11.2075
 20
-2.7865
 30
0.0
  0
SPLINE
  5
4D
330
1F
100
AcDbEntity
  8
Ebene 1
370
    15
100
AcDbSpline
210
0.0
220
0.0
230
1.0
 70
    24
 71
     3
 72
     8
 73
     4
 74
     0
 42
0.0000000001
 43
0.0000000001
 40
0.0
 40
0.0
 40
0.0
 40
0.0
 40
1.0
 40
1.0
 40
1.0
 40
1.0
 10
19.5806
 20
10.3694
 30
0.0
 10
19.5806
 20
10.3694
 30
0.0
 10
21.1364
 20
11.8979
 30
0.0
 10
21.1364
 20
11.8979
 30
0.0
  0
SPLINE
  5
4E
330
1F
100
AcDbEntity
  8
Ebene 1
370
    15
100
AcDbSpline
210
0.0
220
0.0
230
1.0
 70
    24
 71
     3
 72
     8
 73
     4
 74
     0
 42
0.0000000001
 43
0.0000000001
 40
0.0
 40
0.0
 40
0.0
 40
0.0
 40
1.0
 40
1.0
 40
1.0
 40
1.0
 10
19.5806
 20
6.8757
 30
0.0
 10
19.5806
 20
6.8757
 30
0.0
 10
24.6028
 20
11.8979
 30
0.0
 10
24.6028
 20
11.8979
 30
0.0
  0
SPLINE
  5
4F
330
1F
100
AcDbEntity
  8
Ebene 1
370
    15
100
AcDbSpline
210
0.0
220
0.0
230
1.0
 70
    24
 71
     3
 72
     8
 73
     4
 74
     0
 42
0.0000000001
 43
0.0000000001
 40
0.0
 40
0.0
 40
0.0
 40
0.0
 40
1.0
 40
1.0
 40
1.0
 40
1.0
 10
25.7492
 20
9.5779
 30
0.0
 10
25.7492
 20
9.5779
 30
0.0
 10
28.0692
 20
11.8979
 30
0.0
 10
28.0692
 20
11.8979
 30
0.0
  0
SPLINE
  5
50
330
1F
100
AcDbEntity
  8
Ebene 1
370
    15
100
AcDbSpline
210
0.0
220
0.0
230
1.0
 70
    24
 71
     3
 72
     8
 73
     4
 74
     0
 42
0.0000000001
 43
0.0000000001
 40
0.0
 40
0.0
 40
0.0
 40
0.0
 40
1.0
 40
1.0
 40
1.0
 40
1.0
 10
19.5806
 20
3.4093
 30
0.0
 10
19.5806
 20
3.4093
 30
0.0
 10
24.1115
 20
7.940200000000001
 30
0.0
 10
24.1115
 20
7.940200000000001
 30
0.0
  0
SPLINE
  5
51
330
1F
100
AcDbEntity
  8
Ebene 1
370
    15
100
AcDbSpline
210
0.0
220
0.0
230
1.0
 70
    24
 71
     3
 72
     8
 73
     4
 74
     0
 42
0.0000000001
 43
0.0000000001
 40
0.0
 40
0.0
 40
0.0
 40
0.0
 40
1.0
 40
1.0
 40
1.0
 40
1.0
 10
28.3694
 20
8.7317
 30
0.0
 10
28.3694
 20
8.7317
 30
0.0
 10
30.6895
 20
11.0518
 30
0.0
 10
30.6895
 20
11.0518
 30
0.0
  0
SPLINE
  5
52
330
1F
100
AcDbEntity
  8
Ebene 1
370
    15
100
AcDbSpline
210
0.0
220
0.0
230
1.0
 70
    24
 71
     3
 72
     8
 73
     4
 74
     0
 42
0.0000000001
 43
0.0000000001
 40
0.0
 40
0.0
 40
0.0
 40
0.0
 40
1.0
 40
1.0
 40
1.0
 40
1.0
 10
20.5905
 20
0.9528000000000001
 30
0.0
 10
20.5905
 20
0.9528000000000001
 30
0.0
 10
24.1115
 20
4.4738
 30
0.0
 10
24.1115
 20
4.4738
 30
0.0
  0
SPLINE
  5
53
330
1F
100
AcDbEntity
  8
Ebene 1
370
    15
100
AcDbSpline
210
0.0
220
0.0
230
1.0
 70
    24
 71
     3
 72
     8
 73
     4
 74
     0
 42
0.0000000001
 43
0.0000000001
 40
0.0
 40
0.0
 40
0.0
 40
0.0
 40
1.0
 40
1.0
 40
1.0
 40
1.0
 10
29.5977
 20
6.493600000000001
 30
0.0
 10
29.5977
 20
6.493600000000001
 30
0.0
 10
30.6895
 20
7.558000000000001
 30
0.0
 10
30.6895
 20
7.558000000000001
 30
0.0
  0
SPLINE
  5
54
330
1F
100
AcDbEntity
  8
Ebene 1
370
    15
100
AcDbSpline
210
0.0
220
0.0
230
1.0
 70
    24
 71
     3
 72
     8
 73
     4
 74
     0
 42
0.0000000001
 43
0.0000000001
 40
0.0
 40
0.0
 40
0.0
 40
0.0
 40
1.0
 40
1.0
 40
1.0
 40
1.0
 10
20.8089
 20
-2.2952
 30
0.0
 10
20.8089
 20
-2.2952
 30
0.0
 10
24.1115
 20
0.9801000000000001
 30
0.0
 10
24.1115
 20
0.9801000000000001
 30
0.0
  0
SPLINE
  5
55
330
1F
100
AcDbEntity
  8
Ebene 1
370
    15
100
AcDbSpline
210
0.0
220
0.0
230
1.0
 70
    24
 71
     3
 72
     8
 73
     4
 74
     0
 42
0.0000000001
 43
0.0000000001
 40
0.0
 40
0.0
 40
0.0
 40
0.0
 40
1.0
 40
1.0
 40
1.0
 40
1.0
 10
2.4398
 20
10.5878
 30
0.0
 10
2.4398
 20
10.5878
 30
0.0
 10
3.7499
 20
11.8979
 30
0.0
 10
3.7499
 20
11.8979
 30
0.0
  0
SPLINE
  5
56
330
1F
100
AcDbEntity
  8
Ebene 1
370
    15
100
AcDbSpline
210
0.0
220
0.0
230
1.0
 70
    24
 71
     3
 72
     8
 73
     4
 74
     0
 42
0.0000000001
 43
0.0000000001
 40
0.0
 40
0.0
 40
0.0
 40
0.0
 40
1.0
 40
1.0
 40
1.0
 40
1.0
 10
4.8963
 20
9.5779
 30
0.0
 10
4.8963
 20
9.5779
 30
0.0
 10
7.2435
 20
11.8979
 30
0.0
 10
7.2435
 20
11.8979
 30
0.0
  0
SPLINE
  5
57
330
1F
100
AcDbEntity
  8
Ebene 1
370
    15
100
AcDbSpline
210
0.0
220
0.0
230
1.0
 70
    24
 71
     3
 72
     8
 73
     4
 74
     0
 42
0.0000000001
 43
0.0000000001
 40
0.0
 40
0.0
 40
0.0
 40
0.0
 40
1.0
 40
1.0
 40
1.0
 40
1.0
 10
2.4398
 20
7.1214
 30
0.0
 10
2.4398
 20
7.1214
 30
0.0
 10
4.7598
 20
9.4414
 30
0.0
 10
4.7598
 20
9.4414
 30
0.0
  0
SPLINE
  5
58
330
1F
100
AcDbEntity
  8
Ebene 1
370
    15
100
AcDbSpline
210
0.0
220
0.0
230
1.0
 70
    24
 71
     3
 72
     8
 73
     4
 74
     0
 42
0.0000000001
 43
0.0000000001
 40
0.0
 40
0.0
 40
0.0
 40
0.0
 40
1.0
 40
1.0
 40
1.0
 40
1.0
 10
8.362600000000001
 20
9.5779
 30
0.0
 10
8.362600000000001
 20
9.5779
 30
0.0
 10
10.7099
 20
11.8979
 30
0.0
 10
10.7099
 20
11.8979
 30
0.0
  0
SPLINE
  5
59
330
1F
100
AcDbEntity
  8
Ebene 1
370
    15
100
AcDbSpline
210
0.0
220
0.0
230
1.0
 70
    24
 71
     3
 72
     8
 73
     4
 74
     0
 42
0.0000000001
 43
0.0000000001
 40
0.0
 40
0.0
 40
0.0
 40
0.0
 40
1.0
 40
1.0
 40
1.0
 40
1.0
 10
9.0177
 20
6.7392
 30
0.0
 10
9.0177
 20
6.7392
 30
0.0
 10
13.5485
 20
11.2701
 30
0.0
 10
13.5485
 20
11.2701
 30
0.0
  0
SPLINE
  5
5A
330
1F
100
AcDbEntity
  8
Ebene 1
370
    15
100
AcDbSpline
210
0.0
220
0.0
230
1.0
 70
    24
 71
     3
 72
     8
 73
     4
 74
     0
 42
0.0000000001
 43
0.0000000001
 40
0.0
 40
0.0
 40
0.0
 40
0.0
 40
1.0
 40
1.0
 40
1.0
 40
1.0
 10
9.0177
 20
3.2728
 30
0.0
 10
9.0177
 20
3.2728
 30
0.0
 10
13.5485
 20
7.8037
 30
0.0
 10
13.5485
 20
7.8037
 30
0.0
  0
SPLINE
  5
5B
330
1F
100
AcDbEntity
  8
Ebene 1
370
    15
100
AcDbSpline
210
0.0
220
0.0
230
1.0
 70
    24
 71
     3
 72
     8
 73
     4
 74
     0
 42
0.0000000001
 43
0.0000000001
 40
0.0
 40
0.0
 40
0.0
 40
0.0
 40
1.0
 40
1.0
 40
1.0
 40
1.0
 10
12.6206
 20
3.382
 30
0.0
 10
12.6206
 20
3.382
 30
0.0
 10
13.5485
 20
4.3373
 30
0.0
 10
13.5485
 20
4.3373
 30
0.0
  0
SPLINE
  5
5C
330
1F
100
AcDbEntity
  8
Ebene 1
370
    15
100
AcDbSpline
210
0.0
220
0.0
230
1.0
 70
    24
 71
     3
 72
     8
 73
     4
 74
     0
 42
0.0000000001
 43
0.0000000001
 40
0.0
 40
0.0
 40
0.0
 40
0.0
 40
1.0
 40
1.0
 40
1.0
 40
1.0
 10
9.0177
 20
-0.1936
 30
0.0
 10
9.0177
 20
-0.1936
 30
0.0
 10
12.3203
 20
3.0818
 30
0.0
 10
12.3203
 20
3.0818
 30
0.0
  0
SPLINE
  5
5D
330
1F
100
AcDbEntity
  8
Ebene 1
370
    15
100
AcDbSpline
210
0.0
220
0.0
230
1.0
 70
    24
 71
     3
 72
     8
 73
     4
 74
     0
 42
0.0000000001
 43
0.0000000001
 40
0.0
 40
0.0
 40
0.0
 40
0.0
 40
1.0
 40
1.0
 40
1.0
 40
1.0
 10
9.8911
 20
-2.7865
 30
0.0
 10
9.8911
 20
-2.7865
 30
0.0
 10
12.5386
 20
-0.139
 30
0.0
 10
12.5386
 20
-0.139
 30
0.0
  0
SPLINE
  5
5E
330
1F
100
AcDbEntity
  8
Ebene 1
370
    15
100
AcDbSpline
210
0.0
220
0.0
230
1.0
 70
    24
 71
     3
 72
     8
 73
     4
 74
     0
 42
0.0000000001
 43
0.0000000001
 40
0.0
 40
0.0
 40
0.0
 40
0.0
 40
1.0
 40
1.0
 40
1.0
 40
1.0
 10
12.3203
 20
3.0818
 30
0.0
 10
12.3203
 20
3.0818
 30
0.0
 10
12.6206
 20
3.382
 30
0.0
 10
12.6206
 20
3.382
 30
0.0
  0
SPLINE
  5
5F
330
1F
100
AcDbEntity
  8
Ebene 1
370
    15
100
AcDbSpline
210
0.0
220
0.0
230
1.0
 70
    24
 71
     3
 72
     8
 73
     4
 74
     0
 42
0.0000000001
 43
0.0000000001
 40
0.0
 40
0.0
 40
0.0
 40
0.0
 40
1.0
 40
1.0
 40
1.0
 40
1.0
 10
12.5386
 20
-0.139
 30
0.0
 10
12.5386
 20
-0.139
 30
0.0
 10
13.9307
 20
1.2531
 30
0.0
 10
13.9307
 20
1.2531
 30
0.0
  0
SPLINE
  5
60
330
1F
100
AcDbEntity
  8
Ebene 1
370
    15
100
AcDbSpline
210
0.0
220
0.0
230
1.0
 70
    24
 71
     3
 72
     8
 73
     4
 74
     0
 42
0.0000000001
 43
0.0000000001
 40
0.0
 40
0.0
 40
0.0
 40
0.0
 40
1.0
 40
1.0
 40
1.0
 40
1.0
 10
19.1985
 20
-0.4392
 30
0.0
 10
19.1985
 20
-0.4392
 30
0.0
 10
20.5905
 20
0.9528000000000001
 30
0.0
 10
20.5905
 20
0.9528000000000001
 30
0.0
  0
SPLINE
  5
61
330
1F
100
AcDbEntity
  8
Ebene 1
370
    15
100
AcDbSpline
210
0.0
220
0.0
230
1.0
 70
    24
 71
     3
 72
     8
 73
     4
 74
     0
 42
0.0000000001
 43
0.0000000001
 40
0.0
 40
0.0
 40
0.0
 40
0.0
 40
1.0
 40
1.0
 40
1.0
 40
1.0
 10
20.3176
 20
-2.7865
 30
0.0
 10
20.3176
 20
-2.7865
 30
0.0
 10
20.8089
 20
-2.2952
 30
0.0
 10
20.8089
 20
-2.2952
 30
0.0
  0
SPLINE
  5
62
330
1F
100
AcDbEntity
  8
Ebene 1
370
    35
100
AcDbSpline
210
0.0
220
0.0
230
1.0
 70
    24
 71
     3
 72
     8
 73
     4
 74
     0
 42
0.0000000001
 43
0.0000000001
 40
0.0
 40
0.0
 40
0.0
 40
0.0
 40
1.0
 40
1.0
 40
1.0
 40
1.0
 10
20.6179
 20
-0.8486
 30
0.0
 10
20.6179
 20
-0.8486
 30
0.0
 10
20.6179
 20
-0.7941
 30
0.0
 10
20.6179
 20
-0.7941
 30
0.0
  0
SPLINE
  5
63
330
1F
100
AcDbEntity
  8
Ebene 1
370
    35
100
AcDbSpline
210
0.0
220
0.0
230
1.0
 70
    24
 71
     3
 72
     8
 73
     4
 74
     0
 42
0.0000000001
 43
0.0000000001
 40
0.0
 40
0.0
 40
0.0
 40
0.0
 40
1.0
 40
1.0
 40
1.0
 40
1.0
 10
12.3203
 20
1.6624
 30
0.0
 10
12.3203
 20
1.6624
 30
0.0
 10
12.3203
 20
3.382
 30
0.0
 10
12.3203
 20
3.382
 30
0.0
  0
SPLINE
  5
64
330
1F
100
AcDbEntity
  8
Ebene 1
370
    35
100
AcDbSpline
210
0.0
220
0.0
230
1.0
 70
    24
 71
     3
 72
     8
 73
     4
 74
     0
 42
0.0000000001
 43
0.0000000001
 40
0.0
 40
0.0
 40
0.0
 40
0.0
 40
1.0
 40
1.0
 40
1.0
 40
1.0
 10
12.3203
 20
3.382
 30
0.0
 10
12.3203
 20
3.382
 30
0.0
 10
13.1664
 20
3.382
 30
0.0
 10
13.1664
 20
3.382
 30
0.0
  0
SPLINE
  5
65
330
1F
100
AcDbEntity
  8
Ebene 1
370
    35
100
AcDbSpline
210
0.0
220
0.0
230
1.0
 70
    24
 71
     3
 72
     8
 73
     4
 74
     0
 42
0.0000000001
 43
0.0000000001
 40
0.0
 40
0.0
 40
0.0
 40
0.0
 40
1.0
 40
1.0
 40
1.0
 40
1.0
 10
13.9307
 20
2.6178
 30
0.0
 10
13.9307
 20
2.6178
 30
0.0
 10
13.1664
 20
3.382
 30
0.0
 10
13.1664
 20
3.382
 30
0.0
  0
SPLINE
  5
66
330
1F
100
AcDbEntity
  8
Ebene 1
370
    35
100
AcDbSpline
210
0.0
220
0.0
230
1.0
 70
    24
 71
     3
 72
     8
 73
     4
 74
     0
 42
0.0000000001
 43
0.0000000001
 40
0.0
 40
0.0
 40
0.0
 40
0.0
 40
1.0
 40
1.0
 40
1.0
 40
1.0
 10
13.9307
 20
2.6178
 30
0.0
 10
13.9307
 20
2.6178
 30
0.0
 10
13.9307
 20
-2.0223
 30
0.0
 10
13.9307
 20
-2.0223
 30
0.0
  0
SPLINE
  5
67
330
1F
100
AcDbEntity
  8
Ebene 1
370
    35
100
AcDbSpline
210
0.0
220
0.0
230
1.0
 70
    24
 71
     3
 72
     8
 73
     4
 74
     0
 42
0.0000000001
 43
0.0000000001
 40
0.0
 40
0.0
 40
0.0
 40
0.0
 40
1.0
 40
1.0
 40
1.0
 40
1.0
 10
13.1664
 20
-2.7865
 30
0.0
 10
13.1664
 20
-2.7865
 30
0.0
 10
13.9307
 20
-2.0223
 30
0.0
 10
13.9307
 20
-2.0223
 30
0.0
  0
SPLINE
  5
68
330
1F
100
AcDbEntity
  8
Ebene 1
370
    35
100
AcDbSpline
210
0.0
220
0.0
230
1.0
 70
    24
 71
     3
 72
     8
 73
     4
 74
     0
 42
0.0000000001
 43
0.0000000001
 40
0.0
 40
0.0
 40
0.0
 40
0.0
 40
1.0
 40
1.0
 40
1.0
 40
1.0
 10
12.3203
 20
-2.7865
 30
0.0
 10
12.3203
 20
-2.7865
 30
0.0
 10
13.1664
 20
-2.7865
 30
0.0
 10
13.1664
 20
-2.7865
 30
0.0
  0
SPLINE
  5
69
330
1F
100
AcDbEntity
  8
Ebene 1
370
    35
100
AcDbSpline
210
0.0
220
0.0
230
1.0
 70
    24
 71
     3
 72
     8
 73
     4
 74
     0
 42
0.0000000001
 43
0.0000000001
 40
0.0
 40
0.0
 40
0.0
 40
0.0
 40
1.0
 40
1.0
 40
1.0
 40
1.0
 10
12.3203
 20
-2.7865
 30
0.0
 10
12.3203
 20
-2.7865
 30
0.0
 10
12.3203
 20
-1.0669
 30
0.0
 10
12.3203
 20
-1.0669
 30
0.0
  0
SPLINE
  5
6A
330
1F
100
AcDbEntity
  8
Ebene 1
370
    35
100
AcDbSpline
210
0.0
220
0.0
230
1.0
 70
     8
 71
     3
 72
    36
 73
    32
 74
     0
 42
0.0000000001
 43
0.0000000001
 40
0.0
 40
0.0
 40
0.0
 40
0.0
 40
0.125
 40
0.125
 40
0.125
 40
0.125
 40
0.25
 40
0.25
 40
0.25
 40
0.25
 40
0.375
 40
0.375
 40
0.375
 40
0.375
 40
0.5
 40
0.5
 40
0.5
 40
0.5
 40
0.625
 40
0.625
 40
0.625
 40
0.625
 40
0.75
 40
0.75
 40
0.75
 40
0.75
 40
0.875
 40
0.875
 40
0.875
 40
0.875
 40
1.0
 40
1.0
 40
1.0
 40
1.0
 10
12.3203
 20
-1.0669
 30
0.0
 10
12.3203
 20
-1.0669
 30
0.0
 10
12.3476
 20
-1.0397
 30
0.0
 10
12.3476
 20
-1.0397
 30
0.0
 10
12.3476
 20
-1.0397
 30
0.0
 10
12.3476
 20
-1.0397
 30
0.0
 10
12.4022
 20
-0.9851000000000001
 30
0.0
 10
12.4022
 20
-0.9851000000000001
 30
0.0
 10
12.4022
 20
-0.9851000000000001
 30
0.0
 10
12.4022
 20
-0.9851000000000001
 30
0.0
 10
12.4568
 20
-0.9578000000000001
 30
0.0
 10
12.4568
 20
-0.9578000000000001
 30
0.0
 10
12.4568
 20
-0.9578000000000001
 30
0.0
 10
12.4568
 20
-0.9578000000000001
 30
0.0
 10
12.4841
 20
-0.9032
 30
0.0
 10
12.4841
 20
-0.9032
 30
0.0
 10
12.4841
 20
-0.9032
 30
0.0
 10
12.4841
 20
-0.9032
 30
0.0
 10
12.5114
 20
-0.8486
 30
0.0
 10
12.5114
 20
-0.8486
 30
0.0
 10
12.5114
 20
-0.8486
 30
0.0
 10
12.5114
 20
-0.8486
 30
0.0
 10
12.5386
 20
-0.7941
 30
0.0
 10
12.5386
 20
-0.7941
 30
0.0
 10
12.5386
 20
-0.7941
 30
0.0
 10
12.5386
 20
-0.7941
 30
0.0
 10
12.5386
 20
-0.7394000000000001
 30
0.0
 10
12.5386
 20
-0.7394000000000001
 30
0.0
 10
12.5386
 20
-0.7394000000000001
 30
0.0
 10
12.5386
 20
-0.7394000000000001
 30
0.0
 10
12.5386
 20
-0.6576000000000001
 30
0.0
 10
12.5386
 20
-0.6576000000000001
 30
0.0
  0
SPLINE
  5
6B
330
1F
100
AcDbEntity
  8
Ebene 1
370
    35
100
AcDbSpline
210
0.0
220
0.0
230
1.0
 70
    24
 71
     3
 72
     8
 73
     4
 74
     0
 42
0.0000000001
 43
0.0000000001
 40
0.0
 40
0.0
 40
0.0
 40
0.0
 40
1.0
 40
1.0
 40
1.0
 40
1.0
 10
12.5386
 20
1.2803
 30
0.0
 10
12.5386
 20
1.2803
 30
0.0
 10
12.5386
 20
-0.6576000000000001
 30
0.0
 10
12.5386
 20
-0.6576000000000001
 30
0.0
  0
SPLINE
  5
6C
330
1F
100
AcDbEntity
  8
Ebene 1
370
    35
100
AcDbSpline
210
0.0
220
0.0
230
1.0
 70
     8
 71
     3
 72
    36
 73
    32
 74
     0
 42
0.0000000001
 43
0.0000000001
 40
0.0
 40
0.0
 40
0.0
 40
0.0
 40
0.125
 40
0.125
 40
0.125
 40
0.125
 40
0.25
 40
0.25
 40
0.25
 40
0.25
 40
0.375
 40
0.375
 40
0.375
 40
0.375
 40
0.5
 40
0.5
 40
0.5
 40
0.5
 40
0.625
 40
0.625
 40
0.625
 40
0.625
 40
0.75
 40
0.75
 40
0.75
 40
0.75
 40
0.875
 40
0.875
 40
0.875
 40
0.875
 40
1.0
 40
1.0
 40
1.0
 40
1.0
 10
12.5386
 20
1.2803
 30
0.0
 10
12.5386
 20
1.2803
 30
0.0
 10
12.5386
 20
1.3349
 30
0.0
 10
12.5386
 20
1.3349
 30
0.0
 10
12.5386
 20
1.3349
 30
0.0
 10
12.5386
 20
1.3349
 30
0.0
 10
12.5386
 20
1.3896
 30
0.0
 10
12.5386
 20
1.3896
 30
0.0
 10
12.5386
 20
1.3896
 30
0.0
 10
12.5386
 20
1.3896
 30
0.0
 10
12.5114
 20
1.4441
 30
0.0
 10
12.5114
 20
1.4441
 30
0.0
 10
12.5114
 20
1.4441
 30
0.0
 10
12.5114
 20
1.4441
 30
0.0
 10
12.4841
 20
1.4987
 30
0.0
 10
12.4841
 20
1.4987
 30
0.0
 10
12.4841
 20
1.4987
 30
0.0
 10
12.4841
 20
1.4987
 30
0.0
 10
12.4568
 20
1.5533
 30
0.0
 10
12.4568
 20
1.5533
 30
0.0
 10
12.4568
 20
1.5533
 30
0.0
 10
12.4568
 20
1.5533
 30
0.0
 10
12.4022
 20
1.6079
 30
0.0
 10
12.4022
 20
1.6079
 30
0.0
 10
12.4022
 20
1.6079
 30
0.0
 10
12.4022
 20
1.6079
 30
0.0
 10
12.3476
 20
1.6352
 30
0.0
 10
12.3476
 20
1.6352
 30
0.0
 10
12.3476
 20
1.6352
 30
0.0
 10
12.3476
 20
1.6352
 30
0.0
 10
12.3203
 20
1.6624
 30
0.0
 10
12.3203
 20
1.6624
 30
0.0
  0
SPLINE
  5
6D
330
1F
100
AcDbEntity
  8
Ebene 1
370
    35
100
AcDbSpline
210
0.0
220
0.0
230
1.0
 70
    24
 71
     3
 72
     8
 73
     4
 74
     0
 42
0.0000000001
 43
0.0000000001
 40
0.0
 40
0.0
 40
0.0
 40
0.0
 40
1.0
 40
1.0
 40
1.0
 40
1.0
 10
20.5905
 20
-0.6576000000000001
 30
0.0
 10
20.5905
 20
-0.6576000000000001
 30
0.0
 10
20.5905
 20
1.2803
 30
0.0
 10
20.5905
 20
1.2803
 30
0.0
  0
SPLINE
  5
6E
330
1F
100
AcDbEntity
  8
Ebene 1
370
    35
100
AcDbSpline
210
0.0
220
0.0
230
1.0
 70
    24
 71
     3
 72
     8
 73
     4
 74
     0
 42
0.0000000001
 43
0.0000000001
 40
0.0
 40
0.0
 40
0.0
 40
0.0
 40
1.0
 40
1.0
 40
1.0
 40
1.0
 10
20.8089
 20
-1.0669
 30
0.0
 10
20.8089
 20
-1.0669
 30
0.0
 10
20.8089
 20
-2.7865
 30
0.0
 10
20.8089
 20
-2.7865
 30
0.0
  0
SPLINE
  5
6F
330
1F
100
AcDbEntity
  8
Ebene 1
370
    35
100
AcDbSpline
210
0.0
220
0.0
230
1.0
 70
    24
 71
     3
 72
     8
 73
     4
 74
     0
 42
0.0000000001
 43
0.0000000001
 40
0.0
 40
0.0
 40
0.0
 40
0.0
 40
1.0
 40
1.0
 40
1.0
 40
1.0
 10
19.9628
 20
-2.7865
 30
0.0
 10
19.9628
 20
-2.7865
 30
0.0
 10
20.8089
 20
-2.7865
 30
0.0
 10
20.8089
 20
-2.7865
 30
0.0
  0
SPLINE
  5
70
330
1F
100
AcDbEntity
  8
Ebene 1
370
    35
100
AcDbSpline
210
0.0
220
0.0
230
1.0
 70
    24
 71
     3
 72
     8
 73
     4
 74
     0
 42
0.0000000001
 43
0.0000000001
 40
0.0
 40
0.0
 40
0.0
 40
0.0
 40
1.0
 40
1.0
 40
1.0
 40
1.0
 10
19.1985
 20
-2.0223
 30
0.0
 10
19.1985
 20
-2.0223
 30
0.0
 10
19.9628
 20
-2.7865
 30
0.0
 10
19.9628
 20
-2.7865
 30
0.0
  0
SPLINE
  5
71
330
1F
100
AcDbEntity
  8
Ebene 1
370
    35
100
AcDbSpline
210
0.0
220
0.0
230
1.0
 70
    24
 71
     3
 72
     8
 73
     4
 74
     0
 42
0.0000000001
 43
0.0000000001
 40
0.0
 40
0.0
 40
0.0
 40
0.0
 40
1.0
 40
1.0
 40
1.0
 40
1.0
 10
19.1985
 20
-2.0223
 30
0.0
 10
19.1985
 20
-2.0223
 30
0.0
 10
19.1985
 20
2.6178
 30
0.0
 10
19.1985
 20
2.6178
 30
0.0
  0
SPLINE
  5
72
330
1F
100
AcDbEntity
  8
Ebene 1
370
    35
100
AcDbSpline
210
0.0
220
0.0
230
1.0
 70
    24
 71
     3
 72
     8
 73
     4
 74
     0
 42
0.0000000001
 43
0.0000000001
 40
0.0
 40
0.0
 40
0.0
 40
0.0
 40
1.0
 40
1.0
 40
1.0
 40
1.0
 10
19.9628
 20
3.382
 30
0.0
 10
19.9628
 20
3.382
 30
0.0
 10
19.1985
 20
2.6178
 30
0.0
 10
19.1985
 20
2.6178
 30
0.0
  0
SPLINE
  5
73
330
1F
100
AcDbEntity
  8
Ebene 1
370
    35
100
AcDbSpline
210
0.0
220
0.0
230
1.0
 70
    24
 71
     3
 72
     8
 73
     4
 74
     0
 42
0.0000000001
 43
0.0000000001
 40
0.0
 40
0.0
 40
0.0
 40
0.0
 40
1.0
 40
1.0
 40
1.0
 40
1.0
 10
19.9628
 20
3.382
 30
0.0
 10
19.9628
 20
3.382
 30
0.0
 10
20.8089
 20
3.382
 30
0.0
 10
20.8089
 20
3.382
 30
0.0
  0
SPLINE
  5
74
330
1F
100
AcDbEntity
  8
Ebene 1
370
    35
100
AcDbSpline
210
0.0
220
0.0
230
1.0
 70
    24
 71
     3
 72
     8
 73
     4
 74
     0
 42
0.0000000001
 43
0.0000000001
 40
0.0
 40
0.0
 40
0.0
 40
0.0
 40
1.0
 40
1.0
 40
1.0
 40
1.0
 10
20.8089
 20
3.382
 30
0.0
 10
20.8089
 20
3.382
 30
0.0
 10
20.8089
 20
1.6624
 30
0.0
 10
20.8089
 20
1.6624
 30
0.0
  0
SPLINE
  5
75
330
1F
100
AcDbEntity
  8
Ebene 1
370
    35
100
AcDbSpline
210
0.0
220
0.0
230
1.0
 70
     8
 71
     3
 72
    36
 73
    32
 74
     0
 42
0.0000000001
 43
0.0000000001
 40
0.0
 40
0.0
 40
0.0
 40
0.0
 40
0.125
 40
0.125
 40
0.125
 40
0.125
 40
0.25
 40
0.25
 40
0.25
 40
0.25
 40
0.375
 40
0.375
 40
0.375
 40
0.375
 40
0.5
 40
0.5
 40
0.5
 40
0.5
 40
0.625
 40
0.625
 40
0.625
 40
0.625
 40
0.75
 40
0.75
 40
0.75
 40
0.75
 40
0.875
 40
0.875
 40
0.875
 40
0.875
 40
1.0
 40
1.0
 40
1.0
 40
1.0
 10
20.8089
 20
1.6624
 30
0.0
 10
20.8089
 20
1.6624
 30
0.0
 10
20.7816
 20
1.6352
 30
0.0
 10
20.7816
 20
1.6352
 30
0.0
 10
20.7816
 20
1.6352
 30
0.0
 10
20.7816
 20
1.6352
 30
0.0
 10
20.727
 20
1.6079
 30
0.0
 10
20.727
 20
1.6079
 30
0.0
 10
20.727
 20
1.6079
 30
0.0
 10
20.727
 20
1.6079
 30
0.0
 10
20.6724
 20
1.5533
 30
0.0
 10
20.6724
 20
1.5533
 30
0.0
 10
20.6724
 20
1.5533
 30
0.0
 10
20.6724
 20
1.5533
 30
0.0
 10
20.6451
 20
1.4987
 30
0.0
 10
20.6451
 20
1.4987
 30
0.0
 10
20.6451
 20
1.4987
 30
0.0
 10
20.6451
 20
1.4987
 30
0.0
 10
20.6179
 20
1.4441
 30
0.0
 10
20.6179
 20
1.4441
 30
0.0
 10
20.6179
 20
1.4441
 30
0.0
 10
20.6179
 20
1.4441
 30
0.0
 10
20.6179
 20
1.3896
 30
0.0
 10
20.6179
 20
1.3896
 30
0.0
 10
20.6179
 20
1.3896
 30
0.0
 10
20.6179
 20
1.3896
 30
0.0
 10
20.5905
 20
1.3349
 30
0.0
 10
20.5905
 20
1.3349
 30
0.0
 10
20.5905
 20
1.3349
 30
0.0
 10
20.5905
 20
1.3349
 30
0.0
 10
20.5905
 20
1.2803
 30
0.0
 10
20.5905
 20
1.2803
 30
0.0
  0
SPLINE
  5
76
330
1F
100
AcDbEntity
  8
Ebene 1
370
    35
100
AcDbSpline
210
0.0
220
0.0
230
1.0
 70
     8
 71
     3
 72
    36
 73
    32
 74
     0
 42
0.0000000001
 43
0.0000000001
 40
0.0
 40
0.0
 40
0.0
 40
0.0
 40
0.125
 40
0.125
 40
0.125
 40
0.125
 40
0.25
 40
0.25
 40
0.25
 40
0.25
 40
0.375
 40
0.375
 40
0.375
 40
0.375
 40
0.5
 40
0.5
 40
0.5
 40
0.5
 40
0.625
 40
0.625
 40
0.625
 40
0.625
 40
0.75
 40
0.75
 40
0.75
 40
0.75
 40
0.875
 40
0.875
 40
0.875
 40
0.875
 40
1.0
 40
1.0
 40
1.0
 40
1.0
 10
20.5905
 20
-0.6576000000000001
 30
0.0
 10
20.5905
 20
-0.6576000000000001
 30
0.0
 10
20.5905
 20
-0.7394000000000001
 30
0.0
 10
20.5905
 20
-0.7394000000000001
 30
0.0
 10
20.5905
 20
-0.7394000000000001
 30
0.0
 10
20.5905
 20
-0.7394000000000001
 30
0.0
 10
20.6179
 20
-0.7941
 30
0.0
 10
20.6179
 20
-0.7941
 30
0.0
 10
20.6179
 20
-0.7941
 30
0.0
 10
20.6179
 20
-0.7941
 30
0.0
 10
20.6179
 20
-0.8486
 30
0.0
 10
20.6179
 20
-0.8486
 30
0.0
 10
20.6179
 20
-0.8486
 30
0.0
 10
20.6179
 20
-0.8486
 30
0.0
 10
20.6451
 20
-0.9032
 30
0.0
 10
20.6451
 20
-0.9032
 30
0.0
 10
20.6451
 20
-0.9032
 30
0.0
 10
20.6451
 20
-0.9032
 30
0.0
 10
20.6724
 20
-0.9578000000000001
 30
0.0
 10
20.6724
 20
-0.9578000000000001
 30
0.0
 10
20.6724
 20
-0.9578000000000001
 30
0.0
 10
20.6724
 20
-0.9578000000000001
 30
0.0
 10
20.727
 20
-0.9851000000000001
 30
0.0
 10
20.727
 20
-0.9851000000000001
 30
0.0
 10
20.727
 20
-0.9851000000000001
 30
0.0
 10
20.727
 20
-0.9851000000000001
 30
0.0
 10
20.7816
 20
-1.0397
 30
0.0
 10
20.7816
 20
-1.0397
 30
0.0
 10
20.7816
 20
-1.0397
 30
0.0
 10
20.7816
 20
-1.0397
 30
0.0
 10
20.8089
 20
-1.0669
 30
0.0
 10
20.8089
 20
-1.0669
 30
0.0
  0
SPLINE
  5
77
330
1F
100
AcDbEntity
  8
Ebene 1
370
    35
100
AcDbSpline
210
0.0
220
0.0
230
1.0
 70
    24
 71
     3
 72
   100
 73
    96
 74
     0
 42
0.0000000001
 43
0.0000000001
 40
0.0
 40
0.0
 40
0.0
 40
0.0
 40
0.0416666666666667
 40
0.0416666666666667
 40
0.0416666666666667
 40
0.0416666666666667
 40
0.0833333333333333
 40
0.0833333333333333
 40
0.0833333333333333
 40
0.0833333333333333
 40
0.125
 40
0.125
 40
0.125
 40
0.125
 40
0.1666666666666667
 40
0.1666666666666667
 40
0.1666666666666667
 40
0.1666666666666667
 40
0.2083333333333333
 40
0.2083333333333333
 40
0.2083333333333333
 40
0.2083333333333333
 40
0.25
 40
0.25
 40
0.25
 40
0.25
 40
0.2916666666666666
 40
0.2916666666666666
 40
0.2916666666666666
 40
0.2916666666666666
 40
0.3333333333333333
 40
0.3333333333333333
 40
0.3333333333333333
 40
0.3333333333333333
 40
0.375
 40
0.375
 40
0.375
 40
0.375
 40
0.4166666666666667
 40
0.4166666666666667
 40
0.4166666666666667
 40
0.4166666666666667
 40
0.4583333333333334
 40
0.4583333333333334
 40
0.4583333333333334
 40
0.4583333333333334
 40
0.5
 40
0.5
 40
0.5
 40
0.5
 40
0.5416666666666666
 40
0.5416666666666666
 40
0.5416666666666666
 40
0.5416666666666666
 40
0.5833333333333333
 40
0.5833333333333333
 40
0.5833333333333333
 40
0.5833333333333333
 40
0.6249999999999999
 40
0.6249999999999999
 40
0.6249999999999999
 40
0.6249999999999999
 40
0.6666666666666665
 40
0.6666666666666665
 40
0.6666666666666665
 40
0.6666666666666665
 40
0.7083333333333332
 40
0.7083333333333332
 40
0.7083333333333332
 40
0.7083333333333332
 40
0.7499999999999998
 40
0.7499999999999998
 40
0.7499999999999998
 40
0.7499999999999998
 40
0.7916666666666664
 40
0.7916666666666664
 40
0.7916666666666664
 40
0.7916666666666664
 40
0.833333333333333
 40
0.833333333333333
 40
0.833333333333333
 40
0.833333333333333
 40
0.8749999999999997
 40
0.8749999999999997
 40
0.8749999999999997
 40
0.8749999999999997
 40
0.9166666666666663
 40
0.9166666666666663
 40
0.9166666666666663
 40
0.9166666666666663
 40
0.9583333333333329
 40
0.9583333333333329
 40
0.9583333333333329
 40
0.9583333333333329
 40
1.0
 40
1.0
 40
1.0
 40
1.0
 10
13.9307
 20
-2.0223
 30
0.0
 10
13.9307
 20
-2.0223
 30
0.0
 10
13.958
 20
-2.0223
 30
0.0
 10
13.958
 20
-2.0223
 30
0.0
 10
13.958
 20
-2.0223
 30
0.0
 10
13.958
 20
-2.0223
 30
0.0
 10
14.0125
 20
-2.0223
 30
0.0
 10
14.0125
 20
-2.0223
 30
0.0
 10
14.0125
 20
-2.0223
 30
0.0
 10
14.0125
 20
-2.0223
 30
0.0
 10
14.149
 20
-2.0223
 30
0.0
 10
14.149
 20
-2.0223
 30
0.0
 10
14.149
 20
-2.0223
 30
0.0
 10
14.149
 20
-2.0223
 30
0.0
 10
14.2855
 20
-2.0223
 30
0.0
 10
14.2855
 20
-2.0223
 30
0.0
 10
14.2855
 20
-2.0223
 30
0.0
 10
14.2855
 20
-2.0223
 30
0.0
 10
14.4766
 20
-2.0223
 30
0.0
 10
14.4766
 20
-2.0223
 30
0.0
 10
14.4766
 20
-2.0223
 30
0.0
 10
14.4766
 20
-2.0223
 30
0.0
 10
14.6949
 20
-2.0223
 30
0.0
 10
14.6949
 20
-2.0223
 30
0.0
 10
14.6949
 20
-2.0223
 30
0.0
 10
14.6949
 20
-2.0223
 30
0.0
 10
14.9679
 20
-2.0223
 30
0.0
 10
14.9679
 20
-2.0223
 30
0.0
 10
14.9679
 20
-2.0223
 30
0.0
 10
14.9679
 20
-2.0223
 30
0.0
 10
15.2408
 20
-2.0223
 30
0.0
 10
15.2408
 20
-2.0223
 30
0.0
 10
15.2408
 20
-2.0223
 30
0.0
 10
15.2408
 20
-2.0223
 30
0.0
 10
15.5684
 20
-2.0223
 30
0.0
 10
15.5684
 20
-2.0223
 30
0.0
 10
15.5684
 20
-2.0223
 30
0.0
 10
15.5684
 20
-2.0223
 30
0.0
 10
15.8959
 20
-2.0223
 30
0.0
 10
15.8959
 20
-2.0223
 30
0.0
 10
15.8959
 20
-2.0223
 30
0.0
 10
15.8959
 20
-2.0223
 30
0.0
 10
16.2234
 20
-2.0223
 30
0.0
 10
16.2234
 20
-2.0223
 30
0.0
 10
16.2234
 20
-2.0223
 30
0.0
 10
16.2234
 20
-2.0223
 30
0.0
 10
16.5782
 20
-2.0223
 30
0.0
 10
16.5782
 20
-2.0223
 30
0.0
 10
16.5782
 20
-2.0223
 30
0.0
 10
16.5782
 20
-2.0223
 30
0.0
 10
16.9058
 20
-2.0223
 30
0.0
 10
16.9058
 20
-2.0223
 30
0.0
 10
16.9058
 20
-2.0223
 30
0.0
 10
16.9058
 20
-2.0223
 30
0.0
 10
17.2333
 20
-2.0223
 30
0.0
 10
17.2333
 20
-2.0223
 30
0.0
 10
17.2333
 20
-2.0223
 30
0.0
 10
17.2333
 20
-2.0223
 30
0.0
 10
17.5608
 20
-2.0223
 30
0.0
 10
17.5608
 20
-2.0223
 30
0.0
 10
17.5608
 20
-2.0223
 30
0.0
 10
17.5608
 20
-2.0223
 30
0.0
 10
17.8884
 20
-2.0223
 30
0.0
 10
17.8884
 20
-2.0223
 30
0.0
 10
17.8884
 20
-2.0223
 30
0.0
 10
17.8884
 20
-2.0223
 30
0.0
 10
18.1614
 20
-2.0223
 30
0.0
 10
18.1614
 20
-2.0223
 30
0.0
 10
18.1614
 20
-2.0223
 30
0.0
 10
18.1614
 20
-2.0223
 30
0.0
 10
18.4342
 20
-2.0223
 30
0.0
 10
18.4342
 20
-2.0223
 30
0.0
 10
18.4342
 20
-2.0223
 30
0.0
 10
18.4342
 20
-2.0223
 30
0.0
 10
18.6527
 20
-2.0223
 30
0.0
 10
18.6527
 20
-2.0223
 30
0.0
 10
18.6527
 20
-2.0223
 30
0.0
 10
18.6527
 20
-2.0223
 30
0.0
 10
18.8437
 20
-2.0223
 30
0.0
 10
18.8437
 20
-2.0223
 30
0.0
 10
18.8437
 20
-2.0223
 30
0.0
 10
18.8437
 20
-2.0223
 30
0.0
 10
19.0075
 20
-2.0223
 30
0.0
 10
19.0075
 20
-2.0223
 30
0.0
 10
19.0075
 20
-2.0223
 30
0.0
 10
19.0075
 20
-2.0223
 30
0.0
 10
19.1166
 20
-2.0223
 30
0.0
 10
19.1166
 20
-2.0223
 30
0.0
 10
19.1166
 20
-2.0223
 30
0.0
 10
19.1166
 20
-2.0223
 30
0.0
 10
19.1712
 20
-2.0223
 30
0.0
 10
19.1712
 20
-2.0223
 30
0.0
 10
19.1712
 20
-2.0223
 30
0.0
 10
19.1712
 20
-2.0223
 30
0.0
 10
19.1985
 20
-2.0223
 30
0.0
 10
19.1985
 20
-2.0223
 30
0.0
  0
SPLINE
  5
78
330
1F
100
AcDbEntity
  8
Ebene 1
370
    35
100
AcDbSpline
210
0.0
220
0.0
230
1.0
 70
    24
 71
     3
 72
   116
 73
   112
 74
     0
 42
0.0000000001
 43
0.0000000001
 40
0.0
 40
0.0
 40
0.0
 40
0.0
 40
0.0357142857142857
 40
0.0357142857142857
 40
0.0357142857142857
 40
0.0357142857142857
 40
0.0714285714285714
 40
0.0714285714285714
 40
0.0714285714285714
 40
0.0714285714285714
 40
0.1071428571428571
 40
0.1071428571428571
 40
0.1071428571428571
 40
0.1071428571428571
 40
0.1428571428571429
 40
0.1428571428571429
 40
0.1428571428571429
 40
0.1428571428571429
 40
0.1785714285714286
 40
0.1785714285714286
 40
0.1785714285714286
 40
0.1785714285714286
 40
0.2142857142857143
 40
0.2142857142857143
 40
0.2142857142857143
 40
0.2142857142857143
 40
0.2499999999999999
 40
0.2499999999999999
 40
0.2499999999999999
 40
0.2499999999999999
 40
0.2857142857142856
 40
0.2857142857142856
 40
0.2857142857142856
 40
0.2857142857142856
 40
0.3214285714285713
 40
0.3214285714285713
 40
0.3214285714285713
 40
0.3214285714285713
 40
0.357142857142857
 40
0.357142857142857
 40
0.357142857142857
 40
0.357142857142857
 40
0.3928571428571427
 40
0.3928571428571427
 40
0.3928571428571427
 40
0.3928571428571427
 40
0.4285714285714284
 40
0.4285714285714284
 40
0.4285714285714284
 40
0.4285714285714284
 40
0.4642857142857141
 40
0.4642857142857141
 40
0.4642857142857141
 40
0.4642857142857141
 40
0.4999999999999998
 40
0.4999999999999998
 40
0.4999999999999998
 40
0.4999999999999998
 40
0.5357142857142856
 40
0.5357142857142856
 40
0.5357142857142856
 40
0.5357142857142856
 40
0.5714285714285713
 40
0.5714285714285713
 40
0.5714285714285713
 40
0.5714285714285713
 40
0.607142857142857
 40
0.607142857142857
 40
0.607142857142857
 40
0.607142857142857
 40
0.6428571428571427
 40
0.6428571428571427
 40
0.6428571428571427
 40
0.6428571428571427
 40
0.6785714285714284
 40
0.6785714285714284
 40
0.6785714285714284
 40
0.6785714285714284
 40
0.7142857142857141
 40
0.7142857142857141
 40
0.7142857142857141
 40
0.7142857142857141
 40
0.7499999999999998
 40
0.7499999999999998
 40
0.7499999999999998
 40
0.7499999999999998
 40
0.7857142857142855
 40
0.7857142857142855
 40
0.7857142857142855
 40
0.7857142857142855
 40
0.8214285714285712
 40
0.8214285714285712
 40
0.8214285714285712
 40
0.8214285714285712
 40
0.8571428571428569
 40
0.8571428571428569
 40
0.8571428571428569
 40
0.8571428571428569
 40
0.8928571428571426
 40
0.8928571428571426
 40
0.8928571428571426
 40
0.8928571428571426
 40
0.9285714285714283
 40
0.9285714285714283
 40
0.9285714285714283
 40
0.9285714285714283
 40
0.964285714285714
 40
0.964285714285714
 40
0.964285714285714
 40
0.964285714285714
 40
1.0
 40
1.0
 40
1.0
 40
1.0
 10
19.9628
 20
-2.7865
 30
0.0
 10
19.9628
 20
-2.7865
 30
0.0
 10
19.9354
 20
-2.7865
 30
0.0
 10
19.9354
 20
-2.7865
 30
0.0
 10
19.9354
 20
-2.7865
 30
0.0
 10
19.9354
 20
-2.7865
 30
0.0
 10
19.8809
 20
-2.7865
 30
0.0
 10
19.8809
 20
-2.7865
 30
0.0
 10
19.8809
 20
-2.7865
 30
0.0
 10
19.8809
 20
-2.7865
 30
0.0
 10
19.7717
 20
-2.7865
 30
0.0
 10
19.7717
 20
-2.7865
 30
0.0
 10
19.7717
 20
-2.7865
 30
0.0
 10
19.7717
 20
-2.7865
 30
0.0
 10
19.6353
 20
-2.7865
 30
0.0
 10
19.6353
 20
-2.7865
 30
0.0
 10
19.6353
 20
-2.7865
 30
0.0
 10
19.6353
 20
-2.7865
 30
0.0
 10
19.4441
 20
-2.7865
 30
0.0
 10
19.4441
 20
-2.7865
 30
0.0
 10
19.4441
 20
-2.7865
 30
0.0
 10
19.4441
 20
-2.7865
 30
0.0
 10
19.2258
 20
-2.7865
 30
0.0
 10
19.2258
 20
-2.7865
 30
0.0
 10
19.2258
 20
-2.7865
 30
0.0
 10
19.2258
 20
-2.7865
 30
0.0
 10
18.9802
 20
-2.7865
 30
0.0
 10
18.9802
 20
-2.7865
 30
0.0
 10
18.9802
 20
-2.7865
 30
0.0
 10
18.9802
 20
-2.7865
 30
0.0
 10
18.6799
 20
-2.7865
 30
0.0
 10
18.6799
 20
-2.7865
 30
0.0
 10
18.6799
 20
-2.7865
 30
0.0
 10
18.6799
 20
-2.7865
 30
0.0
 10
18.3797
 20
-2.7865
 30
0.0
 10
18.3797
 20
-2.7865
 30
0.0
 10
18.3797
 20
-2.7865
 30
0.0
 10
18.3797
 20
-2.7865
 30
0.0
 10
18.0521
 20
-2.7865
 30
0.0
 10
18.0521
 20
-2.7865
 30
0.0
 10
18.0521
 20
-2.7865
 30
0.0
 10
18.0521
 20
-2.7865
 30
0.0
 10
17.6973
 20
-2.7865
 30
0.0
 10
17.6973
 20
-2.7865
 30
0.0
 10
17.6973
 20
-2.7865
 30
0.0
 10
17.6973
 20
-2.7865
 30
0.0
 10
17.3152
 20
-2.7865
 30
0.0
 10
17.3152
 20
-2.7865
 30
0.0
 10
17.3152
 20
-2.7865
 30
0.0
 10
17.3152
 20
-2.7865
 30
0.0
 10
16.9603
 20
-2.7865
 30
0.0
 10
16.9603
 20
-2.7865
 30
0.0
 10
16.9603
 20
-2.7865
 30
0.0
 10
16.9603
 20
-2.7865
 30
0.0
 10
16.5782
 20
-2.7865
 30
0.0
 10
16.5782
 20
-2.7865
 30
0.0
 10
16.5782
 20
-2.7865
 30
0.0
 10
16.5782
 20
-2.7865
 30
0.0
 10
16.1962
 20
-2.7865
 30
0.0
 10
16.1962
 20
-2.7865
 30
0.0
 10
16.1962
 20
-2.7865
 30
0.0
 10
16.1962
 20
-2.7865
 30
0.0
 10
15.814
 20
-2.7865
 30
0.0
 10
15.814
 20
-2.7865
 30
0.0
 10
15.814
 20
-2.7865
 30
0.0
 10
15.814
 20
-2.7865
 30
0.0
 10
15.4319
 20
-2.7865
 30
0.0
 10
15.4319
 20
-2.7865
 30
0.0
 10
15.4319
 20
-2.7865
 30
0.0
 10
15.4319
 20
-2.7865
 30
0.0
 10
15.0771
 20
-2.7865
 30
0.0
 10
15.0771
 20
-2.7865
 30
0.0
 10
15.0771
 20
-2.7865
 30
0.0
 10
15.0771
 20
-2.7865
 30
0.0
 10
14.7495
 20
-2.7865
 30
0.0
 10
14.7495
 20
-2.7865
 30
0.0
 10
14.7495
 20
-2.7865
 30
0.0
 10
14.7495
 20
-2.7865
 30
0.0
 10
14.4493
 20
-2.7865
 30
0.0
 10
14.4493
 20
-2.7865
 30
0.0
 10
14.4493
 20
-2.7865
 30
0.0
 10
14.4493
 20
-2.7865
 30
0.0
 10
14.149
 20
-2.7865
 30
0.0
 10
14.149
 20
-2.7865
 30
0.0
 10
14.149
 20
-2.7865
 30
0.0
 10
14.149
 20
-2.7865
 30
0.0
 10
13.9034
 20
-2.7865
 30
0.0
 10
13.9034
 20
-2.7865
 30
0.0
 10
13.9034
 20
-2.7865
 30
0.0
 10
13.9034
 20
-2.7865
 30
0.0
 10
13.685
 20
-2.7865
 30
0.0
 10
13.685
 20
-2.7865
 30
0.0
 10
13.685
 20
-2.7865
 30
0.0
 10
13.685
 20
-2.7865
 30
0.0
 10
13.494
 20
-2.7865
 30
0.0
 10
13.494
 20
-2.7865
 30
0.0
 10
13.494
 20
-2.7865
 30
0.0
 10
13.494
 20
-2.7865
 30
0.0
 10
13.3575
 20
-2.7865
 30
0.0
 10
13.3575
 20
-2.7865
 30
0.0
 10
13.3575
 20
-2.7865
 30
0.0
 10
13.3575
 20
-2.7865
 30
0.0
 10
13.2484
 20
-2.7865
 30
0.0
 10
13.2484
 20
-2.7865
 30
0.0
 10
13.2484
 20
-2.7865
 30
0.0
 10
13.2484
 20
-2.7865
 30
0.0
 10
13.1937
 20
-2.7865
 30
0.0
 10
13.1937
 20
-2.7865
 30
0.0
 10
13.1937
 20
-2.7865
 30
0.0
 10
13.1937
 20
-2.7865
 30
0.0
 10
13.1664
 20
-2.7865
 30
0.0
 10
13.1664
 20
-2.7865
 30
0.0
  0
SPLINE
  5
79
330
1F
100
AcDbEntity
  8
Ebene 1
370
    35
100
AcDbSpline
210
0.0
220
0.0
230
1.0
 70
    24
 71
     3
 72
   100
 73
    96
 74
     0
 42
0.0000000001
 43
0.0000000001
 40
0.0
 40
0.0
 40
0.0
 40
0.0
 40
0.0416666666666667
 40
0.0416666666666667
 40
0.0416666666666667
 40
0.0416666666666667
 40
0.0833333333333333
 40
0.0833333333333333
 40
0.0833333333333333
 40
0.0833333333333333
 40
0.125
 40
0.125
 40
0.125
 40
0.125
 40
0.1666666666666667
 40
0.1666666666666667
 40
0.1666666666666667
 40
0.1666666666666667
 40
0.2083333333333333
 40
0.2083333333333333
 40
0.2083333333333333
 40
0.2083333333333333
 40
0.25
 40
0.25
 40
0.25
 40
0.25
 40
0.2916666666666666
 40
0.2916666666666666
 40
0.2916666666666666
 40
0.2916666666666666
 40
0.3333333333333333
 40
0.3333333333333333
 40
0.3333333333333333
 40
0.3333333333333333
 40
0.375
 40
0.375
 40
0.375
 40
0.375
 40
0.4166666666666667
 40
0.4166666666666667
 40
0.4166666666666667
 40
0.4166666666666667
 40
0.4583333333333334
 40
0.4583333333333334
 40
0.4583333333333334
 40
0.4583333333333334
 40
0.5
 40
0.5
 40
0.5
 40
0.5
 40
0.5416666666666666
 40
0.5416666666666666
 40
0.5416666666666666
 40
0.5416666666666666
 40
0.5833333333333333
 40
0.5833333333333333
 40
0.5833333333333333
 40
0.5833333333333333
 40
0.6249999999999999
 40
0.6249999999999999
 40
0.6249999999999999
 40
0.6249999999999999
 40
0.6666666666666665
 40
0.6666666666666665
 40
0.6666666666666665
 40
0.6666666666666665
 40
0.7083333333333332
 40
0.7083333333333332
 40
0.7083333333333332
 40
0.7083333333333332
 40
0.7499999999999998
 40
0.7499999999999998
 40
0.7499999999999998
 40
0.7499999999999998
 40
0.7916666666666664
 40
0.7916666666666664
 40
0.7916666666666664
 40
0.7916666666666664
 40
0.833333333333333
 40
0.833333333333333
 40
0.833333333333333
 40
0.833333333333333
 40
0.8749999999999997
 40
0.8749999999999997
 40
0.8749999999999997
 40
0.8749999999999997
 40
0.9166666666666663
 40
0.9166666666666663
 40
0.9166666666666663
 40
0.9166666666666663
 40
0.9583333333333329
 40
0.9583333333333329
 40
0.9583333333333329
 40
0.9583333333333329
 40
1.0
 40
1.0
 40
1.0
 40
1.0
 10
19.1985
 20
2.6178
 30
0.0
 10
19.1985
 20
2.6178
 30
0.0
 10
19.1712
 20
2.6178
 30
0.0
 10
19.1712
 20
2.6178
 30
0.0
 10
19.1712
 20
2.6178
 30
0.0
 10
19.1712
 20
2.6178
 30
0.0
 10
19.1166
 20
2.6178
 30
0.0
 10
19.1166
 20
2.6178
 30
0.0
 10
19.1166
 20
2.6178
 30
0.0
 10
19.1166
 20
2.6178
 30
0.0
 10
19.0075
 20
2.6178
 30
0.0
 10
19.0075
 20
2.6178
 30
0.0
 10
19.0075
 20
2.6178
 30
0.0
 10
19.0075
 20
2.6178
 30
0.0
 10
18.8437
 20
2.6178
 30
0.0
 10
18.8437
 20
2.6178
 30
0.0
 10
18.8437
 20
2.6178
 30
0.0
 10
18.8437
 20
2.6178
 30
0.0
 10
18.6527
 20
2.6178
 30
0.0
 10
18.6527
 20
2.6178
 30
0.0
 10
18.6527
 20
2.6178
 30
0.0
 10
18.6527
 20
2.6178
 30
0.0
 10
18.4342
 20
2.6178
 30
0.0
 10
18.4342
 20
2.6178
 30
0.0
 10
18.4342
 20
2.6178
 30
0.0
 10
18.4342
 20
2.6178
 30
0.0
 10
18.1614
 20
2.6178
 30
0.0
 10
18.1614
 20
2.6178
 30
0.0
 10
18.1614
 20
2.6178
 30
0.0
 10
18.1614
 20
2.6178
 30
0.0
 10
17.8884
 20
2.6178
 30
0.0
 10
17.8884
 20
2.6178
 30
0.0
 10
17.8884
 20
2.6178
 30
0.0
 10
17.8884
 20
2.6178
 30
0.0
 10
17.5608
 20
2.6178
 30
0.0
 10
17.5608
 20
2.6178
 30
0.0
 10
17.5608
 20
2.6178
 30
0.0
 10
17.5608
 20
2.6178
 30
0.0
 10
17.2333
 20
2.6178
 30
0.0
 10
17.2333
 20
2.6178
 30
0.0
 10
17.2333
 20
2.6178
 30
0.0
 10
17.2333
 20
2.6178
 30
0.0
 10
16.9058
 20
2.6178
 30
0.0
 10
16.9058
 20
2.6178
 30
0.0
 10
16.9058
 20
2.6178
 30
0.0
 10
16.9058
 20
2.6178
 30
0.0
 10
16.5782
 20
2.6178
 30
0.0
 10
16.5782
 20
2.6178
 30
0.0
 10
16.5782
 20
2.6178
 30
0.0
 10
16.5782
 20
2.6178
 30
0.0
 10
16.2234
 20
2.6178
 30
0.0
 10
16.2234
 20
2.6178
 30
0.0
 10
16.2234
 20
2.6178
 30
0.0
 10
16.2234
 20
2.6178
 30
0.0
 10
15.8959
 20
2.6178
 30
0.0
 10
15.8959
 20
2.6178
 30
0.0
 10
15.8959
 20
2.6178
 30
0.0
 10
15.8959
 20
2.6178
 30
0.0
 10
15.5684
 20
2.6178
 30
0.0
 10
15.5684
 20
2.6178
 30
0.0
 10
15.5684
 20
2.6178
 30
0.0
 10
15.5684
 20
2.6178
 30
0.0
 10
15.2408
 20
2.6178
 30
0.0
 10
15.2408
 20
2.6178
 30
0.0
 10
15.2408
 20
2.6178
 30
0.0
 10
15.2408
 20
2.6178
 30
0.0
 10
14.9679
 20
2.6178
 30
0.0
 10
14.9679
 20
2.6178
 30
0.0
 10
14.9679
 20
2.6178
 30
0.0
 10
14.9679
 20
2.6178
 30
0.0
 10
14.6949
 20
2.6178
 30
0.0
 10
14.6949
 20
2.6178
 30
0.0
 10
14.6949
 20
2.6178
 30
0.0
 10
14.6949
 20
2.6178
 30
0.0
 10
14.4766
 20
2.6178
 30
0.0
 10
14.4766
 20
2.6178
 30
0.0
 10
14.4766
 20
2.6178
 30
0.0
 10
14.4766
 20
2.6178
 30
0.0
 10
14.2855
 20
2.6178
 30
0.0
 10
14.2855
 20
2.6178
 30
0.0
 10
14.2855
 20
2.6178
 30
0.0
 10
14.2855
 20
2.6178
 30
0.0
 10
14.149
 20
2.6178
 30
0.0
 10
14.149
 20
2.6178
 30
0.0
 10
14.149
 20
2.6178
 30
0.0
 10
14.149
 20
2.6178
 30
0.0
 10
14.0125
 20
2.6178
 30
0.0
 10
14.0125
 20
2.6178
 30
0.0
 10
14.0125
 20
2.6178
 30
0.0
 10
14.0125
 20
2.6178
 30
0.0
 10
13.958
 20
2.6178
 30
0.0
 10
13.958
 20
2.6178
 30
0.0
 10
13.958
 20
2.6178
 30
0.0
 10
13.958
 20
2.6178
 30
0.0
 10
13.9307
 20
2.6178
 30
0.0
 10
13.9307
 20
2.6178
 30
0.0
  0
SPLINE
  5
7A
330
1F
100
AcDbEntity
  8
Ebene 1
370
    35
100
AcDbSpline
210
0.0
220
0.0
230
1.0
 70
     8
 71
     3
 72
    36
 73
    32
 74
     0
 42
0.0000000001
 43
0.0000000001
 40
0.0
 40
0.0
 40
0.0
 40
0.0
 40
0.125
 40
0.125
 40
0.125
 40
0.125
 40
0.25
 40
0.25
 40
0.25
 40
0.25
 40
0.375
 40
0.375
 40
0.375
 40
0.375
 40
0.5
 40
0.5
 40
0.5
 40
0.5
 40
0.625
 40
0.625
 40
0.625
 40
0.625
 40
0.75
 40
0.75
 40
0.75
 40
0.75
 40
0.875
 40
0.875
 40
0.875
 40
0.875
 40
1.0
 40
1.0
 40
1.0
 40
1.0
 10
12.3203
 20
-1.2581
 30
0.0
 10
12.3203
 20
-1.2581
 30
0.0
 10
12.3476
 20
-1.2307
 30
0.0
 10
12.3476
 20
-1.2307
 30
0.0
 10
12.3476
 20
-1.2307
 30
0.0
 10
12.3476
 20
-1.2307
 30
0.0
 10
12.4022
 20
-1.1762
 30
0.0
 10
12.4022
 20
-1.1762
 30
0.0
 10
12.4022
 20
-1.1762
 30
0.0
 10
12.4022
 20
-1.1762
 30
0.0
 10
12.4568
 20
-1.1489
 30
0.0
 10
12.4568
 20
-1.1489
 30
0.0
 10
12.4568
 20
-1.1489
 30
0.0
 10
12.4568
 20
-1.1489
 30
0.0
 10
12.4841
 20
-1.0943
 30
0.0
 10
12.4841
 20
-1.0943
 30
0.0
 10
12.4841
 20
-1.0943
 30
0.0
 10
12.4841
 20
-1.0943
 30
0.0
 10
12.5114
 20
-1.0669
 30
0.0
 10
12.5114
 20
-1.0669
 30
0.0
 10
12.5114
 20
-1.0669
 30
0.0
 10
12.5114
 20
-1.0669
 30
0.0
 10
12.5386
 20
-1.0124
 30
0.0
 10
12.5386
 20
-1.0124
 30
0.0
 10
12.5386
 20
-1.0124
 30
0.0
 10
12.5386
 20
-1.0124
 30
0.0
 10
12.5386
 20
-0.9578000000000001
 30
0.0
 10
12.5386
 20
-0.9578000000000001
 30
0.0
 10
12.5386
 20
-0.9578000000000001
 30
0.0
 10
12.5386
 20
-0.9578000000000001
 30
0.0
 10
12.5386
 20
-0.9032
 30
0.0
 10
12.5386
 20
-0.9032
 30
0.0
  0
SPLINE
  5
7B
330
1F
100
AcDbEntity
  8
Ebene 1
370
    35
100
AcDbSpline
210
0.0
220
0.0
230
1.0
 70
    24
 71
     3
 72
     8
 73
     4
 74
     0
 42
0.0000000001
 43
0.0000000001
 40
0.0
 40
0.0
 40
0.0
 40
0.0
 40
1.0
 40
1.0
 40
1.0
 40
1.0
 10
20.5905
 20
1.4987
 30
0.0
 10
20.5905
 20
1.4987
 30
0.0
 10
20.5905
 20
-0.9032
 30
0.0
 10
20.5905
 20
-0.9032
 30
0.0
  0
SPLINE
  5
7C
330
1F
100
AcDbEntity
  8
Ebene 1
370
    35
100
AcDbSpline
210
0.0
220
0.0
230
1.0
 70
    24
 71
     3
 72
     8
 73
     4
 74
     0
 42
0.0000000001
 43
0.0000000001
 40
0.0
 40
0.0
 40
0.0
 40
0.0
 40
1.0
 40
1.0
 40
1.0
 40
1.0
 10
12.5386
 20
-0.9032
 30
0.0
 10
12.5386
 20
-0.9032
 30
0.0
 10
12.5386
 20
1.4987
 30
0.0
 10
12.5386
 20
1.4987
 30
0.0
  0
SPLINE
  5
7D
330
1F
100
AcDbEntity
  8
Ebene 1
370
    35
100
AcDbSpline
210
0.0
220
0.0
230
1.0
 70
     8
 71
     3
 72
    36
 73
    32
 74
     0
 42
0.0000000001
 43
0.0000000001
 40
0.0
 40
0.0
 40
0.0
 40
0.0
 40
0.125
 40
0.125
 40
0.125
 40
0.125
 40
0.25
 40
0.25
 40
0.25
 40
0.25
 40
0.375
 40
0.375
 40
0.375
 40
0.375
 40
0.5
 40
0.5
 40
0.5
 40
0.5
 40
0.625
 40
0.625
 40
0.625
 40
0.625
 40
0.75
 40
0.75
 40
0.75
 40
0.75
 40
0.875
 40
0.875
 40
0.875
 40
0.875
 40
1.0
 40
1.0
 40
1.0
 40
1.0
 10
20.8089
 20
1.8535
 30
0.0
 10
20.8089
 20
1.8535
 30
0.0
 10
20.7816
 20
1.8262
 30
0.0
 10
20.7816
 20
1.8262
 30
0.0
 10
20.7816
 20
1.8262
 30
0.0
 10
20.7816
 20
1.8262
 30
0.0
 10
20.727
 20
1.7989
 30
0.0
 10
20.727
 20
1.7989
 30
0.0
 10
20.727
 20
1.7989
 30
0.0
 10
20.727
 20
1.7989
 30
0.0
 10
20.6997
 20
1.7444
 30
0.0
 10
20.6997
 20
1.7444
 30
0.0
 10
20.6997
 20
1.7444
 30
0.0
 10
20.6997
 20
1.7444
 30
0.0
 10
20.6451
 20
1.7171
 30
0.0
 10
20.6451
 20
1.7171
 30
0.0
 10
20.6451
 20
1.7171
 30
0.0
 10
20.6451
 20
1.7171
 30
0.0
 10
20.6179
 20
1.6624
 30
0.0
 10
20.6179
 20
1.6624
 30
0.0
 10
20.6179
 20
1.6624
 30
0.0
 10
20.6179
 20
1.6624
 30
0.0
 10
20.6179
 20
1.6079
 30
0.0
 10
20.6179
 20
1.6079
 30
0.0
 10
20.6179
 20
1.6079
 30
0.0
 10
20.6179
 20
1.6079
 30
0.0
 10
20.5905
 20
1.5533
 30
0.0
 10
20.5905
 20
1.5533
 30
0.0
 10
20.5905
 20
1.5533
 30
0.0
 10
20.5905
 20
1.5533
 30
0.0
 10
20.5905
 20
1.4987
 30
0.0
 10
20.5905
 20
1.4987
 30
0.0
  0
SPLINE
  5
7E
330
1F
100
AcDbEntity
  8
Ebene 1
370
    35
100
AcDbSpline
210
0.0
220
0.0
230
1.0
 70
     8
 71
     3
 72
    36
 73
    32
 74
     0
 42
0.0000000001
 43
0.0000000001
 40
0.0
 40
0.0
 40
0.0
 40
0.0
 40
0.125
 40
0.125
 40
0.125
 40
0.125
 40
0.25
 40
0.25
 40
0.25
 40
0.25
 40
0.375
 40
0.375
 40
0.375
 40
0.375
 40
0.5
 40
0.5
 40
0.5
 40
0.5
 40
0.625
 40
0.625
 40
0.625
 40
0.625
 40
0.75
 40
0.75
 40
0.75
 40
0.75
 40
0.875
 40
0.875
 40
0.875
 40
0.875
 40
1.0
 40
1.0
 40
1.0
 40
1.0
 10
20.5905
 20
-0.9032
 30
0.0
 10
20.5905
 20
-0.9032
 30
0.0
 10
20.5905
 20
-0.9578000000000001
 30
0.0
 10
20.5905
 20
-0.9578000000000001
 30
0.0
 10
20.5905
 20
-0.9578000000000001
 30
0.0
 10
20.5905
 20
-0.9578000000000001
 30
0.0
 10
20.6179
 20
-1.0124
 30
0.0
 10
20.6179
 20
-1.0124
 30
0.0
 10
20.6179
 20
-1.0124
 30
0.0
 10
20.6179
 20
-1.0124
 30
0.0
 10
20.6179
 20
-1.0669
 30
0.0
 10
20.6179
 20
-1.0669
 30
0.0
 10
20.6179
 20
-1.0669
 30
0.0
 10
20.6179
 20
-1.0669
 30
0.0
 10
20.6451
 20
-1.0943
 30
0.0
 10
20.6451
 20
-1.0943
 30
0.0
 10
20.6451
 20
-1.0943
 30
0.0
 10
20.6451
 20
-1.0943
 30
0.0
 10
20.6997
 20
-1.1489
 30
0.0
 10
20.6997
 20
-1.1489
 30
0.0
 10
20.6997
 20
-1.1489
 30
0.0
 10
20.6997
 20
-1.1489
 30
0.0
 10
20.727
 20
-1.1762
 30
0.0
 10
20.727
 20
-1.1762
 30
0.0
 10
20.727
 20
-1.1762
 30
0.0
 10
20.727
 20
-1.1762
 30
0.0
 10
20.7816
 20
-1.2307
 30
0.0
 10
20.7816
 20
-1.2307
 30
0.0
 10
20.7816
 20
-1.2307
 30
0.0
 10
20.7816
 20
-1.2307
 30
0.0
 10
20.8089
 20
-1.2581
 30
0.0
 10
20.8089
 20
-1.2581
 30
0.0
  0
SPLINE
  5
7F
330
1F
100
AcDbEntity
  8
Ebene 1
370
    35
100
AcDbSpline
210
0.0
220
0.0
230
1.0
 70
    24
 71
     3
 72
     8
 73
     4
 74
     0
 42
0.0000000001
 43
0.0000000001
 40
0.0
 40
0.0
 40
0.0
 40
0.0
 40
1.0
 40
1.0
 40
1.0
 40
1.0
 10
12.3203
 20
3.382
 30
0.0
 10
12.3203
 20
3.382
 30
0.0
 10
12.3203
 20
1.8535
 30
0.0
 10
12.3203
 20
1.8535
 30
0.0
  0
SPLINE
  5
80
330
1F
100
AcDbEntity
  8
Ebene 1
370
    35
100
AcDbSpline
210
0.0
220
0.0
230
1.0
 70
     8
 71
     3
 72
    36
 73
    32
 74
     0
 42
0.0000000001
 43
0.0000000001
 40
0.0
 40
0.0
 40
0.0
 40
0.0
 40
0.125
 40
0.125
 40
0.125
 40
0.125
 40
0.25
 40
0.25
 40
0.25
 40
0.25
 40
0.375
 40
0.375
 40
0.375
 40
0.375
 40
0.5
 40
0.5
 40
0.5
 40
0.5
 40
0.625
 40
0.625
 40
0.625
 40
0.625
 40
0.75
 40
0.75
 40
0.75
 40
0.75
 40
0.875
 40
0.875
 40
0.875
 40
0.875
 40
1.0
 40
1.0
 40
1.0
 40
1.0
 10
12.5386
 20
1.4987
 30
0.0
 10
12.5386
 20
1.4987
 30
0.0
 10
12.5386
 20
1.5533
 30
0.0
 10
12.5386
 20
1.5533
 30
0.0
 10
12.5386
 20
1.5533
 30
0.0
 10
12.5386
 20
1.5533
 30
0.0
 10
12.5386
 20
1.6079
 30
0.0
 10
12.5386
 20
1.6079
 30
0.0
 10
12.5386
 20
1.6079
 30
0.0
 10
12.5386
 20
1.6079
 30
0.0
 10
12.5114
 20
1.6624
 30
0.0
 10
12.5114
 20
1.6624
 30
0.0
 10
12.5114
 20
1.6624
 30
0.0
 10
12.5114
 20
1.6624
 30
0.0
 10
12.4841
 20
1.7171
 30
0.0
 10
12.4841
 20
1.7171
 30
0.0
 10
12.4841
 20
1.7171
 30
0.0
 10
12.4841
 20
1.7171
 30
0.0
 10
12.4568
 20
1.7444
 30
0.0
 10
12.4568
 20
1.7444
 30
0.0
 10
12.4568
 20
1.7444
 30
0.0
 10
12.4568
 20
1.7444
 30
0.0
 10
12.4022
 20
1.7989
 30
0.0
 10
12.4022
 20
1.7989
 30
0.0
 10
12.4022
 20
1.7989
 30
0.0
 10
12.4022
 20
1.7989
 30
0.0
 10
12.3476
 20
1.8262
 30
0.0
 10
12.3476
 20
1.8262
 30
0.0
 10
12.3476
 20
1.8262
 30
0.0
 10
12.3476
 20
1.8262
 30
0.0
 10
12.3203
 20
1.8535
 30
0.0
 10
12.3203
 20
1.8535
 30
0.0
  0
SPLINE
  5
81
330
1F
100
AcDbEntity
  8
Ebene 1
370
    35
100
AcDbSpline
210
0.0
220
0.0
230
1.0
 70
    24
 71
     3
 72
     8
 73
     4
 74
     0
 42
0.0000000001
 43
0.0000000001
 40
0.0
 40
0.0
 40
0.0
 40
0.0
 40
1.0
 40
1.0
 40
1.0
 40
1.0
 10
12.3203
 20
-1.2581
 30
0.0
 10
12.3203
 20
-1.2581
 30
0.0
 10
12.3203
 20
-2.7865
 30
0.0
 10
12.3203
 20
-2.7865
 30
0.0
  0
SPLINE
  5
82
330
1F
100
AcDbEntity
  8
Ebene 1
370
    35
100
AcDbSpline
210
0.0
220
0.0
230
1.0
 70
    24
 71
     3
 72
     8
 73
     4
 74
     0
 42
0.0000000001
 43
0.0000000001
 40
0.0
 40
0.0
 40
0.0
 40
0.0
 40
1.0
 40
1.0
 40
1.0
 40
1.0
 10
12.3203
 20
-2.7865
 30
0.0
 10
12.3203
 20
-2.7865
 30
0.0
 10
9.8093
 20
-2.7865
 30
0.0
 10
9.8093
 20
-2.7865
 30
0.0
  0
SPLINE
  5
83
330
1F
100
AcDbEntity
  8
Ebene 1
370
    35
100
AcDbSpline
210
0.0
220
0.0
230
1.0
 70
     8
 71
     3
 72
    36
 73
    32
 74
     0
 42
0.0000000001
 43
0.0000000001
 40
0.0
 40
0.0
 40
0.0
 40
0.0
 40
0.125
 40
0.125
 40
0.125
 40
0.125
 40
0.25
 40
0.25
 40
0.25
 40
0.25
 40
0.375
 40
0.375
 40
0.375
 40
0.375
 40
0.5
 40
0.5
 40
0.5
 40
0.5
 40
0.625
 40
0.625
 40
0.625
 40
0.625
 40
0.75
 40
0.75
 40
0.75
 40
0.75
 40
0.875
 40
0.875
 40
0.875
 40
0.875
 40
1.0
 40
1.0
 40
1.0
 40
1.0
 10
9.0177
 20
-2.0223
 30
0.0
 10
9.0177
 20
-2.0223
 30
0.0
 10
9.045
 20
-2.1588
 30
0.0
 10
9.045
 20
-2.1588
 30
0.0
 10
9.045
 20
-2.1588
 30
0.0
 10
9.045
 20
-2.1588
 30
0.0
 10
9.0723
 20
-2.3225
 30
0.0
 10
9.0723
 20
-2.3225
 30
0.0
 10
9.0723
 20
-2.3225
 30
0.0
 10
9.0723
 20
-2.3225
 30
0.0
 10
9.154200000000001
 20
-2.459
 30
0.0
 10
9.154200000000001
 20
-2.459
 30
0.0
 10
9.154200000000001
 20
-2.459
 30
0.0
 10
9.154200000000001
 20
-2.459
 30
0.0
 10
9.236000000000001
 20
-2.5682
 30
0.0
 10
9.236000000000001
 20
-2.5682
 30
0.0
 10
9.236000000000001
 20
-2.5682
 30
0.0
 10
9.236000000000001
 20
-2.5682
 30
0.0
 10
9.372500000000001
 20
-2.6773
 30
0.0
 10
9.372500000000001
 20
-2.6773
 30
0.0
 10
9.372500000000001
 20
-2.6773
 30
0.0
 10
9.372500000000001
 20
-2.6773
 30
0.0
 10
9.509
 20
-2.732
 30
0.0
 10
9.509
 20
-2.732
 30
0.0
 10
9.509
 20
-2.732
 30
0.0
 10
9.509
 20
-2.732
 30
0.0
 10
9.6455
 20
-2.7865
 30
0.0
 10
9.6455
 20
-2.7865
 30
0.0
 10
9.6455
 20
-2.7865
 30
0.0
 10
9.6455
 20
-2.7865
 30
0.0
 10
9.8093
 20
-2.7865
 30
0.0
 10
9.8093
 20
-2.7865
 30
0.0
  0
SPLINE
  5
84
330
1F
100
AcDbEntity
  8
Ebene 1
370
    35
100
AcDbSpline
210
0.0
220
0.0
230
1.0
 70
    24
 71
     3
 72
     8
 73
     4
 74
     0
 42
0.0000000001
 43
0.0000000001
 40
0.0
 40
0.0
 40
0.0
 40
0.0
 40
1.0
 40
1.0
 40
1.0
 40
1.0
 10
9.0177
 20
8.813600000000001
 30
0.0
 10
9.0177
 20
8.813600000000001
 30
0.0
 10
9.0177
 20
-2.0223
 30
0.0
 10
9.0177
 20
-2.0223
 30
0.0
  0
SPLINE
  5
85
330
1F
100
AcDbEntity
  8
Ebene 1
370
    35
100
AcDbSpline
210
0.0
220
0.0
230
1.0
 70
     8
 71
     3
 72
    36
 73
    32
 74
     0
 42
0.0000000001
 43
0.0000000001
 40
0.0
 40
0.0
 40
0.0
 40
0.0
 40
0.125
 40
0.125
 40
0.125
 40
0.125
 40
0.25
 40
0.25
 40
0.25
 40
0.25
 40
0.375
 40
0.375
 40
0.375
 40
0.375
 40
0.5
 40
0.5
 40
0.5
 40
0.5
 40
0.625
 40
0.625
 40
0.625
 40
0.625
 40
0.75
 40
0.75
 40
0.75
 40
0.75
 40
0.875
 40
0.875
 40
0.875
 40
0.875
 40
1.0
 40
1.0
 40
1.0
 40
1.0
 10
9.0177
 20
8.813600000000001
 30
0.0
 10
9.0177
 20
8.813600000000001
 30
0.0
 10
9.0177
 20
8.950100000000001
 30
0.0
 10
9.0177
 20
8.950100000000001
 30
0.0
 10
9.0177
 20
8.950100000000001
 30
0.0
 10
9.0177
 20
8.950100000000001
 30
0.0
 10
8.963100000000001
 20
9.113900000000001
 30
0.0
 10
8.963100000000001
 20
9.113900000000001
 30
0.0
 10
8.963100000000001
 20
9.113900000000001
 30
0.0
 10
8.963100000000001
 20
9.113900000000001
 30
0.0
 10
8.8812
 20
9.250300000000001
 30
0.0
 10
8.8812
 20
9.250300000000001
 30
0.0
 10
8.8812
 20
9.250300000000001
 30
0.0
 10
8.8812
 20
9.250300000000001
 30
0.0
 10
8.799300000000001
 20
9.359500000000001
 30
0.0
 10
8.799300000000001
 20
9.359500000000001
 30
0.0
 10
8.799300000000001
 20
9.359500000000001
 30
0.0
 10
8.799300000000001
 20
9.359500000000001
 30
0.0
 10
8.690200000000001
 20
9.4414
 30
0.0
 10
8.690200000000001
 20
9.4414
 30
0.0
 10
8.690200000000001
 20
9.4414
 30
0.0
 10
8.690200000000001
 20
9.4414
 30
0.0
 10
8.553700000000001
 20
9.523200000000001
 30
0.0
 10
8.553700000000001
 20
9.523200000000001
 30
0.0
 10
8.553700000000001
 20
9.523200000000001
 30
0.0
 10
8.553700000000001
 20
9.523200000000001
 30
0.0
 10
8.389900000000001
 20
9.5779
 30
0.0
 10
8.389900000000001
 20
9.5779
 30
0.0
 10
8.389900000000001
 20
9.5779
 30
0.0
 10
8.389900000000001
 20
9.5779
 30
0.0
 10
8.253400000000001
 20
9.5779
 30
0.0
 10
8.253400000000001
 20
9.5779
 30
0.0
  0
SPLINE
  5
86
330
1F
100
AcDbEntity
  8
Ebene 1
370
    35
100
AcDbSpline
210
0.0
220
0.0
230
1.0
 70
    24
 71
     3
 72
     8
 73
     4
 74
     0
 42
0.0000000001
 43
0.0000000001
 40
0.0
 40
0.0
 40
0.0
 40
0.0
 40
1.0
 40
1.0
 40
1.0
 40
1.0
 10
4.7598
 20
9.5779
 30
0.0
 10
4.7598
 20
9.5779
 30
0.0
 10
8.253400000000001
 20
9.5779
 30
0.0
 10
8.253400000000001
 20
9.5779
 30
0.0
  0
SPLINE
  5
87
330
1F
100
AcDbEntity
  8
Ebene 1
370
    35
100
AcDbSpline
210
0.0
220
0.0
230
1.0
 70
    24
 71
     3
 72
     8
 73
     4
 74
     0
 42
0.0000000001
 43
0.0000000001
 40
0.0
 40
0.0
 40
0.0
 40
0.0
 40
1.0
 40
1.0
 40
1.0
 40
1.0
 10
4.7598
 20
9.5779
 30
0.0
 10
4.7598
 20
9.5779
 30
0.0
 10
4.7598
 20
6.493600000000001
 30
0.0
 10
4.7598
 20
6.493600000000001
 30
0.0
  0
SPLINE
  5
88
330
1F
100
AcDbEntity
  8
Ebene 1
370
    35
100
AcDbSpline
210
0.0
220
0.0
230
1.0
 70
    24
 71
     3
 72
     8
 73
     4
 74
     0
 42
0.0000000001
 43
0.0000000001
 40
0.0
 40
0.0
 40
0.0
 40
0.0
 40
1.0
 40
1.0
 40
1.0
 40
1.0
 10
2.4398
 20
6.493600000000001
 30
0.0
 10
2.4398
 20
6.493600000000001
 30
0.0
 10
4.7598
 20
6.493600000000001
 30
0.0
 10
4.7598
 20
6.493600000000001
 30
0.0
  0
SPLINE
  5
89
330
1F
100
AcDbEntity
  8
Ebene 1
370
    35
100
AcDbSpline
210
0.0
220
0.0
230
1.0
 70
    24
 71
     3
 72
     8
 73
     4
 74
     0
 42
0.0000000001
 43
0.0000000001
 40
0.0
 40
0.0
 40
0.0
 40
0.0
 40
1.0
 40
1.0
 40
1.0
 40
1.0
 10
2.4398
 20
6.493600000000001
 30
0.0
 10
2.4398
 20
6.493600000000001
 30
0.0
 10
2.4398
 20
11.1336
 30
0.0
 10
2.4398
 20
11.1336
 30
0.0
  0
SPLINE
  5
8A
330
1F
100
AcDbEntity
  8
Ebene 1
370
    35
100
AcDbSpline
210
0.0
220
0.0
230
1.0
 70
     8
 71
     3
 72
    36
 73
    32
 74
     0
 42
0.0000000001
 43
0.0000000001
 40
0.0
 40
0.0
 40
0.0
 40
0.0
 40
0.125
 40
0.125
 40
0.125
 40
0.125
 40
0.25
 40
0.25
 40
0.25
 40
0.25
 40
0.375
 40
0.375
 40
0.375
 40
0.375
 40
0.5
 40
0.5
 40
0.5
 40
0.5
 40
0.625
 40
0.625
 40
0.625
 40
0.625
 40
0.75
 40
0.75
 40
0.75
 40
0.75
 40
0.875
 40
0.875
 40
0.875
 40
0.875
 40
1.0
 40
1.0
 40
1.0
 40
1.0
 10
3.2313
 20
11.8979
 30
0.0
 10
3.2313
 20
11.8979
 30
0.0
 10
3.0675
 20
11.8979
 30
0.0
 10
3.0675
 20
11.8979
 30
0.0
 10
3.0675
 20
11.8979
 30
0.0
 10
3.0675
 20
11.8979
 30
0.0
 10
2.9311
 20
11.8433
 30
0.0
 10
2.9311
 20
11.8433
 30
0.0
 10
2.9311
 20
11.8433
 30
0.0
 10
2.9311
 20
11.8433
 30
0.0
 10
2.7946
 20
11.7887
 30
0.0
 10
2.7946
 20
11.7887
 30
0.0
 10
2.7946
 20
11.7887
 30
0.0
 10
2.7946
 20
11.7887
 30
0.0
 10
2.6854
 20
11.6795
 30
0.0
 10
2.6854
 20
11.6795
 30
0.0
 10
2.6854
 20
11.6795
 30
0.0
 10
2.6854
 20
11.6795
 30
0.0
 10
2.5762
 20
11.5704
 30
0.0
 10
2.5762
 20
11.5704
 30
0.0
 10
2.5762
 20
11.5704
 30
0.0
 10
2.5762
 20
11.5704
 30
0.0
 10
2.4943
 20
11.4339
 30
0.0
 10
2.4943
 20
11.4339
 30
0.0
 10
2.4943
 20
11.4339
 30
0.0
 10
2.4943
 20
11.4339
 30
0.0
 10
2.467
 20
11.2701
 30
0.0
 10
2.467
 20
11.2701
 30
0.0
 10
2.467
 20
11.2701
 30
0.0
 10
2.467
 20
11.2701
 30
0.0
 10
2.4398
 20
11.1336
 30
0.0
 10
2.4398
 20
11.1336
 30
0.0
  0
SPLINE
  5
8B
330
1F
100
AcDbEntity
  8
Ebene 1
370
    35
100
AcDbSpline
210
0.0
220
0.0
230
1.0
 70
    24
 71
     3
 72
     8
 73
     4
 74
     0
 42
0.0000000001
 43
0.0000000001
 40
0.0
 40
0.0
 40
0.0
 40
0.0
 40
1.0
 40
1.0
 40
1.0
 40
1.0
 10
3.2313
 20
11.8979
 30
0.0
 10
3.2313
 20
11.8979
 30
0.0
 10
13.5485
 20
11.8979
 30
0.0
 10
13.5485
 20
11.8979
 30
0.0
  0
SPLINE
  5
8C
330
1F
100
AcDbEntity
  8
Ebene 1
370
    35
100
AcDbSpline
210
0.0
220
0.0
230
1.0
 70
    24
 71
     3
 72
     8
 73
     4
 74
     0
 42
0.0000000001
 43
0.0000000001
 40
0.0
 40
0.0
 40
0.0
 40
0.0
 40
1.0
 40
1.0
 40
1.0
 40
1.0
 10
13.5485
 20
11.8979
 30
0.0
 10
13.5485
 20
11.8979
 30
0.0
 10
13.5485
 20
3.382
 30
0.0
 10
13.5485
 20
3.382
 30
0.0
  0
SPLINE
  5
8D
330
1F
100
AcDbEntity
  8
Ebene 1
370
    35
100
AcDbSpline
210
0.0
220
0.0
230
1.0
 70
    24
 71
     3
 72
     8
 73
     4
 74
     0
 42
0.0000000001
 43
0.0000000001
 40
0.0
 40
0.0
 40
0.0
 40
0.0
 40
1.0
 40
1.0
 40
1.0
 40
1.0
 10
13.5485
 20
3.382
 30
0.0
 10
13.5485
 20
3.382
 30
0.0
 10
12.3203
 20
3.382
 30
0.0
 10
12.3203
 20
3.382
 30
0.0
  0
SPLINE
  5
8E
330
1F
100
AcDbEntity
  8
Ebene 1
370
    35
100
AcDbSpline
210
0.0
220
0.0
230
1.0
 70
    24
 71
     3
 72
     8
 73
     4
 74
     0
 42
0.0000000001
 43
0.0000000001
 40
0.0
 40
0.0
 40
0.0
 40
0.0
 40
1.0
 40
1.0
 40
1.0
 40
1.0
 10
19.5806
 20
3.382
 30
0.0
 10
19.5806
 20
3.382
 30
0.0
 10
19.5806
 20
11.8979
 30
0.0
 10
19.5806
 20
11.8979
 30
0.0
  0
SPLINE
  5
8F
330
1F
100
AcDbEntity
  8
Ebene 1
370
    35
100
AcDbSpline
210
0.0
220
0.0
230
1.0
 70
    24
 71
     3
 72
     8
 73
     4
 74
     0
 42
0.0000000001
 43
0.0000000001
 40
0.0
 40
0.0
 40
0.0
 40
0.0
 40
1.0
 40
1.0
 40
1.0
 40
1.0
 10
19.5806
 20
11.8979
 30
0.0
 10
19.5806
 20
11.8979
 30
0.0
 10
29.9252
 20
11.8979
 30
0.0
 10
29.9252
 20
11.8979
 30
0.0
  0
SPLINE
  5
90
330
1F
100
AcDbEntity
  8
Ebene 1
370
    35
100
AcDbSpline
210
0.0
220
0.0
230
1.0
 70
     8
 71
     3
 72
    36
 73
    32
 74
     0
 42
0.0000000001
 43
0.0000000001
 40
0.0
 40
0.0
 40
0.0
 40
0.0
 40
0.125
 40
0.125
 40
0.125
 40
0.125
 40
0.25
 40
0.25
 40
0.25
 40
0.25
 40
0.375
 40
0.375
 40
0.375
 40
0.375
 40
0.5
 40
0.5
 40
0.5
 40
0.5
 40
0.625
 40
0.625
 40
0.625
 40
0.625
 40
0.75
 40
0.75
 40
0.75
 40
0.75
 40
0.875
 40
0.875
 40
0.875
 40
0.875
 40
1.0
 40
1.0
 40
1.0
 40
1.0
 10
30.6895
 20
11.1336
 30
0.0
 10
30.6895
 20
11.1336
 30
0.0
 10
30.6622
 20
11.2701
 30
0.0
 10
30.6622
 20
11.2701
 30
0.0
 10
30.6622
 20
11.2701
 30
0.0
 10
30.6622
 20
11.2701
 30
0.0
 10
30.6349
 20
11.4339
 30
0.0
 10
30.6349
 20
11.4339
 30
0.0
 10
30.6349
 20
11.4339
 30
0.0
 10
30.6349
 20
11.4339
 30
0.0
 10
30.553
 20
11.5704
 30
0.0
 10
30.553
 20
11.5704
 30
0.0
 10
30.553
 20
11.5704
 30
0.0
 10
30.553
 20
11.5704
 30
0.0
 10
30.4711
 20
11.6795
 30
0.0
 10
30.4711
 20
11.6795
 30
0.0
 10
30.4711
 20
11.6795
 30
0.0
 10
30.4711
 20
11.6795
 30
0.0
 10
30.3346
 20
11.7887
 30
0.0
 10
30.3346
 20
11.7887
 30
0.0
 10
30.3346
 20
11.7887
 30
0.0
 10
30.3346
 20
11.7887
 30
0.0
 10
30.1982
 20
11.8433
 30
0.0
 10
30.1982
 20
11.8433
 30
0.0
 10
30.1982
 20
11.8433
 30
0.0
 10
30.1982
 20
11.8433
 30
0.0
 10
30.0617
 20
11.8979
 30
0.0
 10
30.0617
 20
11.8979
 30
0.0
 10
30.0617
 20
11.8979
 30
0.0
 10
30.0617
 20
11.8979
 30
0.0
 10
29.9252
 20
11.8979
 30
0.0
 10
29.9252
 20
11.8979
 30
0.0
  0
SPLINE
  5
91
330
1F
100
AcDbEntity
  8
Ebene 1
370
    35
100
AcDbSpline
210
0.0
220
0.0
230
1.0
 70
    24
 71
     3
 72
     8
 73
     4
 74
     0
 42
0.0000000001
 43
0.0000000001
 40
0.0
 40
0.0
 40
0.0
 40
0.0
 40
1.0
 40
1.0
 40
1.0
 40
1.0
 10
30.6895
 20
11.1336
 30
0.0
 10
30.6895
 20
11.1336
 30
0.0
 10
30.6895
 20
6.493600000000001
 30
0.0
 10
30.6895
 20
6.493600000000001
 30
0.0
  0
SPLINE
  5
92
330
1F
100
AcDbEntity
  8
Ebene 1
370
    35
100
AcDbSpline
210
0.0
220
0.0
230
1.0
 70
    24
 71
     3
 72
     8
 73
     4
 74
     0
 42
0.0000000001
 43
0.0000000001
 40
0.0
 40
0.0
 40
0.0
 40
0.0
 40
1.0
 40
1.0
 40
1.0
 40
1.0
 10
28.3694
 20
6.493600000000001
 30
0.0
 10
28.3694
 20
6.493600000000001
 30
0.0
 10
30.6895
 20
6.493600000000001
 30
0.0
 10
30.6895
 20
6.493600000000001
 30
0.0
  0
SPLINE
  5
93
330
1F
100
AcDbEntity
  8
Ebene 1
370
    35
100
AcDbSpline
210
0.0
220
0.0
230
1.0
 70
    24
 71
     3
 72
     8
 73
     4
 74
     0
 42
0.0000000001
 43
0.0000000001
 40
0.0
 40
0.0
 40
0.0
 40
0.0
 40
1.0
 40
1.0
 40
1.0
 40
1.0
 10
28.3694
 20
6.493600000000001
 30
0.0
 10
28.3694
 20
6.493600000000001
 30
0.0
 10
28.3694
 20
9.5779
 30
0.0
 10
28.3694
 20
9.5779
 30
0.0
  0
SPLINE
  5
94
330
1F
100
AcDbEntity
  8
Ebene 1
370
    35
100
AcDbSpline
210
0.0
220
0.0
230
1.0
 70
    24
 71
     3
 72
     8
 73
     4
 74
     0
 42
0.0000000001
 43
0.0000000001
 40
0.0
 40
0.0
 40
0.0
 40
0.0
 40
1.0
 40
1.0
 40
1.0
 40
1.0
 10
24.8758
 20
9.5779
 30
0.0
 10
24.8758
 20
9.5779
 30
0.0
 10
28.3694
 20
9.5779
 30
0.0
 10
28.3694
 20
9.5779
 30
0.0
  0
SPLINE
  5
95
330
1F
100
AcDbEntity
  8
Ebene 1
370
    35
100
AcDbSpline
210
0.0
220
0.0
230
1.0
 70
     8
 71
     3
 72
    36
 73
    32
 74
     0
 42
0.0000000001
 43
0.0000000001
 40
0.0
 40
0.0
 40
0.0
 40
0.0
 40
0.125
 40
0.125
 40
0.125
 40
0.125
 40
0.25
 40
0.25
 40
0.25
 40
0.25
 40
0.375
 40
0.375
 40
0.375
 40
0.375
 40
0.5
 40
0.5
 40
0.5
 40
0.5
 40
0.625
 40
0.625
 40
0.625
 40
0.625
 40
0.75
 40
0.75
 40
0.75
 40
0.75
 40
0.875
 40
0.875
 40
0.875
 40
0.875
 40
1.0
 40
1.0
 40
1.0
 40
1.0
 10
24.8758
 20
9.5779
 30
0.0
 10
24.8758
 20
9.5779
 30
0.0
 10
24.7393
 20
9.5779
 30
0.0
 10
24.7393
 20
9.5779
 30
0.0
 10
24.7393
 20
9.5779
 30
0.0
 10
24.7393
 20
9.5779
 30
0.0
 10
24.5755
 20
9.523200000000001
 30
0.0
 10
24.5755
 20
9.523200000000001
 30
0.0
 10
24.5755
 20
9.523200000000001
 30
0.0
 10
24.5755
 20
9.523200000000001
 30
0.0
 10
24.4663
 20
9.4414
 30
0.0
 10
24.4663
 20
9.4414
 30
0.0
 10
24.4663
 20
9.4414
 30
0.0
 10
24.4663
 20
9.4414
 30
0.0
 10
24.3298
 20
9.359500000000001
 30
0.0
 10
24.3298
 20
9.359500000000001
 30
0.0
 10
24.3298
 20
9.359500000000001
 30
0.0
 10
24.3298
 20
9.359500000000001
 30
0.0
 10
24.248
 20
9.250300000000001
 30
0.0
 10
24.248
 20
9.250300000000001
 30
0.0
 10
24.248
 20
9.250300000000001
 30
0.0
 10
24.248
 20
9.250300000000001
 30
0.0
 10
24.1661
 20
9.113900000000001
 30
0.0
 10
24.1661
 20
9.113900000000001
 30
0.0
 10
24.1661
 20
9.113900000000001
 30
0.0
 10
24.1661
 20
9.113900000000001
 30
0.0
 10
24.1115
 20
8.950100000000001
 30
0.0
 10
24.1115
 20
8.950100000000001
 30
0.0
 10
24.1115
 20
8.950100000000001
 30
0.0
 10
24.1115
 20
8.950100000000001
 30
0.0
 10
24.1115
 20
8.813600000000001
 30
0.0
 10
24.1115
 20
8.813600000000001
 30
0.0
  0
SPLINE
  5
96
330
1F
100
AcDbEntity
  8
Ebene 1
370
    35
100
AcDbSpline
210
0.0
220
0.0
230
1.0
 70
    24
 71
     3
 72
     8
 73
     4
 74
     0
 42
0.0000000001
 43
0.0000000001
 40
0.0
 40
0.0
 40
0.0
 40
0.0
 40
1.0
 40
1.0
 40
1.0
 40
1.0
 10
24.1115
 20
-2.0223
 30
0.0
 10
24.1115
 20
-2.0223
 30
0.0
 10
24.1115
 20
8.813600000000001
 30
0.0
 10
24.1115
 20
8.813600000000001
 30
0.0
  0
SPLINE
  5
97
330
1F
100
AcDbEntity
  8
Ebene 1
370
    35
100
AcDbSpline
210
0.0
220
0.0
230
1.0
 70
     8
 71
     3
 72
    36
 73
    32
 74
     0
 42
0.0000000001
 43
0.0000000001
 40
0.0
 40
0.0
 40
0.0
 40
0.0
 40
0.125
 40
0.125
 40
0.125
 40
0.125
 40
0.25
 40
0.25
 40
0.25
 40
0.25
 40
0.375
 40
0.375
 40
0.375
 40
0.375
 40
0.5
 40
0.5
 40
0.5
 40
0.5
 40
0.625
 40
0.625
 40
0.625
 40
0.625
 40
0.75
 40
0.75
 40
0.75
 40
0.75
 40
0.875
 40
0.875
 40
0.875
 40
0.875
 40
1.0
 40
1.0
 40
1.0
 40
1.0
 10
23.3472
 20
-2.7865
 30
0.0
 10
23.3472
 20
-2.7865
 30
0.0
 10
23.4837
 20
-2.7865
 30
0.0
 10
23.4837
 20
-2.7865
 30
0.0
 10
23.4837
 20
-2.7865
 30
0.0
 10
23.4837
 20
-2.7865
 30
0.0
 10
23.6202
 20
-2.732
 30
0.0
 10
23.6202
 20
-2.732
 30
0.0
 10
23.6202
 20
-2.732
 30
0.0
 10
23.6202
 20
-2.732
 30
0.0
 10
23.7567
 20
-2.6773
 30
0.0
 10
23.7567
 20
-2.6773
 30
0.0
 10
23.7567
 20
-2.6773
 30
0.0
 10
23.7567
 20
-2.6773
 30
0.0
 10
23.8932
 20
-2.5682
 30
0.0
 10
23.8932
 20
-2.5682
 30
0.0
 10
23.8932
 20
-2.5682
 30
0.0
 10
23.8932
 20
-2.5682
 30
0.0
 10
23.975
 20
-2.459
 30
0.0
 10
23.975
 20
-2.459
 30
0.0
 10
23.975
 20
-2.459
 30
0.0
 10
23.975
 20
-2.459
 30
0.0
 10
24.0569
 20
-2.3225
 30
0.0
 10
24.0569
 20
-2.3225
 30
0.0
 10
24.0569
 20
-2.3225
 30
0.0
 10
24.0569
 20
-2.3225
 30
0.0
 10
24.0842
 20
-2.1588
 30
0.0
 10
24.0842
 20
-2.1588
 30
0.0
 10
24.0842
 20
-2.1588
 30
0.0
 10
24.0842
 20
-2.1588
 30
0.0
 10
24.1115
 20
-2.0223
 30
0.0
 10
24.1115
 20
-2.0223
 30
0.0
  0
SPLINE
  5
98
330
1F
100
AcDbEntity
  8
Ebene 1
370
    35
100
AcDbSpline
210
0.0
220
0.0
230
1.0
 70
    24
 71
     3
 72
     8
 73
     4
 74
     0
 42
0.0000000001
 43
0.0000000001
 40
0.0
 40
0.0
 40
0.0
 40
0.0
 40
1.0
 40
1.0
 40
1.0
 40
1.0
 10
20.8089
 20
1.8535
 30
0.0
 10
20.8089
 20
1.8535
 30
0.0
 10
20.8089
 20
3.382
 30
0.0
 10
20.8089
 20
3.382
 30
0.0
  0
SPLINE
  5
99
330
1F
100
AcDbEntity
  8
Ebene 1
370
    35
100
AcDbSpline
210
0.0
220
0.0
230
1.0
 70
    24
 71
     3
 72
     8
 73
     4
 74
     0
 42
0.0000000001
 43
0.0000000001
 40
0.0
 40
0.0
 40
0.0
 40
0.0
 40
1.0
 40
1.0
 40
1.0
 40
1.0
 10
20.8089
 20
3.382
 30
0.0
 10
20.8089
 20
3.382
 30
0.0
 10
19.5806
 20
3.382
 30
0.0
 10
19.5806
 20
3.382
 30
0.0
  0
SPLINE
  5
9A
330
1F
100
AcDbEntity
  8
Ebene 1
370
    35
100
AcDbSpline
210
0.0
220
0.0
230
1.0
 70
    24
 71
     3
 72
     8
 73
     4
 74
     0
 42
0.0000000001
 43
0.0000000001
 40
0.0
 40
0.0
 40
0.0
 40
0.0
 40
1.0
 40
1.0
 40
1.0
 40
1.0
 10
23.3472
 20
-2.7865
 30
0.0
 10
23.3472
 20
-2.7865
 30
0.0
 10
20.8089
 20
-2.7865
 30
0.0
 10
20.8089
 20
-2.7865
 30
0.0
  0
SPLINE
  5
9B
330
1F
100
AcDbEntity
  8
Ebene 1
370
    35
100
AcDbSpline
210
0.0
220
0.0
230
1.0
 70
    24
 71
     3
 72
     8
 73
     4
 74
     0
 42
0.0000000001
 43
0.0000000001
 40
0.0
 40
0.0
 40
0.0
 40
0.0
 40
1.0
 40
1.0
 40
1.0
 40
1.0
 10
20.8089
 20
-2.7865
 30
0.0
 10
20.8089
 20
-2.7865
 30
0.0
 10
20.8089
 20
-1.2581
 30
0.0
 10
20.8089
 20
-1.2581
 30
0.0
  0
SPLINE
  5
9C
330
1F
100
AcDbEntity
  8
Ebene 1
370
    35
100
AcDbSpline
210
0.0
220
0.0
230
1.0
 70
    24
 71
     3
 72
   108
 73
   104
 74
     0
 42
0.0000000001
 43
0.0000000001
 40
0.0
 40
0.0
 40
0.0
 40
0.0
 40
0.0384615384615385
 40
0.0384615384615385
 40
0.0384615384615385
 40
0.0384615384615385
 40
0.0769230769230769
 40
0.0769230769230769
 40
0.0769230769230769
 40
0.0769230769230769
 40
0.1153846153846154
 40
0.1153846153846154
 40
0.1153846153846154
 40
0.1153846153846154
 40
0.1538461538461539
 40
0.1538461538461539
 40
0.1538461538461539
 40
0.1538461538461539
 40
0.1923076923076923
 40
0.1923076923076923
 40
0.1923076923076923
 40
0.1923076923076923
 40
0.2307692307692308
 40
0.2307692307692308
 40
0.2307692307692308
 40
0.2307692307692308
 40
0.2692307692307693
 40
0.2692307692307693
 40
0.2692307692307693
 40
0.2692307692307693
 40
0.3076923076923077
 40
0.3076923076923077
 40
0.3076923076923077
 40
0.3076923076923077
 40
0.3461538461538462
 40
0.3461538461538462
 40
0.3461538461538462
 40
0.3461538461538462
 40
0.3846153846153846
 40
0.3846153846153846
 40
0.3846153846153846
 40
0.3846153846153846
 40
0.423076923076923
 40
0.423076923076923
 40
0.423076923076923
 40
0.423076923076923
 40
0.4615384615384615
 40
0.4615384615384615
 40
0.4615384615384615
 40
0.4615384615384615
 40
0.4999999999999999
 40
0.4999999999999999
 40
0.4999999999999999
 40
0.4999999999999999
 40
0.5384615384615383
 40
0.5384615384615383
 40
0.5384615384615383
 40
0.5384615384615383
 40
0.5769230769230768
 40
0.5769230769230768
 40
0.5769230769230768
 40
0.5769230769230768
 40
0.6153846153846152
 40
0.6153846153846152
 40
0.6153846153846152
 40
0.6153846153846152
 40
0.6538461538461536
 40
0.6538461538461536
 40
0.6538461538461536
 40
0.6538461538461536
 40
0.6923076923076921
 40
0.6923076923076921
 40
0.6923076923076921
 40
0.6923076923076921
 40
0.7307692307692305
 40
0.7307692307692305
 40
0.7307692307692305
 40
0.7307692307692305
 40
0.7692307692307689
 40
0.7692307692307689
 40
0.7692307692307689
 40
0.7692307692307689
 40
0.8076923076923074
 40
0.8076923076923074
 40
0.8076923076923074
 40
0.8076923076923074
 40
0.8461538461538458
 40
0.8461538461538458
 40
0.8461538461538458
 40
0.8461538461538458
 40
0.8846153846153843
 40
0.8846153846153843
 40
0.8846153846153843
 40
0.8846153846153843
 40
0.9230769230769227
 40
0.9230769230769227
 40
0.9230769230769227
 40
0.9230769230769227
 40
0.9615384615384611
 40
0.9615384615384611
 40
0.9615384615384611
 40
0.9615384615384611
 40
1.0
 40
1.0
 40
1.0
 40
1.0
 10
13.5485
 20
11.8979
 30
0.0
 10
13.5485
 20
11.8979
 30
0.0
 10
13.5759
 20
11.8979
 30
0.0
 10
13.5759
 20
11.8979
 30
0.0
 10
13.5759
 20
11.8979
 30
0.0
 10
13.5759
 20
11.8979
 30
0.0
 10
13.6304
 20
11.8979
 30
0.0
 10
13.6304
 20
11.8979
 30
0.0
 10
13.6304
 20
11.8979
 30
0.0
 10
13.6304
 20
11.8979
 30
0.0
 10
13.7397
 20
11.8979
 30
0.0
 10
13.7397
 20
11.8979
 30
0.0
 10
13.7397
 20
11.8979
 30
0.0
 10
13.7397
 20
11.8979
 30
0.0
 10
13.9034
 20
11.8979
 30
0.0
 10
13.9034
 20
11.8979
 30
0.0
 10
13.9034
 20
11.8979
 30
0.0
 10
13.9034
 20
11.8979
 30
0.0
 10
14.0945
 20
11.8979
 30
0.0
 10
14.0945
 20
11.8979
 30
0.0
 10
14.0945
 20
11.8979
 30
0.0
 10
14.0945
 20
11.8979
 30
0.0
 10
14.3128
 20
11.8979
 30
0.0
 10
14.3128
 20
11.8979
 30
0.0
 10
14.3128
 20
11.8979
 30
0.0
 10
14.3128
 20
11.8979
 30
0.0
 10
14.5585
 20
11.8979
 30
0.0
 10
14.5585
 20
11.8979
 30
0.0
 10
14.5585
 20
11.8979
 30
0.0
 10
14.5585
 20
11.8979
 30
0.0
 10
14.8587
 20
11.8979
 30
0.0
 10
14.8587
 20
11.8979
 30
0.0
 10
14.8587
 20
11.8979
 30
0.0
 10
14.8587
 20
11.8979
 30
0.0
 10
15.1589
 20
11.8979
 30
0.0
 10
15.1589
 20
11.8979
 30
0.0
 10
15.1589
 20
11.8979
 30
0.0
 10
15.1589
 20
11.8979
 30
0.0
 10
15.4864
 20
11.8979
 30
0.0
 10
15.4864
 20
11.8979
 30
0.0
 10
15.4864
 20
11.8979
 30
0.0
 10
15.4864
 20
11.8979
 30
0.0
 10
15.8413
 20
11.8979
 30
0.0
 10
15.8413
 20
11.8979
 30
0.0
 10
15.8413
 20
11.8979
 30
0.0
 10
15.8413
 20
11.8979
 30
0.0
 10
16.1962
 20
11.8979
 30
0.0
 10
16.1962
 20
11.8979
 30
0.0
 10
16.1962
 20
11.8979
 30
0.0
 10
16.1962
 20
11.8979
 30
0.0
 10
16.5782
 20
11.8979
 30
0.0
 10
16.5782
 20
11.8979
 30
0.0
 10
16.5782
 20
11.8979
 30
0.0
 10
16.5782
 20
11.8979
 30
0.0
 10
16.9331
 20
11.8979
 30
0.0
 10
16.9331
 20
11.8979
 30
0.0
 10
16.9331
 20
11.8979
 30
0.0
 10
16.9331
 20
11.8979
 30
0.0
 10
17.2879
 20
11.8979
 30
0.0
 10
17.2879
 20
11.8979
 30
0.0
 10
17.2879
 20
11.8979
 30
0.0
 10
17.2879
 20
11.8979
 30
0.0
 10
17.6427
 20
11.8979
 30
0.0
 10
17.6427
 20
11.8979
 30
0.0
 10
17.6427
 20
11.8979
 30
0.0
 10
17.6427
 20
11.8979
 30
0.0
 10
17.9702
 20
11.8979
 30
0.0
 10
17.9702
 20
11.8979
 30
0.0
 10
17.9702
 20
11.8979
 30
0.0
 10
17.9702
 20
11.8979
 30
0.0
 10
18.2705
 20
11.8979
 30
0.0
 10
18.2705
 20
11.8979
 30
0.0
 10
18.2705
 20
11.8979
 30
0.0
 10
18.2705
 20
11.8979
 30
0.0
 10
18.5707
 20
11.8979
 30
0.0
 10
18.5707
 20
11.8979
 30
0.0
 10
18.5707
 20
11.8979
 30
0.0
 10
18.5707
 20
11.8979
 30
0.0
 10
18.8164
 20
11.8979
 30
0.0
 10
18.8164
 20
11.8979
 30
0.0
 10
18.8164
 20
11.8979
 30
0.0
 10
18.8164
 20
11.8979
 30
0.0
 10
19.062
 20
11.8979
 30
0.0
 10
19.062
 20
11.8979
 30
0.0
 10
19.062
 20
11.8979
 30
0.0
 10
19.062
 20
11.8979
 30
0.0
 10
19.2258
 20
11.8979
 30
0.0
 10
19.2258
 20
11.8979
 30
0.0
 10
19.2258
 20
11.8979
 30
0.0
 10
19.2258
 20
11.8979
 30
0.0
 10
19.3896
 20
11.8979
 30
0.0
 10
19.3896
 20
11.8979
 30
0.0
 10
19.3896
 20
11.8979
 30
0.0
 10
19.3896
 20
11.8979
 30
0.0
 10
19.4988
 20
11.8979
 30
0.0
 10
19.4988
 20
11.8979
 30
0.0
 10
19.4988
 20
11.8979
 30
0.0
 10
19.4988
 20
11.8979
 30
0.0
 10
19.5533
 20
11.8979
 30
0.0
 10
19.5533
 20
11.8979
 30
0.0
 10
19.5533
 20
11.8979
 30
0.0
 10
19.5533
 20
11.8979
 30
0.0
 10
19.5806
 20
11.8979
 30
0.0
 10
19.5806
 20
11.8979
 30
0.0
  0
SPLINE
  5
9D
330
1F
100
AcDbEntity
  8
Ebene 1
370
    35
100
AcDbSpline
210
0.0
220
0.0
230
1.0
 70
    24
 71
     3
 72
   108
 73
   104
 74
     0
 42
0.0000000001
 43
0.0000000001
 40
0.0
 40
0.0
 40
0.0
 40
0.0
 40
0.0384615384615385
 40
0.0384615384615385
 40
0.0384615384615385
 40
0.0384615384615385
 40
0.0769230769230769
 40
0.0769230769230769
 40
0.0769230769230769
 40
0.0769230769230769
 40
0.1153846153846154
 40
0.1153846153846154
 40
0.1153846153846154
 40
0.1153846153846154
 40
0.1538461538461539
 40
0.1538461538461539
 40
0.1538461538461539
 40
0.1538461538461539
 40
0.1923076923076923
 40
0.1923076923076923
 40
0.1923076923076923
 40
0.1923076923076923
 40
0.2307692307692308
 40
0.2307692307692308
 40
0.2307692307692308
 40
0.2307692307692308
 40
0.2692307692307693
 40
0.2692307692307693
 40
0.2692307692307693
 40
0.2692307692307693
 40
0.3076923076923077
 40
0.3076923076923077
 40
0.3076923076923077
 40
0.3076923076923077
 40
0.3461538461538462
 40
0.3461538461538462
 40
0.3461538461538462
 40
0.3461538461538462
 40
0.3846153846153846
 40
0.3846153846153846
 40
0.3846153846153846
 40
0.3846153846153846
 40
0.423076923076923
 40
0.423076923076923
 40
0.423076923076923
 40
0.423076923076923
 40
0.4615384615384615
 40
0.4615384615384615
 40
0.4615384615384615
 40
0.4615384615384615
 40
0.4999999999999999
 40
0.4999999999999999
 40
0.4999999999999999
 40
0.4999999999999999
 40
0.5384615384615383
 40
0.5384615384615383
 40
0.5384615384615383
 40
0.5384615384615383
 40
0.5769230769230768
 40
0.5769230769230768
 40
0.5769230769230768
 40
0.5769230769230768
 40
0.6153846153846152
 40
0.6153846153846152
 40
0.6153846153846152
 40
0.6153846153846152
 40
0.6538461538461536
 40
0.6538461538461536
 40
0.6538461538461536
 40
0.6538461538461536
 40
0.6923076923076921
 40
0.6923076923076921
 40
0.6923076923076921
 40
0.6923076923076921
 40
0.7307692307692305
 40
0.7307692307692305
 40
0.7307692307692305
 40
0.7307692307692305
 40
0.7692307692307689
 40
0.7692307692307689
 40
0.7692307692307689
 40
0.7692307692307689
 40
0.8076923076923074
 40
0.8076923076923074
 40
0.8076923076923074
 40
0.8076923076923074
 40
0.8461538461538458
 40
0.8461538461538458
 40
0.8461538461538458
 40
0.8461538461538458
 40
0.8846153846153843
 40
0.8846153846153843
 40
0.8846153846153843
 40
0.8846153846153843
 40
0.9230769230769227
 40
0.9230769230769227
 40
0.9230769230769227
 40
0.9230769230769227
 40
0.9615384615384611
 40
0.9615384615384611
 40
0.9615384615384611
 40
0.9615384615384611
 40
1.0
 40
1.0
 40
1.0
 40
1.0
 10
19.5806
 20
3.382
 30
0.0
 10
19.5806
 20
3.382
 30
0.0
 10
19.5533
 20
3.382
 30
0.0
 10
19.5533
 20
3.382
 30
0.0
 10
19.5533
 20
3.382
 30
0.0
 10
19.5533
 20
3.382
 30
0.0
 10
19.4988
 20
3.382
 30
0.0
 10
19.4988
 20
3.382
 30
0.0
 10
19.4988
 20
3.382
 30
0.0
 10
19.4988
 20
3.382
 30
0.0
 10
19.3896
 20
3.382
 30
0.0
 10
19.3896
 20
3.382
 30
0.0
 10
19.3896
 20
3.382
 30
0.0
 10
19.3896
 20
3.382
 30
0.0
 10
19.2258
 20
3.382
 30
0.0
 10
19.2258
 20
3.382
 30
0.0
 10
19.2258
 20
3.382
 30
0.0
 10
19.2258
 20
3.382
 30
0.0
 10
19.062
 20
3.382
 30
0.0
 10
19.062
 20
3.382
 30
0.0
 10
19.062
 20
3.382
 30
0.0
 10
19.062
 20
3.382
 30
0.0
 10
18.8164
 20
3.382
 30
0.0
 10
18.8164
 20
3.382
 30
0.0
 10
18.8164
 20
3.382
 30
0.0
 10
18.8164
 20
3.382
 30
0.0
 10
18.5707
 20
3.382
 30
0.0
 10
18.5707
 20
3.382
 30
0.0
 10
18.5707
 20
3.382
 30
0.0
 10
18.5707
 20
3.382
 30
0.0
 10
18.2705
 20
3.382
 30
0.0
 10
18.2705
 20
3.382
 30
0.0
 10
18.2705
 20
3.382
 30
0.0
 10
18.2705
 20
3.382
 30
0.0
 10
17.9702
 20
3.382
 30
0.0
 10
17.9702
 20
3.382
 30
0.0
 10
17.9702
 20
3.382
 30
0.0
 10
17.9702
 20
3.382
 30
0.0
 10
17.6427
 20
3.382
 30
0.0
 10
17.6427
 20
3.382
 30
0.0
 10
17.6427
 20
3.382
 30
0.0
 10
17.6427
 20
3.382
 30
0.0
 10
17.2879
 20
3.382
 30
0.0
 10
17.2879
 20
3.382
 30
0.0
 10
17.2879
 20
3.382
 30
0.0
 10
17.2879
 20
3.382
 30
0.0
 10
16.9331
 20
3.382
 30
0.0
 10
16.9331
 20
3.382
 30
0.0
 10
16.9331
 20
3.382
 30
0.0
 10
16.9331
 20
3.382
 30
0.0
 10
16.5782
 20
3.382
 30
0.0
 10
16.5782
 20
3.382
 30
0.0
 10
16.5782
 20
3.382
 30
0.0
 10
16.5782
 20
3.382
 30
0.0
 10
16.1962
 20
3.382
 30
0.0
 10
16.1962
 20
3.382
 30
0.0
 10
16.1962
 20
3.382
 30
0.0
 10
16.1962
 20
3.382
 30
0.0
 10
15.8413
 20
3.382
 30
0.0
 10
15.8413
 20
3.382
 30
0.0
 10
15.8413
 20
3.382
 30
0.0
 10
15.8413
 20
3.382
 30
0.0
 10
15.4864
 20
3.382
 30
0.0
 10
15.4864
 20
3.382
 30
0.0
 10
15.4864
 20
3.382
 30
0.0
 10
15.4864
 20
3.382
 30
0.0
 10
15.1589
 20
3.382
 30
0.0
 10
15.1589
 20
3.382
 30
0.0
 10
15.1589
 20
3.382
 30
0.0
 10
15.1589
 20
3.382
 30
0.0
 10
14.8587
 20
3.382
 30
0.0
 10
14.8587
 20
3.382
 30
0.0
 10
14.8587
 20
3.382
 30
0.0
 10
14.8587
 20
3.382
 30
0.0
 10
14.5585
 20
3.382
 30
0.0
 10
14.5585
 20
3.382
 30
0.0
 10
14.5585
 20
3.382
 30
0.0
 10
14.5585
 20
3.382
 30
0.0
 10
14.3128
 20
3.382
 30
0.0
 10
14.3128
 20
3.382
 30
0.0
 10
14.3128
 20
3.382
 30
0.0
 10
14.3128
 20
3.382
 30
0.0
 10
14.0945
 20
3.382
 30
0.0
 10
14.0945
 20
3.382
 30
0.0
 10
14.0945
 20
3.382
 30
0.0
 10
14.0945
 20
3.382
 30
0.0
 10
13.9034
 20
3.382
 30
0.0
 10
13.9034
 20
3.382
 30
0.0
 10
13.9034
 20
3.382
 30
0.0
 10
13.9034
 20
3.382
 30
0.0
 10
13.7397
 20
3.382
 30
0.0
 10
13.7397
 20
3.382
 30
0.0
 10
13.7397
 20
3.382
 30
0.0
 10
13.7397
 20
3.382
 30
0.0
 10
13.6304
 20
3.382
 30
0.0
 10
13.6304
 20
3.382
 30
0.0
 10
13.6304
 20
3.382
 30
0.0
 10
13.6304
 20
3.382
 30
0.0
 10
13.5759
 20
3.382
 30
0.0
 10
13.5759
 20
3.382
 30
0.0
 10
13.5759
 20
3.382
 30
0.0
 10
13.5759
 20
3.382
 30
0.0
 10
13.5485
 20
3.382
 30
0.0
 10
13.5485
 20
3.382
 30
0.0
  0
SPLINE
  5
9E
330
1F
100
AcDbEntity
  8
Ebene 1
370
    35
100
AcDbSpline
210
0.0
220
0.0
230
1.0
 70
    24
 71
     3
 72
     8
 73
     4
 74
     0
 42
0.0000000001
 43
0.0000000001
 40
0.0
 40
0.0
 40
0.0
 40
0.0
 40
1.0
 40
1.0
 40
1.0
 40
1.0
 10
26.8136
 20
9.5779
 30
0.0
 10
26.8136
 20
9.5779
 30
0.0
 10
26.8136
 20
6.493600000000001
 30
0.0
 10
26.8136
 20
6.493600000000001
 30
0.0
  0
SPLINE
  5
9F
330
1F
100
AcDbEntity
  8
Ebene 1
370
    35
100
AcDbSpline
210
0.0
220
0.0
230
1.0
 70
    24
 71
     3
 72
    40
 73
    36
 74
     0
 42
0.0000000001
 43
0.0000000001
 40
0.0
 40
0.0
 40
0.0
 40
0.0
 40
0.1111111111111111
 40
0.1111111111111111
 40
0.1111111111111111
 40
0.1111111111111111
 40
0.2222222222222222
 40
0.2222222222222222
 40
0.2222222222222222
 40
0.2222222222222222
 40
0.3333333333333333
 40
0.3333333333333333
 40
0.3333333333333333
 40
0.3333333333333333
 40
0.4444444444444444
 40
0.4444444444444444
 40
0.4444444444444444
 40
0.4444444444444444
 40
0.5555555555555556
 40
0.5555555555555556
 40
0.5555555555555556
 40
0.5555555555555556
 40
0.6666666666666667
 40
0.6666666666666667
 40
0.6666666666666667
 40
0.6666666666666667
 40
0.7777777777777779
 40
0.7777777777777779
 40
0.7777777777777779
 40
0.7777777777777779
 40
0.8888888888888891
 40
0.8888888888888891
 40
0.8888888888888891
 40
0.8888888888888891
 40
1.0
 40
1.0
 40
1.0
 40
1.0
 10
26.8136
 20
6.493600000000001
 30
0.0
 10
26.8136
 20
6.493600000000001
 30
0.0
 10
27.0866
 20
6.493600000000001
 30
0.0
 10
27.0866
 20
6.493600000000001
 30
0.0
 10
27.0866
 20
6.493600000000001
 30
0.0
 10
27.0866
 20
6.493600000000001
 30
0.0
 10
27.3596
 20
6.493600000000001
 30
0.0
 10
27.3596
 20
6.493600000000001
 30
0.0
 10
27.3596
 20
6.493600000000001
 30
0.0
 10
27.3596
 20
6.493600000000001
 30
0.0
 10
27.5779
 20
6.493600000000001
 30
0.0
 10
27.5779
 20
6.493600000000001
 30
0.0
 10
27.5779
 20
6.493600000000001
 30
0.0
 10
27.5779
 20
6.493600000000001
 30
0.0
 10
27.8236
 20
6.493600000000001
 30
0.0
 10
27.8236
 20
6.493600000000001
 30
0.0
 10
27.8236
 20
6.493600000000001
 30
0.0
 10
27.8236
 20
6.493600000000001
 30
0.0
 10
28.0146
 20
6.493600000000001
 30
0.0
 10
28.0146
 20
6.493600000000001
 30
0.0
 10
28.0146
 20
6.493600000000001
 30
0.0
 10
28.0146
 20
6.493600000000001
 30
0.0
 10
28.1511
 20
6.493600000000001
 30
0.0
 10
28.1511
 20
6.493600000000001
 30
0.0
 10
28.1511
 20
6.493600000000001
 30
0.0
 10
28.1511
 20
6.493600000000001
 30
0.0
 10
28.2602
 20
6.493600000000001
 30
0.0
 10
28.2602
 20
6.493600000000001
 30
0.0
 10
28.2602
 20
6.493600000000001
 30
0.0
 10
28.2602
 20
6.493600000000001
 30
0.0
 10
28.3422
 20
6.493600000000001
 30
0.0
 10
28.3422
 20
6.493600000000001
 30
0.0
 10
28.3422
 20
6.493600000000001
 30
0.0
 10
28.3422
 20
6.493600000000001
 30
0.0
 10
28.3694
 20
6.493600000000001
 30
0.0
 10
28.3694
 20
6.493600000000001
 30
0.0
  0
SPLINE
  5
A0
330
1F
100
AcDbEntity
  8
Ebene 1
370
    35
100
AcDbSpline
210
0.0
220
0.0
230
1.0
 70
    24
 71
     3
 72
     8
 73
     4
 74
     0
 42
0.0000000001
 43
0.0000000001
 40
0.0
 40
0.0
 40
0.0
 40
0.0
 40
1.0
 40
1.0
 40
1.0
 40
1.0
 10
6.3155
 20
9.5779
 30
0.0
 10
6.3155
 20
9.5779
 30
0.0
 10
6.3155
 20
6.493600000000001
 30
0.0
 10
6.3155
 20
6.493600000000001
 30
0.0
  0
SPLINE
  5
A1
330
1F
100
AcDbEntity
  8
Ebene 1
370
    35
100
AcDbSpline
210
0.0
220
0.0
230
1.0
 70
    24
 71
     3
 72
    40
 73
    36
 74
     0
 42
0.0000000001
 43
0.0000000001
 40
0.0
 40
0.0
 40
0.0
 40
0.0
 40
0.1111111111111111
 40
0.1111111111111111
 40
0.1111111111111111
 40
0.1111111111111111
 40
0.2222222222222222
 40
0.2222222222222222
 40
0.2222222222222222
 40
0.2222222222222222
 40
0.3333333333333333
 40
0.3333333333333333
 40
0.3333333333333333
 40
0.3333333333333333
 40
0.4444444444444444
 40
0.4444444444444444
 40
0.4444444444444444
 40
0.4444444444444444
 40
0.5555555555555556
 40
0.5555555555555556
 40
0.5555555555555556
 40
0.5555555555555556
 40
0.6666666666666667
 40
0.6666666666666667
 40
0.6666666666666667
 40
0.6666666666666667
 40
0.7777777777777779
 40
0.7777777777777779
 40
0.7777777777777779
 40
0.7777777777777779
 40
0.8888888888888891
 40
0.8888888888888891
 40
0.8888888888888891
 40
0.8888888888888891
 40
1.0
 40
1.0
 40
1.0
 40
1.0
 10
4.7598
 20
6.493600000000001
 30
0.0
 10
4.7598
 20
6.493600000000001
 30
0.0
 10
4.787
 20
6.493600000000001
 30
0.0
 10
4.787
 20
6.493600000000001
 30
0.0
 10
4.787
 20
6.493600000000001
 30
0.0
 10
4.787
 20
6.493600000000001
 30
0.0
 10
4.8689
 20
6.493600000000001
 30
0.0
 10
4.8689
 20
6.493600000000001
 30
0.0
 10
4.8689
 20
6.493600000000001
 30
0.0
 10
4.8689
 20
6.493600000000001
 30
0.0
 10
4.9781
 20
6.493600000000001
 30
0.0
 10
4.9781
 20
6.493600000000001
 30
0.0
 10
4.9781
 20
6.493600000000001
 30
0.0
 10
4.9781
 20
6.493600000000001
 30
0.0
 10
5.141900000000001
 20
6.493600000000001
 30
0.0
 10
5.141900000000001
 20
6.493600000000001
 30
0.0
 10
5.141900000000001
 20
6.493600000000001
 30
0.0
 10
5.141900000000001
 20
6.493600000000001
 30
0.0
 10
5.3329
 20
6.493600000000001
 30
0.0
 10
5.3329
 20
6.493600000000001
 30
0.0
 10
5.3329
 20
6.493600000000001
 30
0.0
 10
5.3329
 20
6.493600000000001
 30
0.0
 10
5.5513
 20
6.493600000000001
 30
0.0
 10
5.5513
 20
6.493600000000001
 30
0.0
 10
5.5513
 20
6.493600000000001
 30
0.0
 10
5.5513
 20
6.493600000000001
 30
0.0
 10
5.7969
 20
6.493600000000001
 30
0.0
 10
5.7969
 20
6.493600000000001
 30
0.0
 10
5.7969
 20
6.493600000000001
 30
0.0
 10
5.7969
 20
6.493600000000001
 30
0.0
 10
6.0426
 20
6.493600000000001
 30
0.0
 10
6.0426
 20
6.493600000000001
 30
0.0
 10
6.0426
 20
6.493600000000001
 30
0.0
 10
6.0426
 20
6.493600000000001
 30
0.0
 10
6.3155
 20
6.493600000000001
 30
0.0
 10
6.3155
 20
6.493600000000001
 30
0.0
  0
SPLINE
  5
A2
330
1F
100
AcDbEntity
  8
Ebene 1
370
    35
100
AcDbSpline
210
0.0
220
0.0
230
1.0
 70
    24
 71
     3
 72
     8
 73
     4
 74
     0
 42
0.0000000001
 43
0.0000000001
 40
0.0
 40
0.0
 40
0.0
 40
0.0
 40
1.0
 40
1.0
 40
1.0
 40
1.0
 10
6.3155
 20
6.493600000000001
 30
0.0
 10
6.3155
 20
6.493600000000001
 30
0.0
 10
9.0177
 20
6.493600000000001
 30
0.0
 10
9.0177
 20
6.493600000000001
 30
0.0
  0
SPLINE
  5
A3
330
1F
100
AcDbEntity
  8
Ebene 1
370
    35
100
AcDbSpline
210
0.0
220
0.0
230
1.0
 70
    24
 71
     3
 72
     8
 73
     4
 74
     0
 42
0.0000000001
 43
0.0000000001
 40
0.0
 40
0.0
 40
0.0
 40
0.0
 40
1.0
 40
1.0
 40
1.0
 40
1.0
 10
24.1115
 20
6.493600000000001
 30
0.0
 10
24.1115
 20
6.493600000000001
 30
0.0
 10
26.8136
 20
6.493600000000001
 30
0.0
 10
26.8136
 20
6.493600000000001
 30
0.0
  0
SPLINE
  5
A4
330
1F
100
AcDbEntity
  8
Ebene 1
  6
New Line1
 62
   250
370
     5
100
AcDbSpline
210
0.0
220
0.0
230
1.0
 70
    24
 71
     3
 72
     8
 73
     4
 74
     0
 42
0.0000000001
 43
0.0000000001
 40
0.0
 40
0.0
 40
0.0
 40
0.0
 40
1.0
 40
1.0
 40
1.0
 40
1.0
 10
16.5782
 20
11.8979
 30
0.0
 10
16.5782
 20
11.8979
 30
0.0
 10
16.5782
 20
-2.7915
 30
0.0
 10
16.5782
 20
-2.7915
 30
0.0
  0
ENDSEC
  0
SECTION
  2
OBJECTS
  0
DICTIONARY
  5
C
330
0
100
AcDbDictionary
281
     1
  3
ACAD_GROUP
350
D
  3
ACAD_LAYOUT
350
1A
  3
ACAD_MLINESTYLE
350
17
  3
ACAD_PLOTSETTINGS
350
19
  3
ACAD_PLOTSTYLENAME
350
E
  0
DICTIONARY
  5
D
102
{ACAD_REACTORS
330
C
102
}
330
C
100
AcDbDictionary
281
     1
  0
DICTIONARY
  5
1A
102
{ACAD_REACTORS
330
C
102
}
330
C
100
AcDbDictionary
281
     1
  3
Layout1
350
1E
  3
Layout2
350
26
  3
Model
350
22
  0
DICTIONARY
  5
17
102
{ACAD_REACTORS
330
C
102
}
330
C
100
AcDbDictionary
281
     1
  3
Standard
350
18
  0
DICTIONARY
  5
19
102
{ACAD_REACTORS
330
C
102
}
330
C
100
AcDbDictionary
281
     1
  0
ACDBDICTIONARYWDFLT
  5
E
102
{ACAD_REACTORS
330
C
102
}
330
C
100
AcDbDictionary
281
     1
  3
Normal
350
F
100
AcDbDictionaryWithDefault
340
F
  0
LAYOUT
  5
1E
102
{ACAD_REACTORS
330
1A
102
}
330
1A
100
AcDbPlotSettings
  1

  2

  4

  6

 40
0.0
 41
0.0
 42
0.0
 43
0.0
 44
0.0
 45
0.0
 46
0.0
 47
0.0
 48
0.0
 49
0.0
140
0.0
141
0.0
142
1.0
143
1.0
 70
   688
 72
     0
 73
     0
 74
     5
  7

 75
    16
 76
     0
 77
     2
 78
   300
147
1.0
148
0.0
149
0.0
100
AcDbLayout
  1
Layout1
 70
     1
 71
     1
 10
0.0
 20
0.0
 11
12.0
 21
9.0
 12
0.0
 22
0.0
 32
0.0
 14
1.000000000000000E+20
 24
1.000000000000000E+20
 34
1.000000000000000E+20
 15
-1.000000000000000E+20
 25
-1.000000000000000E+20
 35
-1.000000000000000E+20
146
0.0
 13
0.0
 23
0.0
 33
0.0
 16
1.0
 26
0.0
 36
0.0
 17
0.0
 27
1.0
 37
0.0
 76
     0
330
1B
  0
LAYOUT
  5
26
102
{ACAD_REACTORS
330
1A
102
}
330
1A
100
AcDbPlotSettings
  1

  2

  4

  6

 40
0.0
 41
0.0
 42
0.0
 43
0.0
 44
0.0
 45
0.0
 46
0.0
 47
0.0
 48
0.0
 49
0.0
140
0.0
141
0.0
142
1.0
143
1.0
 70
   688
 72
     0
 73
     0
 74
     5
  7

 75
    16
 76
     0
 77
     2
 78
   300
147
1.0
148
0.0
149
0.0
100
AcDbLayout
  1
Layout2
 70
     1
 71
     2
 10
0.0
 20
0.0
 11
0.0
 21
0.0
 12
0.0
 22
0.0
 32
0.0
 14
0.0
 24
0.0
 34
0.0
 15
0.0
 25
0.0
 35
0.0
146
0.0
 13
0.0
 23
0.0
 33
0.0
 16
1.0
 26
0.0
 36
0.0
 17
0.0
 27
1.0
 37
0.0
 76
     0
330
23
  0
LAYOUT
  5
22
102
{ACAD_REACTORS
330
1A
102
}
330
1A
100
AcDbPlotSettings
  1

  2

  4

  6

 40
0.0
 41
0.0
 42
0.0
 43
0.0
 44
0.0
 45
0.0
 46
0.0
 47
0.0
 48
0.0
 49
0.0
140
0.0
141
0.0
142
1.0
143
1.0
 70
  1712
 72
     0
 73
     0
 74
     0
  7

 75
     0
 76
     0
 77
     2
 78
   300
147
1.0
148
0.0
149
0.0
100
AcDbLayout
  1
Model
 70
     1
 71
     0
 10
0.0
 20
0.0
 11
0.0
 21
0.0
 12
0.0
 22
0.0
 32
0.0
 14
-20.0211
 24
-12.1566
 34
0.0
 15
31.2953
 25
27.5626
 35
0.0
146
0.0
 13
0.0
 23
0.0
 33
0.0
 16
1.0
 26
0.0
 36
0.0
 17
0.0
 27
1.0
 37
0.0
 76
     0
330
1F
  0
MLINESTYLE
  5
18
102
{ACAD_REACTORS
330
17
102
}
330
17
100
AcDbMlineStyle
  2
Standard
 70
     0
  3

 62
   256
 51
90.0
 52
90.0
 71
     2
 49
0.5
 62
   256
  6
BYLAYER
 49
-0.5
 62
   256
  6
BYLAYER
  0
ACDBPLACEHOLDER
  5
F
102
{ACAD_REACTORS
330
E
102
}
330
E
  0
ENDSEC
  0
EOF
