  0
SECTION
  2
HEADER
  9
$ACADVER
  1
AC1015
  9
$ACADMAINTVER
 70
     6
  9
$DWGCODEPAGE
  3
DOS850
  9
$INSBASE
 10
0.0
 20
0.0
 30
0.0
  9
$EXTMIN
 10
-86.3619
 20
-66.3693
 30
1.000000E+20
  9
$EXTMAX
 10
11.5761
 20
66.6535
 30
-1.000000E+20
  9
$LIMMIN
 10
0.0
 20
0.0
  9
$LIMMAX
 10
0.0
 20
0.0
  9
$ORTHOMODE
 70
     0
  9
$REGENMODE
 70
     1
  9
$FILLMODE
 70
     1
  9
$QTEXTMODE
 70
     0
  9
$MIRRTEXT
 70
     1
  9
$LTSCALE
 40
1.0
  9
$ATTMODE
 70
     1
  9
$TEXTSIZE
 40
0.2
  9
$TRACEWID
 40
0.05
  9
$TEXTSTYLE
  7
Standard
  9
$CLAYER
  8
0
  9
$CELTYPE
  6
Continuous
  9
$CECOLOR
 62
   256
  9
$CELTSCALE
 40
1.0
  9
$DISPSILH
 70
     0
  9
$DIMSCALE
 40
1.0
  9
$DIMASZ
 40
0.18
  9
$DIMEXO
 40
0.0625
  9
$DIMDLI
 40
0.38
  9
$DIMRND
 40
0.0
  9
$DIMDLE
 40
0.0
  9
$DIMEXE
 40
0.18
  9
$DIMTP
 40
0.0
  9
$DIMTM
 40
0.0
  9
$DIMTXT
 40
0.18
  9
$DIMCEN
 40
0.09
  9
$DIMTSZ
 40
0.0
  9
$DIMTOL
 70
     0
  9
$DIMLIM
 70
     0
  9
$DIMTIH
 70
     1
  9
$DIMTOH
 70
     1
  9
$DIMSE1
 70
     0
  9
$DIMSE2
 70
     0
  9
$DIMTAD
 70
     0
  9
$DIMZIN
 70
     0
  9
$DIMBLK
  1

  9
$DIMASO
 70
     1
  9
$DIMSHO
 70
     1
  9
$DIMPOST
  1

  9
$DIMAPOST
  1

  9
$DIMALT
 70
     0
  9
$DIMALTD
 70
     2
  9
$DIMALTF
 40
25.4
  9
$DIMLFAC
 40
1.0
  9
$DIMTOFL
 70
     0
  9
$DIMTVP
 40
0.0
  9
$DIMTIX
 70
     0
  9
$DIMSOXD
 70
     0
  9
$DIMSAH
 70
     0
  9
$DIMBLK1
  1

  9
$DIMBLK2
  1

  9
$DIMSTYLE
  2
Standard
  9
$DIMCLRD
 70
     0
  9
$DIMCLRE
 70
     0
  9
$DIMCLRT
 70
     0
  9
$DIMTFAC
 40
1.0
  9
$DIMGAP
 40
0.09
  9
$DIMJUST
 70
     0
  9
$DIMSD1
 70
     0
  9
$DIMSD2
 70
     0
  9
$DIMTOLJ
 70
     1
  9
$DIMTZIN
 70
     0
  9
$DIMALTZ
 70
     0
  9
$DIMALTTZ
 70
     0
  9
$DIMUPT
 70
     0
  9
$DIMDEC
 70
     4
  9
$DIMTDEC
 70
     4
  9
$DIMALTU
 70
     2
  9
$DIMALTTD
 70
     2
  9
$DIMTXSTY
  7
Standard
  9
$DIMAUNIT
 70
     0
  9
$DIMADEC
 70
     0
  9
$DIMALTRND
 40
0.0
  9
$DIMAZIN
 70
     0
  9
$DIMDSEP
 70
     0
  9
$DIMATFIT
 70
     3
  9
$DIMFRAC
 70
     0
  9
$DIMLDRBLK
  1

  9
$DIMLUNIT
 70
     2
  9
$DIMLWD
 70
     0
  9
$DIMLWE
 70
     0
  9
$DIMTMOVE
 70
     0
  9
$LUNITS
 70
     2
  9
$LUPREC
 70
     4
  9
$SKETCHINC
 40
0.1
  9
$FILLETRAD
 40
0.0
  9
$AUNITS
 70
     0
  9
$AUPREC
 70
     0
  9
$MENU
  1
acad
  9
$ELEVATION
 40
0.0
  9
$PELEVATION
 40
0.0
  9
$THICKNESS
 40
0.0
  9
$LIMCHECK
 70
     0
  9
$CHAMFERA
 40
0.0
  9
$CHAMFERB
 40
0.0
  9
$CHAMFERC
 40
0.0
  9
$CHAMFERD
 40
0.0
  9
$SKPOLY
 70
     0
  9
$TDCREATE
 40
0.000000000
  9
$TDUCREATE
 40
0.000000000
  9
$TDUPDATE
 40
0.000000000
  9
$TDUUPDATE
 40
0.000000000
  9
$TDINDWG
 40
0.0000000000
  9
$TDUSRTIMER
 40
0.0000000000
  9
$USRTIMER
 70
     1
  9
$ANGBASE
 50
0.0
  9
$ANGDIR
 70
     0
  9
$PDMODE
 70
     0
  9
$PDSIZE
 40
0.0
  9
$PLINEWID
 40
0.0
  9
$SPLFRAME
 70
     0
  9
$SPLINETYPE
 70
     6
  9
$SPLINESEGS
 70
     8
  9
$HANDSEED
  5
1BE
  9
$SURFTAB1
 70
     6
  9
$SURFTAB2
 70
     6
  9
$SURFTYPE
 70
     6
  9
$SURFU
 70
     6
  9
$SURFV
 70
     6
  9
$UCSBASE
  2

  9
$UCSNAME
  2

  9
$UCSORG
 10
0.0
 20
0.0
 30
0.0
  9
$UCSXDIR
 10
1.0
 20
0.0
 30
0.0
  9
$UCSYDIR
 10
0.0
 20
1.0
 30
0.0
  9
$UCSORTHOREF
  2

  9
$UCSORTHOVIEW
 70
     0
  9
$UCSORGTOP
 10
0.0
 20
0.0
 30
0.0
  9
$UCSORGBOTTOM
 10
0.0
 20
0.0
 30
0.0
  9
$UCSORGLEFT
 10
0.0
 20
0.0
 30
0.0
  9
$UCSORGRIGHT
 10
0.0
 20
0.0
 30
0.0
  9
$UCSORGFRONT
 10
0.0
 20
0.0
 30
0.0
  9
$UCSORGBACK
 10
0.0
 20
0.0
 30
0.0
  9
$PUCSBASE
  2

  9
$PUCSNAME
  2

  9
$PUCSORG
 10
0.0
 20
0.0
 30
0.0
  9
$PUCSXDIR
 10
1.0
 20
0.0
 30
0.0
  9
$PUCSYDIR
 10
0.0
 20
1.0
 30
0.0
  9
$PUCSORTHOREF
  2

  9
$PUCSORTHOVIEW
 70
     0
  9
$PUCSORGTOP
 10
0.0
 20
0.0
 30
0.0
  9
$PUCSORGBOTTOM
 10
0.0
 20
0.0
 30
0.0
  9
$PUCSORGLEFT
 10
0.0
 20
0.0
 30
0.0
  9
$PUCSORGRIGHT
 10
0.0
 20
0.0
 30
0.0
  9
$PUCSORGFRONT
 10
0.0
 20
0.0
 30
0.0
  9
$PUCSORGBACK
 10
0.0
 20
0.0
 30
0.0
  9
$USERI1
 70
     0
  9
$USERI2
 70
     0
  9
$USERI3
 70
     0
  9
$USERI4
 70
     0
  9
$USERI5
 70
     0
  9
$USERR1
 40
0.0
  9
$USERR2
 40
0.0
  9
$USERR3
 40
0.0
  9
$USERR4
 40
0.0
  9
$USERR5
 40
0.0
  9
$WORLDVIEW
 70
     1
  9
$SHADEDGE
 70
     3
  9
$SHADEDIF
 70
    70
  9
$TILEMODE
 70
     1
  9
$MAXACTVP
 70
    16
  9
$PINSBASE
 10
0.0
 20
0.0
 30
0.0
  9
$PLIMCHECK
 70
     0
  9
$PEXTMIN
 10
1.000000E+20
 20
1.000000E+20
 30
1.000000E+20
  9
$PEXTMAX
 10
-1.000000E+20
 20
-1.000000E+20
 30
-1.000000E+20
  9
$PLIMMIN
 10
0.0
 20
0.0
  9
$PLIMMAX
 10
12.0
 20
9.0
  9
$UNITMODE
 70
     0
  9
$VISRETAIN
 70
     0
  9
$PLINEGEN
 70
     1
  9
$PSLTSCALE
 70
     0
  9
$TREEDEPTH
 70
  3020
  9
$CMLSTYLE
  2
Standard
  9
$CMLJUST
 70
     0
  9
$CMLSCALE
 40
1.0
  9
$PROXYGRAPHICS
 70
     0
  9
$MEASUREMENT
 70
     0
  9
$CELWEIGHT
370
     0
  9
$ENDCAPS
280
     0
  9
$JOINSTYLE
280
     0
  9
$LWDISPLAY
290
     0
  9
$INSUNITS
 70
     4
  9
$HYPERLINKBASE
  1

  9
$XEDIT
290
     1
  9
$CEPSNTYPE
380
     0
  9
$PSTYLEMODE
290
     1
  9
$FINGERPRINTGUID
  2

  9
$VERSIONGUID
  2

  9
$EXTNAMES
290
     1
  9
$PSVPSCALE
 40
0.0
  0
ENDSEC
  0
SECTION
  2
CLASSES
  0
CLASS
  1
LWPOLYLINE
  2
AcDbPolyline
  3
AutoCAD 2000
 90
    32768
280
     0
281
     1
  0
CLASS
  1
IMAGE
  2
AcDbRasterImage
  3
ISM
 90
    32895
280
     0
281
     1
  0
CLASS
  1
OLE2FRAME
  2
AcDbOle2Frame
  3
AutoCAD 2000
 90
    32768
280
     0
281
     1
  0
CLASS
  1
HATCH
  2
AcDbHatch
  3
AutoCAD 2000
 90
    32768
280
     0
281
     1
  0
CLASS
  1
DICTIONARYVAR
  2
AcDbDictionaryVar
  3
AutoCAD 2000
 90
    32768
280
     0
281
     0
  0
CLASS
  1
RASTERVARIABLES
  2
AcDbRasterVariables
  3
ISM
 90
    32768
280
     0
281
     0
  0
CLASS
  1
IMAGEDEF
  2
AcDbRasterImageDef
  3
ISM
 90
    32768
280
     0
281
     0
  0
CLASS
  1
IMAGEDEF_REACTOR
  2
AcDbRasterImageDefReactor
  3
ISM
 90
    32769
280
     0
281
     0
  0
CLASS
  1
IDBUFFER
  2
AcDbIdBuffer
  3
AutoCAD 2000
 90
    32768
280
     0
281
     0
  0
CLASS
  1
SPATIAL_FILTER
  2
AcDbSpatialFilter
  3
AutoCAD 2000
 90
    32768
280
     0
281
     0
  0
CLASS
  1
XRECORD
  2
AcDbXrecord
  3
AutoCAD 2000
 90
    32768
280
     0
281
     0
  0
CLASS
  1
SORTENTSTABLE
  2
AcDbSortentsTable
  3
AutoCAD 2000
 90
    32768
280
     0
281
     0
  0
CLASS
  1
LAYER_INDEX
  2
AcDbLayerIndex
  3
AutoCAD 2000
 90
    32768
280
     0
281
     0
  0
CLASS
  1
SPATIAL_INDEX
  2
AcDbSpatialIndex
  3
AutoCAD 2000
 90
    32768
280
     0
281
     0
  0
CLASS
  1
OBJECT_PTR
  2
CAseDLPNTableRecord
  3
"ASE-LPNTableRecord"
 90
    32769
280
     0
281
     0
  0
CLASS
  1
LAYOUT
  2
AcDbLayout
  3
AutoCAD 2000
 90
        0
280
     0
281
     0
  0
CLASS
  1
PLOTSETTINGS
  2
AcDbPlotSettings
  3
AutoCAD 2000
 90
    32768
280
     0
281
     0
  0
CLASS
  1
ACDBDICTIONARYWDFLT
  2
AcDbDictionaryWithDefault
  3
AutoCAD 2000
 90
        0
280
     0
281
     0
  0
CLASS
  1
ACDBPLACEHOLDER
  2
AcDbPlaceHolder
  3
AutoCAD 2000
 90
        0
280
     0
281
     0
  0
CLASS
  1
VBA_PROJECT
  2
AcDbVbaProject
  3
acadvba
 90
    32768
280
     0
281
     0
  0
CLASS
  1
WIPEOUT
  2
AcDbWipeout
  3
WipeOut|AutoCAD Express Tool|expresstools@autodesk.com
 90
    32895
280
     0
281
     1
  0
CLASS
  1
WIPEOUTVARIABLES
  2
AcDbWipeoutVariables
  3
WipeOut|AutoCAD Express Tool|expresstools@autodesk.com
 90
        0
280
     0
281
     0
  0
CLASS
  1
RTEXT
  2
RText
  3
RText|AutoCAD Express Tool|expresstools@autodesk.com
 90
    32768
280
     0
281
     1
  0
CLASS
  1
ARCALIGNEDTEXT
  2
AcDbArcAlignedText
  3
ATEXT|AutoCAD Express Tool|expresstools@autodesk.com
 90
    32768
280
     0
281
     1
  0
ENDSEC
  0
SECTION
  2
TABLES
  0
TABLE
  2
VPORT
  5
7
100
AcDbSymbolTable
 70
     1
  0
VPORT
  5
15
100
AcDbSymbolTableRecord
100
AcDbViewportTableRecord
  2
*ACTIVE
 70
     0
 10
0.0
 20
0.0
 11
1.0
 21
1.0
 12
6.591288
 22
4.579184
 13
0.0
 23
0.0
 14
1.0
 24
1.0
 15
0.0
 25
0.0
 16
0.0
 26
0.0
 36
1.0
 17
0.0
 27
0.0
 37
0.0
 40
9.158369
 41
0.688564
 42
50.0
 43
0.0
 44
0.0
 50
0.0
 51
0.0
 71
     0
 72
   100
 73
     1
 74
     1
 75
     0
 76
     0
 77
     0
 78
     0
281
     0
 65
     0
110
0.0
120
0.0
130
0.0
111
1.0
121
0.0
131
0.0
112
0.0
122
1.0
132
0.0
345
0
346
0
 79
     0
146
0.0
  0
ENDTAB
  0
TABLE
  2
LTYPE
  5
4
100
AcDbSymbolTable
 70
     4
  0
LTYPE
  5
11
100
AcDbSymbolTableRecord
100
AcDbLinetypeTableRecord
  2
ByBlock
 70
    64
  3

 72
    65
 73
     0
 40
0.0
  0
LTYPE
  5
12
100
AcDbSymbolTableRecord
100
AcDbLinetypeTableRecord
  2
ByLayer
 70
    64
  3

 72
    65
 73
     0
 40
0.0
  0
LTYPE
  5
13
100
AcDbSymbolTableRecord
100
AcDbLinetypeTableRecord
  2
Continuous
 70
    64
  3
Solid line
 72
    65
 73
     0
 40
0.0
  0
LTYPE
  5
5E
100
AcDbSymbolTableRecord
100
AcDbLinetypeTableRecord
  2
New Line1
 70
    65
  3

 72
    64
 73
     4
 40
1.2
 49
0.5
 74
     0
 49
-0.3
 74
     0
 49
0.1
 74
     0
 49
-0.3
 74
     0
  0
ENDTAB
  0
TABLE
  2
LAYER
  5
2
100
AcDbSymbolTable
 70
     8
  0
LAYER
  5
14
100
AcDbSymbolTableRecord
100
AcDbLayerTableRecord
  2
0
 70
     0
 62
     7
  6
Continuous
290
     1
370
    -3
390
1D
  0
LAYER
  5
24
100
AcDbSymbolTableRecord
100
AcDbLayerTableRecord
  2
Ebene 1
 70
     0
 62
     7
  6
Continuous
290
     1
370
    -3
390
1F
  0
LAYER
  5
38
100
AcDbSymbolTableRecord
100
AcDbLayerTableRecord
  2
LC-001-002-----0
 70
     0
 62
     7
  6
Continuous
290
     1
370
    -3
390
1F
  0
LAYER
  5
BF
100
AcDbSymbolTableRecord
100
AcDbLayerTableRecord
  2
LC-002-001-----0
 70
     0
 62
     7
  6
Continuous
290
     1
370
    -3
390
1F
  0
LAYER
  5
C9
100
AcDbSymbolTableRecord
100
AcDbLayerTableRecord
  2
LC-003-005-----0
 70
     0
 62
     7
  6
Continuous
290
     1
370
    -3
390
1F
  0
LAYER
  5
168
100
AcDbSymbolTableRecord
100
AcDbLayerTableRecord
  2
LC-004-002-RND-0
 70
     0
 62
     7
  6
Continuous
290
     1
370
    -3
390
1F
  0
LAYER
  5
177
100
AcDbSymbolTableRecord
100
AcDbLayerTableRecord
  2
LC-005-007-KH--0
 70
     0
 62
     7
  6
Continuous
290
     1
370
    -3
390
1F
  0
LAYER
  5
17B
100
AcDbSymbolTableRecord
100
AcDbLayerTableRecord
  2
LC-007-003-----0
 70
     0
 62
     7
  6
Continuous
290
     1
370
    -3
390
1F
  0
ENDTAB
  0
TABLE
  2
STYLE
  5
3
100
AcDbSymbolTable
 70
     1
  0
STYLE
  5
17
100
AcDbSymbolTableRecord
100
AcDbTextStyleTableRecord
  2
Standard
 70
     0
 40
0.0
 41
1.0
 50
0.0
 71
     0
 42
0.0
  3
txt
  4

  0
ENDTAB
  0
TABLE
  2
VIEW
  5
5
100
AcDbSymbolTable
 70
     0
  0
ENDTAB
  0
TABLE
  2
UCS
  5
6
100
AcDbSymbolTable
 70
     0
  0
ENDTAB
  0
TABLE
  2
APPID
  5
8
100
AcDbSymbolTable
 70
     1
  0
APPID
  5
16
100
AcDbSymbolTableRecord
100
AcDbRegAppTableRecord
  2
ACAD
 70
     0
  0
ENDTAB
  0
TABLE
  2
DIMSTYLE
  5
9
100
AcDbSymbolTable
 70
     1
100
AcDbDimStyleTable
 71
     0
  0
DIMSTYLE
105
18
100
AcDbSymbolTableRecord
100
AcDbDimStyleTableRecord
  2
Standard
 70
     0
  3

  4

 40
1.0
 41
0.18
 42
0.0625
 43
0.38
 44
0.18
 45
0.0
 46
0.0
 47
0.0
 48
0.0
 71
     0
 72
     0
 73
     1
 74
     1
 75
     0
 76
     0
 77
     0
 78
     0
 79
     0
140
0.18
141
0.09
142
0.0
143
25.4
144
1.0
145
0.0
146
1.0
147
0.09
148
0.0
170
     0
171
     2
172
     0
173
     0
174
     0
175
     0
176
     0
177
     0
178
     0
179
     0
271
     4
272
     4
273
     2
274
     2
275
     0
276
     0
277
     2
278
    46
279
     0
280
     0
281
     0
282
     0
283
     1
284
     0
285
     0
286
     0
288
     0
340
17
341
0
342
0
343
0
344
0
371
    -2
372
    -2
  0
ENDTAB
  0
TABLE
  2
BLOCK_RECORD
  5
1
100
AcDbSymbolTable
 70
     0
  0
BLOCK_RECORD
  5
A
100
AcDbSymbolTableRecord
100
AcDbBlockTableRecord
  2
*MODEL_SPACE
340
20
  0
BLOCK_RECORD
  5
B
100
AcDbSymbolTableRecord
100
AcDbBlockTableRecord
  2
*PAPER_SPACE
340
21
  0
ENDTAB
  0
ENDSEC
  0
SECTION
  2
BLOCKS
  0
BLOCK
  5
D
100
AcDbEntity
  8
0
100
AcDbBlockBegin
  2
*MODEL_SPACE
 70
     0
 10
0.0
 20
0.0
 30
0.0
  3
*MODEL_SPACE
  1

  0
ENDBLK
  5
E
100
AcDbEntity
  8
0
100
AcDbBlockEnd
  0
BLOCK
  5
F
100
AcDbEntity
 67
     1
  8
0
100
AcDbBlockBegin
  2
*PAPER_SPACE
 70
     0
 10
0.0
 20
0.0
 30
0.0
  3
*PAPER_SPACE
  1

  0
ENDBLK
  5
10
100
AcDbEntity
 67
     1
  8
0
100
AcDbBlockEnd
  0
ENDSEC
  0
SECTION
  2
ENTITIES
  0
SPLINE
  5
25
100
AcDbEntity
  8
Ebene 1
100
AcDbSpline
210
0.0
220
0.0
230
1.0
 70
     1
 71
     3
 72
    52
 73
    48
 74
     0
 42
0.0000000001
 43
0.0000000001
 40
0.0
 40
0.0
 40
0.0
 40
0.0
 40
0.0833333333333333
 40
0.0833333333333333
 40
0.0833333333333333
 40
0.0833333333333333
 40
0.1666666666666667
 40
0.1666666666666667
 40
0.1666666666666667
 40
0.1666666666666667
 40
0.25
 40
0.25
 40
0.25
 40
0.25
 40
0.3333333333333333
 40
0.3333333333333333
 40
0.3333333333333333
 40
0.3333333333333333
 40
0.4166666666666666
 40
0.4166666666666666
 40
0.4166666666666666
 40
0.4166666666666666
 40
0.4999999999999999
 40
0.4999999999999999
 40
0.4999999999999999
 40
0.4999999999999999
 40
0.5833333333333333
 40
0.5833333333333333
 40
0.5833333333333333
 40
0.5833333333333333
 40
0.6666666666666666
 40
0.6666666666666666
 40
0.6666666666666666
 40
0.6666666666666666
 40
0.75
 40
0.75
 40
0.75
 40
0.75
 40
0.8333333333333334
 40
0.8333333333333334
 40
0.8333333333333334
 40
0.8333333333333334
 40
0.9166666666666667
 40
0.9166666666666667
 40
0.9166666666666667
 40
0.9166666666666667
 40
1.0
 40
1.0
 40
1.0
 40
1.0
 10
-78.513900000000007
 20
9.9848999999999997
 30
0.0
 10
-78.513900000000007
 20
9.9848999999999997
 30
0.0
 10
-86.3292
 20
11.615300000000001
 30
0.0
 10
-86.3292
 20
11.615300000000001
 30
0.0
 10
-86.3292
 20
11.615300000000001
 30
0.0
 10
-86.3292
 20
11.615300000000001
 30
0.0
 10
-86.3292
 20
13.9717
 30
0.0
 10
-86.3292
 20
13.9717
 30
0.0
 10
-86.3292
 20
13.9717
 30
0.0
 10
-86.3292
 20
14.537600000000001
 30
0.0
 10
-86.287300000000002
 20
14.968900000000001
 30
0.0
 10
-86.2072
 20
15.267300000000001
 30
0.0
 10
-86.2072
 20
15.267300000000001
 30
0.0
 10
-86.09620000000001
 20
15.693100000000001
 30
0.0
 10
-85.89970000000001
 20
16.057000000000002
 30
0.0
 10
-85.617699999999999
 20
16.360900000000001
 30
0.0
 10
-85.617699999999999
 20
16.360900000000001
 30
0.0
 10
-85.335599999999999
 20
16.6629
 30
0.0
 10
-84.982600000000005
 20
16.8904
 30
0.0
 10
-84.558700000000002
 20
17.043200000000002
 30
0.0
 10
-84.558700000000002
 20
17.043200000000002
 30
0.0
 10
-84.136499999999998
 20
17.194300000000002
 30
0.0
 10
-83.661600000000007
 20
17.270700000000001
 30
0.0
 10
-83.1357
 20
17.270700000000001
 30
0.0
 10
-83.1357
 20
17.270700000000001
 30
0.0
 10
-82.506100000000004
 20
17.270700000000001
 30
0.0
 10
-81.933000000000007
 20
17.176100000000002
 30
0.0
 10
-81.416200000000003
 20
16.986800000000002
 30
0.0
 10
-81.416200000000003
 20
16.986800000000002
 30
0.0
 10
-80.8994
 20
16.7958
 30
0.0
 10
-80.444500000000005
 20
16.548300000000001
 30
0.0
 10
-80.051500000000004
 20
16.2408
 30
0.0
 10
-80.051500000000004
 20
16.2408
 30
0.0
 10
-79.6584
 20
15.933300000000001
 30
0.0
 10
-79.35090000000001
 20
15.6112
 30
0.0
 10
-79.128900000000002
 20
15.274600000000001
 30
0.0
 10
-79.128900000000002
 20
15.274600000000001
 30
0.0
 10
-78.906900000000007
 20
14.9398
 30
0.0
 10
-78.743200000000002
 20
14.541300000000001
 30
0.0
 10
-78.635800000000003
 20
14.0845
 30
0.0
 10
-78.635800000000003
 20
14.0845
 30
0.0
 10
-78.553899999999999
 20
13.735200000000001
 30
0.0
 10
-78.513900000000007
 20
13.307600000000001
 30
0.0
 10
-78.513900000000007
 20
12.7981
 30
0.0
 10
-78.513900000000007
 20
12.7981
 30
0.0
 10
-78.513900000000007
 20
12.7981
 30
0.0
 10
-78.513900000000007
 20
9.9848999999999997
 30
0.0
 10
-78.513900000000007
 20
9.9848999999999997
 30
0.0
  0
SPLINE
  5
26
100
AcDbEntity
  8
Ebene 1
100
AcDbSpline
210
0.0
220
0.0
230
1.0
 70
     1
 71
     3
 72
    48
 73
    44
 74
     0
 42
0.0000000001
 43
0.0000000001
 40
0.0
 40
0.0
 40
0.0
 40
0.0
 40
0.0909090909090909
 40
0.0909090909090909
 40
0.0909090909090909
 40
0.0909090909090909
 40
0.1818181818181818
 40
0.1818181818181818
 40
0.1818181818181818
 40
0.1818181818181818
 40
0.2727272727272727
 40
0.2727272727272727
 40
0.2727272727272727
 40
0.2727272727272727
 40
0.3636363636363637
 40
0.3636363636363637
 40
0.3636363636363637
 40
0.3636363636363637
 40
0.4545454545454546
 40
0.4545454545454546
 40
0.4545454545454546
 40
0.4545454545454546
 40
0.5454545454545455
 40
0.5454545454545455
 40
0.5454545454545455
 40
0.5454545454545455
 40
0.6363636363636365
 40
0.6363636363636365
 40
0.6363636363636365
 40
0.6363636363636365
 40
0.7272727272727274
 40
0.7272727272727274
 40
0.7272727272727274
 40
0.7272727272727274
 40
0.8181818181818183
 40
0.8181818181818183
 40
0.8181818181818183
 40
0.8181818181818183
 40
0.9090909090909093
 40
0.9090909090909093
 40
0.9090909090909093
 40
0.9090909090909093
 40
1.0
 40
1.0
 40
1.0
 40
1.0
 10
-79.398200000000003
 20
11.215
 30
0.0
 10
-79.398200000000003
 20
11.215
 30
0.0
 10
-79.398200000000003
 20
12.452300000000001
 30
0.0
 10
-79.398200000000003
 20
12.452300000000001
 30
0.0
 10
-79.398200000000003
 20
12.452300000000001
 30
0.0
 10
-79.398200000000003
 20
13.011000000000001
 30
0.0
 10
-79.451000000000008
 20
13.5059
 30
0.0
 10
-79.552900000000008
 20
13.939
 30
0.0
 10
-79.552900000000008
 20
13.939
 30
0.0
 10
-79.616600000000005
 20
14.210100000000001
 30
0.0
 10
-79.711200000000005
 20
14.4412
 30
0.0
 10
-79.836800000000011
 20
14.632200000000001
 30
0.0
 10
-79.836800000000011
 20
14.632200000000001
 30
0.0
 10
-79.995100000000008
 20
14.885200000000001
 30
0.0
 10
-80.207999999999998
 20
15.114400000000002
 30
0.0
 10
-80.469999999999999
 20
15.3201
 30
0.0
 10
-80.469999999999999
 20
15.3201
 30
0.0
 10
-80.819400000000002
 20
15.591200000000001
 30
0.0
 10
-81.216000000000008
 20
15.805900000000001
 30
0.0
 10
-81.661799999999999
 20
15.9678
 30
0.0
 10
-81.661799999999999
 20
15.9678
 30
0.0
 10
-82.107600000000005
 20
16.129799999999999
 30
0.0
 10
-82.615300000000005
 20
16.209800000000001
 30
0.0
 10
-83.183000000000007
 20
16.209800000000001
 30
0.0
 10
-83.183000000000007
 20
16.209800000000001
 30
0.0
 10
-83.816299999999998
 20
16.209800000000001
 30
0.0
 10
-84.30210000000001
 20
16.1007
 30
0.0
 10
-84.642400000000009
 20
15.880500000000001
 30
0.0
 10
-84.642400000000009
 20
15.880500000000001
 30
0.0
 10
-84.980800000000002
 20
15.660300000000001
 30
0.0
 10
-85.206500000000005
 20
15.378300000000001
 30
0.0
 10
-85.315600000000003
 20
15.038
 30
0.0
 10
-85.315600000000003
 20
15.038
 30
0.0
 10
-85.397500000000008
 20
14.7851
 30
0.0
 10
-85.439400000000006
 20
14.392000000000001
 30
0.0
 10
-85.439400000000006
 20
13.8589
 30
0.0
 10
-85.439400000000006
 20
13.8589
 30
0.0
 10
-85.439400000000006
 20
13.8589
 30
0.0
 10
-85.439400000000006
 20
12.479600000000001
 30
0.0
 10
-85.439400000000006
 20
12.479600000000001
 30
0.0
 10
-85.439400000000006
 20
12.479600000000001
 30
0.0
 10
-85.439400000000006
 20
12.479600000000001
 30
0.0
 10
-79.398200000000003
 20
11.215
 30
0.0
 10
-79.398200000000003
 20
11.215
 30
0.0
  0
SPLINE
  5
27
100
AcDbEntity
  8
Ebene 1
100
AcDbSpline
210
0.0
220
0.0
230
1.0
 70
     1
 71
     3
 72
    64
 73
    60
 74
     0
 42
0.0000000001
 43
0.0000000001
 40
0.0
 40
0.0
 40
0.0
 40
0.0
 40
0.0666666666666667
 40
0.0666666666666667
 40
0.0666666666666667
 40
0.0666666666666667
 40
0.1333333333333333
 40
0.1333333333333333
 40
0.1333333333333333
 40
0.1333333333333333
 40
0.2
 40
0.2
 40
0.2
 40
0.2
 40
0.2666666666666667
 40
0.2666666666666667
 40
0.2666666666666667
 40
0.2666666666666667
 40
0.3333333333333333
 40
0.3333333333333333
 40
0.3333333333333333
 40
0.3333333333333333
 40
0.4
 40
0.4
 40
0.4
 40
0.4
 40
0.4666666666666666
 40
0.4666666666666666
 40
0.4666666666666666
 40
0.4666666666666666
 40
0.5333333333333333
 40
0.5333333333333333
 40
0.5333333333333333
 40
0.5333333333333333
 40
0.6
 40
0.6
 40
0.6
 40
0.6
 40
0.6666666666666666
 40
0.6666666666666666
 40
0.6666666666666666
 40
0.6666666666666666
 40
0.7333333333333333
 40
0.7333333333333333
 40
0.7333333333333333
 40
0.7333333333333333
 40
0.7999999999999999
 40
0.7999999999999999
 40
0.7999999999999999
 40
0.7999999999999999
 40
0.8666666666666666
 40
0.8666666666666666
 40
0.8666666666666666
 40
0.8666666666666666
 40
0.9333333333333332
 40
0.9333333333333332
 40
0.9333333333333332
 40
0.9333333333333332
 40
1.0
 40
1.0
 40
1.0
 40
1.0
 10
-78.513900000000007
 20
17.916600000000003
 30
0.0
 10
-78.513900000000007
 20
17.916600000000003
 30
0.0
 10
-86.3292
 20
19.552500000000002
 30
0.0
 10
-86.3292
 20
19.552500000000002
 30
0.0
 10
-86.3292
 20
19.552500000000002
 30
0.0
 10
-86.3292
 20
19.552500000000002
 30
0.0
 10
-86.3292
 20
20.566000000000003
 30
0.0
 10
-86.3292
 20
20.566000000000003
 30
0.0
 10
-86.3292
 20
20.566000000000003
 30
0.0
 10
-86.3292
 20
20.566000000000003
 30
0.0
 10
-83.397800000000004
 20
21.883400000000002
 30
0.0
 10
-83.397800000000004
 20
21.883400000000002
 30
0.0
 10
-83.397800000000004
 20
21.883400000000002
 30
0.0
 10
-82.500700000000009
 20
22.2837
 30
0.0
 10
-81.747399999999999
 20
22.6022
 30
0.0
 10
-81.13600000000001
 20
22.8369
 30
0.0
 10
-81.13600000000001
 20
22.8369
 30
0.0
 10
-80.781100000000009
 20
22.971500000000002
 30
0.0
 10
-80.30080000000001
 20
23.128
 30
0.0
 10
-79.696700000000007
 20
23.3064
 30
0.0
 10
-79.696700000000007
 20
23.3064
 30
0.0
 10
-80.355400000000003
 20
23.402800000000003
 30
0.0
 10
-81.034100000000009
 20
23.5229
 30
0.0
 10
-81.7346
 20
23.668500000000002
 30
0.0
 10
-81.7346
 20
23.668500000000002
 30
0.0
 10
-81.7346
 20
23.668500000000002
 30
0.0
 10
-86.3292
 20
24.627400000000002
 30
0.0
 10
-86.3292
 20
24.627400000000002
 30
0.0
 10
-86.3292
 20
24.627400000000002
 30
0.0
 10
-86.3292
 20
24.627400000000002
 30
0.0
 10
-86.3292
 20
25.6464
 30
0.0
 10
-86.3292
 20
25.6464
 30
0.0
 10
-86.3292
 20
25.6464
 30
0.0
 10
-86.3292
 20
25.6464
 30
0.0
 10
-78.513900000000007
 20
24.016000000000002
 30
0.0
 10
-78.513900000000007
 20
24.016000000000002
 30
0.0
 10
-78.513900000000007
 20
24.016000000000002
 30
0.0
 10
-78.513900000000007
 20
24.016000000000002
 30
0.0
 10
-78.513900000000007
 20
22.980600000000003
 30
0.0
 10
-78.513900000000007
 20
22.980600000000003
 30
0.0
 10
-78.513900000000007
 20
22.980600000000003
 30
0.0
 10
-78.513900000000007
 20
22.980600000000003
 30
0.0
 10
-83.028400000000005
 20
21.040900000000001
 30
0.0
 10
-83.028400000000005
 20
21.040900000000001
 30
0.0
 10
-83.028400000000005
 20
21.040900000000001
 30
0.0
 10
-83.825400000000002
 20
20.6952
 30
0.0
 10
-84.52770000000001
 20
20.427700000000002
 30
0.0
 10
-85.135500000000008
 20
20.2348
 30
0.0
 10
-85.135500000000008
 20
20.2348
 30
0.0
 10
-84.626000000000005
 20
20.182100000000002
 30
0.0
 10
-84.003700000000009
 20
20.078400000000002
 30
0.0
 10
-83.263100000000009
 20
19.9255
 30
0.0
 10
-83.263100000000009
 20
19.9255
 30
0.0
 10
-83.263100000000009
 20
19.9255
 30
0.0
 10
-78.513900000000007
 20
18.935600000000001
 30
0.0
 10
-78.513900000000007
 20
18.935600000000001
 30
0.0
 10
-78.513900000000007
 20
18.935600000000001
 30
0.0
 10
-78.513900000000007
 20
18.935600000000001
 30
0.0
 10
-78.513900000000007
 20
17.916600000000003
 30
0.0
 10
-78.513900000000007
 20
17.916600000000003
 30
0.0
  0
SPLINE
  5
28
100
AcDbEntity
  8
Ebene 1
100
AcDbSpline
210
0.0
220
0.0
230
1.0
 70
     1
 71
     3
 72
    44
 73
    40
 74
     0
 42
0.0000000001
 43
0.0000000001
 40
0.0
 40
0.0
 40
0.0
 40
0.0
 40
0.1
 40
0.1
 40
0.1
 40
0.1
 40
0.2
 40
0.2
 40
0.2
 40
0.2
 40
0.3
 40
0.3
 40
0.3
 40
0.3
 40
0.4
 40
0.4
 40
0.4
 40
0.4
 40
0.5
 40
0.5
 40
0.5
 40
0.5
 40
0.6
 40
0.6
 40
0.6
 40
0.6
 40
0.7
 40
0.7
 40
0.7
 40
0.7
 40
0.7999999999999999
 40
0.7999999999999999
 40
0.7999999999999999
 40
0.7999999999999999
 40
0.8999999999999999
 40
0.8999999999999999
 40
0.8999999999999999
 40
0.8999999999999999
 40
1.0
 40
1.0
 40
1.0
 40
1.0
 10
-78.513900000000007
 20
26.851000000000003
 30
0.0
 10
-79.0398
 20
26.936500000000002
 30
0.0
 10
-79.673000000000002
 20
27.118500000000001
 30
0.0
 10
-80.411799999999999
 20
27.395
 30
0.0
 10
-80.411799999999999
 20
27.395
 30
0.0
 10
-81.303400000000011
 20
27.726200000000002
 30
0.0
 10
-82.18950000000001
 20
28.159300000000002
 30
0.0
 10
-83.068399999999997
 20
28.696100000000001
 30
0.0
 10
-83.068399999999997
 20
28.696100000000001
 30
0.0
 10
-83.949100000000001
 20
29.232800000000001
 30
0.0
 10
-84.7042
 20
29.829700000000003
 30
0.0
 10
-85.337500000000006
 20
30.486600000000003
 30
0.0
 10
-85.337500000000006
 20
30.486600000000003
 30
0.0
 10
-85.337500000000006
 20
30.486600000000003
 30
0.0
 10
-85.337500000000006
 20
26.590800000000002
 30
0.0
 10
-85.337500000000006
 20
26.590800000000002
 30
0.0
 10
-85.337500000000006
 20
26.590800000000002
 30
0.0
 10
-85.337500000000006
 20
26.590800000000002
 30
0.0
 10
-86.221800000000002
 20
26.776400000000002
 30
0.0
 10
-86.221800000000002
 20
26.776400000000002
 30
0.0
 10
-86.221800000000002
 20
26.776400000000002
 30
0.0
 10
-86.221800000000002
 20
26.776400000000002
 30
0.0
 10
-86.221800000000002
 20
31.765800000000002
 30
0.0
 10
-86.221800000000002
 20
31.765800000000002
 30
0.0
 10
-86.221800000000002
 20
31.765800000000002
 30
0.0
 10
-86.221800000000002
 20
31.765800000000002
 30
0.0
 10
-85.337500000000006
 20
31.585600000000003
 30
0.0
 10
-85.337500000000006
 20
31.585600000000003
 30
0.0
 10
-85.337500000000006
 20
31.585600000000003
 30
0.0
 10
-84.595100000000002
 20
30.739500000000003
 30
0.0
 10
-83.636099999999999
 20
30.000700000000002
 30
0.0
 10
-82.464300000000009
 20
29.3675
 30
0.0
 10
-82.464300000000009
 20
29.3675
 30
0.0
 10
-81.110500000000002
 20
28.632400000000001
 30
0.0
 10
-79.79310000000001
 20
28.128300000000003
 30
0.0
 10
-78.513900000000007
 20
27.859000000000002
 30
0.0
 10
-78.513900000000007
 20
27.859000000000002
 30
0.0
 10
-78.513900000000007
 20
27.859000000000002
 30
0.0
 10
-78.513900000000007
 20
26.851000000000003
 30
0.0
 10
-78.513900000000007
 20
26.851000000000003
 30
0.0
  0
SPLINE
  5
29
100
AcDbEntity
  8
Ebene 1
100
AcDbSpline
210
0.0
220
0.0
230
1.0
 70
     1
 71
     3
 72
    52
 73
    48
 74
     0
 42
0.0000000001
 43
0.0000000001
 40
0.0
 40
0.0
 40
0.0
 40
0.0
 40
0.0833333333333333
 40
0.0833333333333333
 40
0.0833333333333333
 40
0.0833333333333333
 40
0.1666666666666667
 40
0.1666666666666667
 40
0.1666666666666667
 40
0.1666666666666667
 40
0.25
 40
0.25
 40
0.25
 40
0.25
 40
0.3333333333333333
 40
0.3333333333333333
 40
0.3333333333333333
 40
0.3333333333333333
 40
0.4166666666666666
 40
0.4166666666666666
 40
0.4166666666666666
 40
0.4166666666666666
 40
0.4999999999999999
 40
0.4999999999999999
 40
0.4999999999999999
 40
0.4999999999999999
 40
0.5833333333333333
 40
0.5833333333333333
 40
0.5833333333333333
 40
0.5833333333333333
 40
0.6666666666666666
 40
0.6666666666666666
 40
0.6666666666666666
 40
0.6666666666666666
 40
0.75
 40
0.75
 40
0.75
 40
0.75
 40
0.8333333333333334
 40
0.8333333333333334
 40
0.8333333333333334
 40
0.8333333333333334
 40
0.9166666666666667
 40
0.9166666666666667
 40
0.9166666666666667
 40
0.9166666666666667
 40
1.0
 40
1.0
 40
1.0
 40
1.0
 10
-81.077700000000007
 20
32.113300000000002
 30
0.0
 10
-81.73830000000001
 20
32.113300000000002
 30
0.0
 10
-82.411500000000004
 20
32.211600000000004
 30
0.0
 10
-83.093900000000005
 20
32.408100000000005
 30
0.0
 10
-83.093900000000005
 20
32.408100000000005
 30
0.0
 10
-83.776200000000003
 20
32.606500000000004
 30
0.0
 10
-84.320300000000003
 20
32.824800000000003
 30
0.0
 10
-84.729700000000008
 20
33.066800000000001
 30
0.0
 10
-84.729700000000008
 20
33.066800000000001
 30
0.0
 10
-85.139099999999999
 20
33.308800000000005
 30
0.0
 10
-85.457599999999999
 20
33.559899999999999
 30
0.0
 10
-85.688600000000008
 20
33.818300000000001
 30
0.0
 10
-85.688600000000008
 20
33.818300000000001
 30
0.0
 10
-85.919700000000006
 20
34.078499999999998
 30
0.0
 10
-86.090800000000002
 20
34.333300000000001
 30
0.0
 10
-86.198100000000011
 20
34.584400000000002
 30
0.0
 10
-86.198100000000011
 20
34.584400000000002
 30
0.0
 10
-86.307299999999998
 20
34.8337
 30
0.0
 10
-86.361900000000006
 20
35.112100000000005
 30
0.0
 10
-86.361900000000006
 20
35.4178
 30
0.0
 10
-86.361900000000006
 20
35.4178
 30
0.0
 10
-86.361900000000006
 20
36.014600000000002
 30
0.0
 10
-86.138100000000009
 20
36.513200000000005
 30
0.0
 10
-85.694100000000006
 20
36.913499999999999
 30
0.0
 10
-85.694100000000006
 20
36.913499999999999
 30
0.0
 10
-85.250100000000003
 20
37.313800000000001
 30
0.0
 10
-84.6096
 20
37.514000000000003
 30
0.0
 10
-83.770800000000008
 20
37.514000000000003
 30
0.0
 10
-83.770800000000008
 20
37.514000000000003
 30
0.0
 10
-82.906500000000008
 20
37.514000000000003
 30
0.0
 10
-82.051200000000009
 20
37.373800000000003
 30
0.0
 10
-81.206900000000005
 20
37.097300000000004
 30
0.0
 10
-81.206900000000005
 20
37.097300000000004
 30
0.0
 10
-80.204300000000003
 20
36.7697
 30
0.0
 10
-79.452800000000011
 20
36.314799999999998
 30
0.0
 10
-78.950600000000009
 20
35.732600000000005
 30
0.0
 10
-78.950600000000009
 20
35.732600000000005
 30
0.0
 10
-78.570300000000003
 20
35.2849
 30
0.0
 10
-78.381100000000004
 20
34.775400000000005
 30
0.0
 10
-78.381100000000004
 20
34.202300000000001
 30
0.0
 10
-78.381100000000004
 20
34.202300000000001
 30
0.0
 10
-78.381100000000004
 20
33.616300000000003
 30
0.0
 10
-78.610300000000009
 20
33.121400000000001
 30
0.0
 10
-79.070700000000002
 20
32.717400000000005
 30
0.0
 10
-79.070700000000002
 20
32.717400000000005
 30
0.0
 10
-79.531100000000009
 20
32.315300000000001
 30
0.0
 10
-80.200699999999998
 20
32.113300000000002
 30
0.0
 10
-81.077700000000007
 20
32.113300000000002
 30
0.0
  0
SPLINE
  5
2A
100
AcDbEntity
  8
Ebene 1
100
AcDbSpline
210
0.0
220
0.0
230
1.0
 70
     1
 71
     3
 72
    48
 73
    44
 74
     0
 42
0.0000000001
 43
0.0000000001
 40
0.0
 40
0.0
 40
0.0
 40
0.0
 40
0.0909090909090909
 40
0.0909090909090909
 40
0.0909090909090909
 40
0.0909090909090909
 40
0.1818181818181818
 40
0.1818181818181818
 40
0.1818181818181818
 40
0.1818181818181818
 40
0.2727272727272727
 40
0.2727272727272727
 40
0.2727272727272727
 40
0.2727272727272727
 40
0.3636363636363637
 40
0.3636363636363637
 40
0.3636363636363637
 40
0.3636363636363637
 40
0.4545454545454546
 40
0.4545454545454546
 40
0.4545454545454546
 40
0.4545454545454546
 40
0.5454545454545455
 40
0.5454545454545455
 40
0.5454545454545455
 40
0.5454545454545455
 40
0.6363636363636365
 40
0.6363636363636365
 40
0.6363636363636365
 40
0.6363636363636365
 40
0.7272727272727274
 40
0.7272727272727274
 40
0.7272727272727274
 40
0.7272727272727274
 40
0.8181818181818183
 40
0.8181818181818183
 40
0.8181818181818183
 40
0.8181818181818183
 40
0.9090909090909093
 40
0.9090909090909093
 40
0.9090909090909093
 40
0.9090909090909093
 40
1.0
 40
1.0
 40
1.0
 40
1.0
 10
-80.832099999999997
 20
33.046800000000005
 30
0.0
 10
-80.353499999999997
 20
33.046800000000005
 30
0.0
 10
-79.978700000000003
 20
33.125
 30
0.0
 10
-79.707599999999999
 20
33.285200000000003
 30
0.0
 10
-79.707599999999999
 20
33.285200000000003
 30
0.0
 10
-79.334500000000006
 20
33.5017
 30
0.0
 10
-79.148899999999998
 20
33.823799999999999
 30
0.0
 10
-79.148899999999998
 20
34.251400000000004
 30
0.0
 10
-79.148899999999998
 20
34.251400000000004
 30
0.0
 10
-79.148899999999998
 20
34.624400000000001
 30
0.0
 10
-79.316400000000002
 20
34.962900000000005
 30
0.0
 10
-79.654800000000009
 20
35.268599999999999
 30
0.0
 10
-79.654800000000009
 20
35.268599999999999
 30
0.0
 10
-80.131500000000003
 20
35.7089
 30
0.0
 10
-80.828500000000005
 20
36.041899999999998
 30
0.0
 10
-81.747399999999999
 20
36.2639
 30
0.0
 10
-81.747399999999999
 20
36.2639
 30
0.0
 10
-82.666300000000007
 20
36.485900000000001
 30
0.0
 10
-83.415900000000008
 20
36.596900000000005
 30
0.0
 10
-84.0
 20
36.596900000000005
 30
0.0
 10
-84.0
 20
36.596900000000005
 30
0.0
 10
-84.560500000000005
 20
36.596900000000005
 30
0.0
 10
-84.966300000000004
 20
36.4895
 30
0.0
 10
-85.215500000000006
 20
36.273000000000003
 30
0.0
 10
-85.215500000000006
 20
36.273000000000003
 30
0.0
 10
-85.463000000000008
 20
36.058300000000003
 30
0.0
 10
-85.5886
 20
35.776200000000003
 30
0.0
 10
-85.5886
 20
35.423200000000001
 30
0.0
 10
-85.5886
 20
35.423200000000001
 30
0.0
 10
-85.5886
 20
35.168500000000002
 30
0.0
 10
-85.523099999999999
 20
34.9283
 30
0.0
 10
-85.390200000000007
 20
34.706299999999999
 30
0.0
 10
-85.390200000000007
 20
34.706299999999999
 30
0.0
 10
-85.259200000000007
 20
34.484300000000005
 30
0.0
 10
-85.033600000000007
 20
34.2714
 30
0.0
 10
-84.713300000000004
 20
34.069400000000002
 30
0.0
 10
-84.713300000000004
 20
34.069400000000002
 30
0.0
 10
-84.262100000000004
 20
33.7819
 30
0.0
 10
-83.587000000000003
 20
33.530799999999999
 30
0.0
 10
-82.688100000000006
 20
33.317900000000002
 30
0.0
 10
-82.688100000000006
 20
33.317900000000002
 30
0.0
 10
-81.920200000000008
 20
33.136000000000003
 30
0.0
 10
-81.301600000000008
 20
33.046800000000005
 30
0.0
 10
-80.832099999999997
 20
33.046800000000005
 30
0.0
  0
SPLINE
  5
2B
100
AcDbEntity
  8
Ebene 1
100
AcDbSpline
210
0.0
220
0.0
230
1.0
 70
     1
 71
     3
 72
    52
 73
    48
 74
     0
 42
0.0000000001
 43
0.0000000001
 40
0.0
 40
0.0
 40
0.0
 40
0.0
 40
0.0833333333333333
 40
0.0833333333333333
 40
0.0833333333333333
 40
0.0833333333333333
 40
0.1666666666666667
 40
0.1666666666666667
 40
0.1666666666666667
 40
0.1666666666666667
 40
0.25
 40
0.25
 40
0.25
 40
0.25
 40
0.3333333333333333
 40
0.3333333333333333
 40
0.3333333333333333
 40
0.3333333333333333
 40
0.4166666666666666
 40
0.4166666666666666
 40
0.4166666666666666
 40
0.4166666666666666
 40
0.4999999999999999
 40
0.4999999999999999
 40
0.4999999999999999
 40
0.4999999999999999
 40
0.5833333333333333
 40
0.5833333333333333
 40
0.5833333333333333
 40
0.5833333333333333
 40
0.6666666666666666
 40
0.6666666666666666
 40
0.6666666666666666
 40
0.6666666666666666
 40
0.75
 40
0.75
 40
0.75
 40
0.75
 40
0.8333333333333334
 40
0.8333333333333334
 40
0.8333333333333334
 40
0.8333333333333334
 40
0.9166666666666667
 40
0.9166666666666667
 40
0.9166666666666667
 40
0.9166666666666667
 40
1.0
 40
1.0
 40
1.0
 40
1.0
 10
1.3137000000000001
 20
10.136100000000001
 30
0.0
 10
1.3137000000000001
 20
10.136100000000001
 30
0.0
 10
-6.5016000000000007
 20
11.766500000000001
 30
0.0
 10
-6.5016000000000007
 20
11.766500000000001
 30
0.0
 10
-6.5016000000000007
 20
11.766500000000001
 30
0.0
 10
-6.5016000000000007
 20
11.766500000000001
 30
0.0
 10
-6.5016000000000007
 20
14.122900000000001
 30
0.0
 10
-6.5016000000000007
 20
14.122900000000001
 30
0.0
 10
-6.5016000000000007
 20
14.122900000000001
 30
0.0
 10
-6.5016000000000007
 20
14.688800000000001
 30
0.0
 10
-6.4597000000000007
 20
15.120100000000001
 30
0.0
 10
-6.3795999999999999
 20
15.4185
 30
0.0
 10
-6.3795999999999999
 20
15.4185
 30
0.0
 10
-6.2686000000000002
 20
15.8443
 30
0.0
 10
-6.0721000000000007
 20
16.208200000000001
 30
0.0
 10
-5.7901000000000007
 20
16.5121
 30
0.0
 10
-5.7901000000000007
 20
16.5121
 30
0.0
 10
-5.508
 20
16.8141
 30
0.0
 10
-5.1550000000000002
 20
17.041600000000003
 30
0.0
 10
-4.7311000000000005
 20
17.194400000000002
 30
0.0
 10
-4.7311000000000005
 20
17.194400000000002
 30
0.0
 10
-4.3089000000000004
 20
17.345500000000001
 30
0.0
 10
-3.8340000000000001
 20
17.421900000000001
 30
0.0
 10
-3.3081
 20
17.421900000000001
 30
0.0
 10
-3.3081
 20
17.421900000000001
 30
0.0
 10
-2.6785000000000001
 20
17.421900000000001
 30
0.0
 10
-2.1053999999999999
 20
17.327300000000001
 30
0.0
 10
-1.5886
 20
17.138000000000002
 30
0.0
 10
-1.5886
 20
17.138000000000002
 30
0.0
 10
-1.0718000000000001
 20
16.946999999999999
 30
0.0
 10
-0.6169
 20
16.6995
 30
0.0
 10
-0.2239
 20
16.391999999999999
 30
0.0
 10
-0.2239
 20
16.391999999999999
 30
0.0
 10
0.1692
 20
16.084500000000002
 30
0.0
 10
0.4767
 20
15.762400000000001
 30
0.0
 10
0.6987
 20
15.425800000000001
 30
0.0
 10
0.6987
 20
15.425800000000001
 30
0.0
 10
0.9207000000000001
 20
15.091000000000001
 30
0.0
 10
1.0844
 20
14.692500000000001
 30
0.0
 10
1.1918
 20
14.235700000000001
 30
0.0
 10
1.1918
 20
14.235700000000001
 30
0.0
 10
1.2737000000000001
 20
13.8864
 30
0.0
 10
1.3137000000000001
 20
13.4588
 30
0.0
 10
1.3137000000000001
 20
12.949300000000001
 30
0.0
 10
1.3137000000000001
 20
12.949300000000001
 30
0.0
 10
1.3137000000000001
 20
12.949300000000001
 30
0.0
 10
1.3137000000000001
 20
10.136100000000001
 30
0.0
 10
1.3137000000000001
 20
10.136100000000001
 30
0.0
  0
SPLINE
  5
2C
100
AcDbEntity
  8
Ebene 1
100
AcDbSpline
210
0.0
220
0.0
230
1.0
 70
     1
 71
     3
 72
    48
 73
    44
 74
     0
 42
0.0000000001
 43
0.0000000001
 40
0.0
 40
0.0
 40
0.0
 40
0.0
 40
0.0909090909090909
 40
0.0909090909090909
 40
0.0909090909090909
 40
0.0909090909090909
 40
0.1818181818181818
 40
0.1818181818181818
 40
0.1818181818181818
 40
0.1818181818181818
 40
0.2727272727272727
 40
0.2727272727272727
 40
0.2727272727272727
 40
0.2727272727272727
 40
0.3636363636363637
 40
0.3636363636363637
 40
0.3636363636363637
 40
0.3636363636363637
 40
0.4545454545454546
 40
0.4545454545454546
 40
0.4545454545454546
 40
0.4545454545454546
 40
0.5454545454545455
 40
0.5454545454545455
 40
0.5454545454545455
 40
0.5454545454545455
 40
0.6363636363636365
 40
0.6363636363636365
 40
0.6363636363636365
 40
0.6363636363636365
 40
0.7272727272727274
 40
0.7272727272727274
 40
0.7272727272727274
 40
0.7272727272727274
 40
0.8181818181818183
 40
0.8181818181818183
 40
0.8181818181818183
 40
0.8181818181818183
 40
0.9090909090909093
 40
0.9090909090909093
 40
0.9090909090909093
 40
0.9090909090909093
 40
1.0
 40
1.0
 40
1.0
 40
1.0
 10
0.4294
 20
11.366200000000001
 30
0.0
 10
0.4294
 20
11.366200000000001
 30
0.0
 10
0.4294
 20
12.6035
 30
0.0
 10
0.4294
 20
12.6035
 30
0.0
 10
0.4294
 20
12.6035
 30
0.0
 10
0.4294
 20
13.1622
 30
0.0
 10
0.3766
 20
13.6571
 30
0.0
 10
0.2747
 20
14.090200000000001
 30
0.0
 10
0.2747
 20
14.090200000000001
 30
0.0
 10
0.211
 20
14.3613
 30
0.0
 10
0.1164
 20
14.592400000000001
 30
0.0
 10
-0.0092
 20
14.7834
 30
0.0
 10
-0.0092
 20
14.7834
 30
0.0
 10
-0.1675
 20
15.0364
 30
0.0
 10
-0.3804
 20
15.265600000000001
 30
0.0
 10
-0.6424000000000001
 20
15.471300000000001
 30
0.0
 10
-0.6424000000000001
 20
15.471300000000001
 30
0.0
 10
-0.9918
 20
15.7424
 30
0.0
 10
-1.3884000000000001
 20
15.957100000000001
 30
0.0
 10
-1.8342000000000001
 20
16.119
 30
0.0
 10
-1.8342000000000001
 20
16.119
 30
0.0
 10
-2.2800000000000002
 20
16.281000000000002
 30
0.0
 10
-2.7877000000000001
 20
16.361000000000001
 30
0.0
 10
-3.3554000000000004
 20
16.361000000000001
 30
0.0
 10
-3.3554000000000004
 20
16.361000000000001
 30
0.0
 10
-3.9887000000000001
 20
16.361000000000001
 30
0.0
 10
-4.4744999999999999
 20
16.251899999999999
 30
0.0
 10
-4.8148
 20
16.031700000000001
 30
0.0
 10
-4.8148
 20
16.031700000000001
 30
0.0
 10
-5.1532
 20
15.811500000000001
 30
0.0
 10
-5.3789000000000007
 20
15.529500000000001
 30
0.0
 10
-5.4880000000000004
 20
15.189200000000001
 30
0.0
 10
-5.4880000000000004
 20
15.189200000000001
 30
0.0
 10
-5.5699000000000005
 20
14.936300000000001
 30
0.0
 10
-5.6118000000000006
 20
14.543200000000001
 30
0.0
 10
-5.6118000000000006
 20
14.010100000000001
 30
0.0
 10
-5.6118000000000006
 20
14.010100000000001
 30
0.0
 10
-5.6118000000000006
 20
14.010100000000001
 30
0.0
 10
-5.6118000000000006
 20
12.630800000000001
 30
0.0
 10
-5.6118000000000006
 20
12.630800000000001
 30
0.0
 10
-5.6118000000000006
 20
12.630800000000001
 30
0.0
 10
-5.6118000000000006
 20
12.630800000000001
 30
0.0
 10
0.4294
 20
11.366200000000001
 30
0.0
 10
0.4294
 20
11.366200000000001
 30
0.0
  0
SPLINE
  5
2D
100
AcDbEntity
  8
Ebene 1
100
AcDbSpline
210
0.0
220
0.0
230
1.0
 70
     1
 71
     3
 72
    64
 73
    60
 74
     0
 42
0.0000000001
 43
0.0000000001
 40
0.0
 40
0.0
 40
0.0
 40
0.0
 40
0.0666666666666667
 40
0.0666666666666667
 40
0.0666666666666667
 40
0.0666666666666667
 40
0.1333333333333333
 40
0.1333333333333333
 40
0.1333333333333333
 40
0.1333333333333333
 40
0.2
 40
0.2
 40
0.2
 40
0.2
 40
0.2666666666666667
 40
0.2666666666666667
 40
0.2666666666666667
 40
0.2666666666666667
 40
0.3333333333333333
 40
0.3333333333333333
 40
0.3333333333333333
 40
0.3333333333333333
 40
0.4
 40
0.4
 40
0.4
 40
0.4
 40
0.4666666666666666
 40
0.4666666666666666
 40
0.4666666666666666
 40
0.4666666666666666
 40
0.5333333333333333
 40
0.5333333333333333
 40
0.5333333333333333
 40
0.5333333333333333
 40
0.6
 40
0.6
 40
0.6
 40
0.6
 40
0.6666666666666666
 40
0.6666666666666666
 40
0.6666666666666666
 40
0.6666666666666666
 40
0.7333333333333333
 40
0.7333333333333333
 40
0.7333333333333333
 40
0.7333333333333333
 40
0.7999999999999999
 40
0.7999999999999999
 40
0.7999999999999999
 40
0.7999999999999999
 40
0.8666666666666666
 40
0.8666666666666666
 40
0.8666666666666666
 40
0.8666666666666666
 40
0.9333333333333332
 40
0.9333333333333332
 40
0.9333333333333332
 40
0.9333333333333332
 40
1.0
 40
1.0
 40
1.0
 40
1.0
 10
1.3137000000000001
 20
18.067800000000002
 30
0.0
 10
1.3137000000000001
 20
18.067800000000002
 30
0.0
 10
-6.5016000000000007
 20
19.703700000000001
 30
0.0
 10
-6.5016000000000007
 20
19.703700000000001
 30
0.0
 10
-6.5016000000000007
 20
19.703700000000001
 30
0.0
 10
-6.5016000000000007
 20
19.703700000000001
 30
0.0
 10
-6.5016000000000007
 20
20.717200000000002
 30
0.0
 10
-6.5016000000000007
 20
20.717200000000002
 30
0.0
 10
-6.5016000000000007
 20
20.717200000000002
 30
0.0
 10
-6.5016000000000007
 20
20.717200000000002
 30
0.0
 10
-3.5702000000000003
 20
22.034600000000001
 30
0.0
 10
-3.5702000000000003
 20
22.034600000000001
 30
0.0
 10
-3.5702000000000003
 20
22.034600000000001
 30
0.0
 10
-2.6731000000000003
 20
22.434900000000003
 30
0.0
 10
-1.9198000000000002
 20
22.753400000000003
 30
0.0
 10
-1.3084
 20
22.988100000000003
 30
0.0
 10
-1.3084
 20
22.988100000000003
 30
0.0
 10
-0.9535
 20
23.122700000000002
 30
0.0
 10
-0.4732
 20
23.279199999999999
 30
0.0
 10
0.1309
 20
23.457600000000003
 30
0.0
 10
0.1309
 20
23.457600000000003
 30
0.0
 10
-0.5278000000000001
 20
23.554000000000002
 30
0.0
 10
-1.2065000000000001
 20
23.674100000000003
 30
0.0
 10
-1.907
 20
23.819700000000001
 30
0.0
 10
-1.907
 20
23.819700000000001
 30
0.0
 10
-1.907
 20
23.819700000000001
 30
0.0
 10
-6.5016000000000007
 20
24.778600000000001
 30
0.0
 10
-6.5016000000000007
 20
24.778600000000001
 30
0.0
 10
-6.5016000000000007
 20
24.778600000000001
 30
0.0
 10
-6.5016000000000007
 20
24.778600000000001
 30
0.0
 10
-6.5016000000000007
 20
25.797600000000003
 30
0.0
 10
-6.5016000000000007
 20
25.797600000000003
 30
0.0
 10
-6.5016000000000007
 20
25.797600000000003
 30
0.0
 10
-6.5016000000000007
 20
25.797600000000003
 30
0.0
 10
1.3137000000000001
 20
24.167200000000001
 30
0.0
 10
1.3137000000000001
 20
24.167200000000001
 30
0.0
 10
1.3137000000000001
 20
24.167200000000001
 30
0.0
 10
1.3137000000000001
 20
24.167200000000001
 30
0.0
 10
1.3137000000000001
 20
23.131800000000002
 30
0.0
 10
1.3137000000000001
 20
23.131800000000002
 30
0.0
 10
1.3137000000000001
 20
23.131800000000002
 30
0.0
 10
1.3137000000000001
 20
23.131800000000002
 30
0.0
 10
-3.2008000000000001
 20
21.1921
 30
0.0
 10
-3.2008000000000001
 20
21.1921
 30
0.0
 10
-3.2008000000000001
 20
21.1921
 30
0.0
 10
-3.9978000000000002
 20
20.846400000000003
 30
0.0
 10
-4.7000999999999999
 20
20.578900000000001
 30
0.0
 10
-5.3079000000000001
 20
20.385999999999999
 30
0.0
 10
-5.3079000000000001
 20
20.385999999999999
 30
0.0
 10
-4.7984
 20
20.333300000000001
 30
0.0
 10
-4.1760999999999999
 20
20.229600000000001
 30
0.0
 10
-3.4355000000000002
 20
20.076700000000002
 30
0.0
 10
-3.4355000000000002
 20
20.076700000000002
 30
0.0
 10
-3.4355000000000002
 20
20.076700000000002
 30
0.0
 10
1.3137000000000001
 20
19.0868
 30
0.0
 10
1.3137000000000001
 20
19.0868
 30
0.0
 10
1.3137000000000001
 20
19.0868
 30
0.0
 10
1.3137000000000001
 20
19.0868
 30
0.0
 10
1.3137000000000001
 20
18.067800000000002
 30
0.0
 10
1.3137000000000001
 20
18.067800000000002
 30
0.0
  0
SPLINE
  5
2E
100
AcDbEntity
  8
Ebene 1
100
AcDbSpline
210
0.0
220
0.0
230
1.0
 70
     1
 71
     3
 72
    68
 73
    64
 74
     0
 42
0.0000000001
 43
0.0000000001
 40
0.0
 40
0.0
 40
0.0
 40
0.0
 40
0.0625
 40
0.0625
 40
0.0625
 40
0.0625
 40
0.125
 40
0.125
 40
0.125
 40
0.125
 40
0.1875
 40
0.1875
 40
0.1875
 40
0.1875
 40
0.25
 40
0.25
 40
0.25
 40
0.25
 40
0.3125
 40
0.3125
 40
0.3125
 40
0.3125
 40
0.375
 40
0.375
 40
0.375
 40
0.375
 40
0.4375
 40
0.4375
 40
0.4375
 40
0.4375
 40
0.5
 40
0.5
 40
0.5
 40
0.5
 40
0.5625
 40
0.5625
 40
0.5625
 40
0.5625
 40
0.625
 40
0.625
 40
0.625
 40
0.625
 40
0.6875
 40
0.6875
 40
0.6875
 40
0.6875
 40
0.75
 40
0.75
 40
0.75
 40
0.75
 40
0.8125
 40
0.8125
 40
0.8125
 40
0.8125
 40
0.875
 40
0.875
 40
0.875
 40
0.875
 40
0.9375
 40
0.9375
 40
0.9375
 40
0.9375
 40
1.0
 40
1.0
 40
1.0
 40
1.0
 10
-2.9824000000000002
 20
27.882900000000003
 30
0.0
 10
-3.1425000000000001
 20
27.5899
 30
0.0
 10
-3.3482000000000003
 20
27.371500000000001
 30
0.0
 10
-3.5993000000000004
 20
27.226000000000003
 30
0.0
 10
-3.5993000000000004
 20
27.226000000000003
 30
0.0
 10
-3.8486000000000002
 20
27.080400000000001
 30
0.0
 10
-4.1179000000000006
 20
27.0076
 30
0.0
 10
-4.4072000000000005
 20
27.0076
 30
0.0
 10
-4.4072000000000005
 20
27.0076
 30
0.0
 10
-4.8784999999999998
 20
27.0076
 30
0.0
 10
-5.3170000000000002
 20
27.178700000000003
 30
0.0
 10
-5.7173000000000007
 20
27.518900000000002
 30
0.0
 10
-5.7173000000000007
 20
27.518900000000002
 30
0.0
 10
-6.2614000000000001
 20
27.973800000000001
 30
0.0
 10
-6.5343
 20
28.590700000000002
 30
0.0
 10
-6.5343
 20
29.369500000000002
 30
0.0
 10
-6.5343
 20
29.369500000000002
 30
0.0
 10
-6.5343
 20
30.055500000000002
 30
0.0
 10
-6.3487
 20
30.5959
 30
0.0
 10
-5.9811000000000005
 20
30.9908
 30
0.0
 10
-5.9811000000000005
 20
30.9908
 30
0.0
 10
-5.6135999999999999
 20
31.383800000000001
 30
0.0
 10
-5.1641000000000004
 20
31.582100000000001
 30
0.0
 10
-4.6310000000000002
 20
31.582100000000001
 30
0.0
 10
-4.6310000000000002
 20
31.582100000000001
 30
0.0
 10
-4.2507000000000001
 20
31.582100000000001
 30
0.0
 10
-3.9068000000000001
 20
31.474800000000002
 30
0.0
 10
-3.6011000000000002
 20
31.261900000000001
 30
0.0
 10
-3.6011000000000002
 20
31.261900000000001
 30
0.0
 10
-3.2954000000000003
 20
31.049000000000003
 30
0.0
 10
-3.0516000000000001
 20
30.714200000000002
 30
0.0
 10
-2.8714
 20
30.259300000000003
 30
0.0
 10
-2.8714
 20
30.259300000000003
 30
0.0
 10
-2.6749000000000001
 20
30.572300000000002
 30
0.0
 10
-2.4675000000000002
 20
30.796100000000003
 30
0.0
 10
-2.2473000000000001
 20
30.930700000000002
 30
0.0
 10
-2.2473000000000001
 20
30.930700000000002
 30
0.0
 10
-1.9598
 20
31.105400000000003
 30
0.0
 10
-1.6232
 20
31.192700000000002
 30
0.0
 10
-1.2392000000000001
 20
31.192700000000002
 30
0.0
 10
-1.2392000000000001
 20
31.192700000000002
 30
0.0
 10
-0.5405
 20
31.192700000000002
 30
0.0
 10
0.0836
 20
30.945300000000003
 30
0.0
 10
0.6313000000000001
 20
30.448500000000003
 30
0.0
 10
0.6313000000000001
 20
30.448500000000003
 30
0.0
 10
1.179
 20
29.953600000000002
 30
0.0
 10
1.4520000000000002
 20
29.293100000000003
 30
0.0
 10
1.4520000000000002
 20
28.468800000000002
 30
0.0
 10
1.4520000000000002
 20
28.468800000000002
 30
0.0
 10
1.4520000000000002
 20
27.810100000000002
 30
0.0
 10
1.25
 20
27.275100000000002
 30
0.0
 10
0.8442000000000001
 20
26.8584
 30
0.0
 10
0.8442000000000001
 20
26.8584
 30
0.0
 10
0.4403
 20
26.4435
 30
0.0
 10
-0.0674
 20
26.234300000000001
 30
0.0
 10
-0.6751
 20
26.234300000000001
 30
0.0
 10
-0.6751
 20
26.234300000000001
 30
0.0
 10
-1.2465000000000002
 20
26.234300000000001
 30
0.0
 10
-1.7378
 20
26.381700000000002
 30
0.0
 10
-2.149
 20
26.676500000000001
 30
0.0
 10
-2.149
 20
26.676500000000001
 30
0.0
 10
-2.5584000000000002
 20
26.973100000000002
 30
0.0
 10
-2.8368000000000002
 20
27.3734
 30
0.0
 10
-2.9824000000000002
 20
27.882900000000003
 30
0.0
  0
SPLINE
  5
2F
100
AcDbEntity
  8
Ebene 1
100
AcDbSpline
210
0.0
220
0.0
230
1.0
 70
     1
 71
     3
 72
    40
 73
    36
 74
     0
 42
0.0000000001
 43
0.0000000001
 40
0.0
 40
0.0
 40
0.0
 40
0.0
 40
0.1111111111111111
 40
0.1111111111111111
 40
0.1111111111111111
 40
0.1111111111111111
 40
0.2222222222222222
 40
0.2222222222222222
 40
0.2222222222222222
 40
0.2222222222222222
 40
0.3333333333333333
 40
0.3333333333333333
 40
0.3333333333333333
 40
0.3333333333333333
 40
0.4444444444444444
 40
0.4444444444444444
 40
0.4444444444444444
 40
0.4444444444444444
 40
0.5555555555555556
 40
0.5555555555555556
 40
0.5555555555555556
 40
0.5555555555555556
 40
0.6666666666666667
 40
0.6666666666666667
 40
0.6666666666666667
 40
0.6666666666666667
 40
0.7777777777777779
 40
0.7777777777777779
 40
0.7777777777777779
 40
0.7777777777777779
 40
0.8888888888888891
 40
0.8888888888888891
 40
0.8888888888888891
 40
0.8888888888888891
 40
1.0
 40
1.0
 40
1.0
 40
1.0
 10
-4.3635000000000002
 20
27.9575
 30
0.0
 10
-4.0305
 20
27.9575
 30
0.0
 10
-3.7612000000000001
 20
28.064800000000002
 30
0.0
 10
-3.5556000000000001
 20
28.279500000000002
 30
0.0
 10
-3.5556000000000001
 20
28.279500000000002
 30
0.0
 10
-3.3518000000000003
 20
28.494300000000003
 30
0.0
 10
-3.2499000000000002
 20
28.790800000000001
 30
0.0
 10
-3.2499000000000002
 20
29.1675
 30
0.0
 10
-3.2499000000000002
 20
29.1675
 30
0.0
 10
-3.2499000000000002
 20
29.607900000000001
 30
0.0
 10
-3.3846000000000003
 20
29.9663
 30
0.0
 10
-3.6520000000000001
 20
30.241100000000003
 30
0.0
 10
-3.6520000000000001
 20
30.241100000000003
 30
0.0
 10
-3.9195000000000002
 20
30.515800000000002
 30
0.0
 10
-4.2507000000000001
 20
30.654100000000003
 30
0.0
 10
-4.6401000000000003
 20
30.654100000000003
 30
0.0
 10
-4.6401000000000003
 20
30.654100000000003
 30
0.0
 10
-4.9713000000000003
 20
30.654100000000003
 30
0.0
 10
-5.2406000000000006
 20
30.546800000000001
 30
0.0
 10
-5.4480000000000004
 20
30.332100000000001
 30
0.0
 10
-5.4480000000000004
 20
30.332100000000001
 30
0.0
 10
-5.6573000000000002
 20
30.1174
 30
0.0
 10
-5.7610000000000001
 20
29.820800000000002
 30
0.0
 10
-5.7610000000000001
 20
29.444100000000002
 30
0.0
 10
-5.7610000000000001
 20
29.444100000000002
 30
0.0
 10
-5.7610000000000001
 20
29.1602
 30
0.0
 10
-5.6955
 20
28.898200000000003
 30
0.0
 10
-5.5626000000000007
 20
28.659800000000001
 30
0.0
 10
-5.5626000000000007
 20
28.659800000000001
 30
0.0
 10
-5.4316000000000004
 20
28.421500000000002
 30
0.0
 10
-5.2533000000000003
 20
28.245000000000001
 30
0.0
 10
-5.0277000000000003
 20
28.130300000000002
 30
0.0
 10
-5.0277000000000003
 20
28.130300000000002
 30
0.0
 10
-4.8020000000000005
 20
28.0139
 30
0.0
 10
-4.5800000000000001
 20
27.9575
 30
0.0
 10
-4.3635000000000002
 20
27.9575
 30
0.0
  0
SPLINE
  5
30
100
AcDbEntity
  8
Ebene 1
100
AcDbSpline
210
0.0
220
0.0
230
1.0
 70
     1
 71
     3
 72
    40
 73
    36
 74
     0
 42
0.0000000001
 43
0.0000000001
 40
0.0
 40
0.0
 40
0.0
 40
0.0
 40
0.1111111111111111
 40
0.1111111111111111
 40
0.1111111111111111
 40
0.1111111111111111
 40
0.2222222222222222
 40
0.2222222222222222
 40
0.2222222222222222
 40
0.2222222222222222
 40
0.3333333333333333
 40
0.3333333333333333
 40
0.3333333333333333
 40
0.3333333333333333
 40
0.4444444444444444
 40
0.4444444444444444
 40
0.4444444444444444
 40
0.4444444444444444
 40
0.5555555555555556
 40
0.5555555555555556
 40
0.5555555555555556
 40
0.5555555555555556
 40
0.6666666666666667
 40
0.6666666666666667
 40
0.6666666666666667
 40
0.6666666666666667
 40
0.7777777777777779
 40
0.7777777777777779
 40
0.7777777777777779
 40
0.7777777777777779
 40
0.8888888888888891
 40
0.8888888888888891
 40
0.8888888888888891
 40
0.8888888888888891
 40
1.0
 40
1.0
 40
1.0
 40
1.0
 10
-0.5951000000000001
 20
27.2041
 30
0.0
 10
-0.3785
 20
27.2041
 30
0.0
 10
-0.1693
 20
27.256900000000002
 30
0.0
 10
0.0291
 20
27.362500000000001
 30
0.0
 10
0.0291
 20
27.362500000000001
 30
0.0
 10
0.2274
 20
27.466200000000001
 30
0.0
 10
0.3857
 20
27.626300000000001
 30
0.0
 10
0.504
 20
27.839200000000002
 30
0.0
 10
0.504
 20
27.839200000000002
 30
0.0
 10
0.6204000000000001
 20
28.052100000000003
 30
0.0
 10
0.6787000000000001
 20
28.2959
 30
0.0
 10
0.6787000000000001
 20
28.568900000000003
 30
0.0
 10
0.6787000000000001
 20
28.568900000000003
 30
0.0
 10
0.6787000000000001
 20
29.0929
 30
0.0
 10
0.4348
 20
29.5151
 30
0.0
 10
-0.0565
 20
29.838900000000002
 30
0.0
 10
-0.0565
 20
29.838900000000002
 30
0.0
 10
-0.4404
 20
30.093700000000002
 30
0.0
 10
-0.8535
 20
30.222900000000003
 30
0.0
 10
-1.2993000000000001
 20
30.222900000000003
 30
0.0
 10
-1.2993000000000001
 20
30.222900000000003
 30
0.0
 10
-1.6614
 20
30.222900000000003
 30
0.0
 10
-1.9580000000000002
 20
30.104600000000001
 30
0.0
 10
-2.1891000000000003
 20
29.868100000000002
 30
0.0
 10
-2.1891000000000003
 20
29.868100000000002
 30
0.0
 10
-2.4201999999999999
 20
29.631500000000003
 30
0.0
 10
-2.5348000000000002
 20
29.322200000000002
 30
0.0
 10
-2.5348000000000002
 20
28.938200000000002
 30
0.0
 10
-2.5348000000000002
 20
28.938200000000002
 30
0.0
 10
-2.5348000000000002
 20
28.4542
 30
0.0
 10
-2.3565
 20
28.044800000000002
 30
0.0
 10
-1.9962000000000002
 20
27.708200000000001
 30
0.0
 10
-1.9962000000000002
 20
27.708200000000001
 30
0.0
 10
-1.6377000000000002
 20
27.3734
 30
0.0
 10
-1.1701000000000001
 20
27.2041
 30
0.0
 10
-0.5951000000000001
 20
27.2041
 30
0.0
  0
SPLINE
  5
31
100
AcDbEntity
  8
Ebene 1
100
AcDbSpline
210
0.0
220
0.0
230
1.0
 70
     1
 71
     3
 72
    52
 73
    48
 74
     0
 42
0.0000000001
 43
0.0000000001
 40
0.0
 40
0.0
 40
0.0
 40
0.0
 40
0.0833333333333333
 40
0.0833333333333333
 40
0.0833333333333333
 40
0.0833333333333333
 40
0.1666666666666667
 40
0.1666666666666667
 40
0.1666666666666667
 40
0.1666666666666667
 40
0.25
 40
0.25
 40
0.25
 40
0.25
 40
0.3333333333333333
 40
0.3333333333333333
 40
0.3333333333333333
 40
0.3333333333333333
 40
0.4166666666666666
 40
0.4166666666666666
 40
0.4166666666666666
 40
0.4166666666666666
 40
0.4999999999999999
 40
0.4999999999999999
 40
0.4999999999999999
 40
0.4999999999999999
 40
0.5833333333333333
 40
0.5833333333333333
 40
0.5833333333333333
 40
0.5833333333333333
 40
0.6666666666666666
 40
0.6666666666666666
 40
0.6666666666666666
 40
0.6666666666666666
 40
0.75
 40
0.75
 40
0.75
 40
0.75
 40
0.8333333333333334
 40
0.8333333333333334
 40
0.8333333333333334
 40
0.8333333333333334
 40
0.9166666666666667
 40
0.9166666666666667
 40
0.9166666666666667
 40
0.9166666666666667
 40
1.0
 40
1.0
 40
1.0
 40
1.0
 10
-1.2501
 20
32.264499999999998
 30
0.0
 10
-1.9107000000000001
 20
32.264499999999998
 30
0.0
 10
-2.5839000000000003
 20
32.3628
 30
0.0
 10
-3.2663000000000002
 20
32.5593
 30
0.0
 10
-3.2663000000000002
 20
32.5593
 30
0.0
 10
-3.9486000000000003
 20
32.7577
 30
0.0
 10
-4.4927000000000001
 20
32.975999999999999
 30
0.0
 10
-4.9020999999999999
 20
33.218000000000004
 30
0.0
 10
-4.9020999999999999
 20
33.218000000000004
 30
0.0
 10
-5.3115000000000006
 20
33.460000000000001
 30
0.0
 10
-5.6299999999999999
 20
33.711100000000002
 30
0.0
 10
-5.8610000000000007
 20
33.969500000000004
 30
0.0
 10
-5.8610000000000007
 20
33.969500000000004
 30
0.0
 10
-6.0921000000000003
 20
34.229700000000001
 30
0.0
 10
-6.2632000000000003
 20
34.484500000000004
 30
0.0
 10
-6.3705000000000007
 20
34.735600000000005
 30
0.0
 10
-6.3705000000000007
 20
34.735600000000005
 30
0.0
 10
-6.4797000000000002
 20
34.984900000000003
 30
0.0
 10
-6.5343
 20
35.263300000000001
 30
0.0
 10
-6.5343
 20
35.569000000000003
 30
0.0
 10
-6.5343
 20
35.569000000000003
 30
0.0
 10
-6.5343
 20
36.165800000000004
 30
0.0
 10
-6.3105000000000002
 20
36.664400000000001
 30
0.0
 10
-5.8665000000000003
 20
37.064700000000002
 30
0.0
 10
-5.8665000000000003
 20
37.064700000000002
 30
0.0
 10
-5.4225000000000003
 20
37.465000000000003
 30
0.0
 10
-4.782
 20
37.665199999999999
 30
0.0
 10
-3.9432
 20
37.665199999999999
 30
0.0
 10
-3.9432
 20
37.665199999999999
 30
0.0
 10
-3.0789
 20
37.665199999999999
 30
0.0
 10
-2.2236000000000002
 20
37.524999999999999
 30
0.0
 10
-1.3793
 20
37.2485
 30
0.0
 10
-1.3793
 20
37.2485
 30
0.0
 10
-0.3767
 20
36.920900000000003
 30
0.0
 10
0.3748
 20
36.466000000000001
 30
0.0
 10
0.877
 20
35.883800000000001
 30
0.0
 10
0.877
 20
35.883800000000001
 30
0.0
 10
1.2573000000000001
 20
35.436100000000003
 30
0.0
 10
1.4465000000000001
 20
34.926600000000001
 30
0.0
 10
1.4465000000000001
 20
34.353500000000004
 30
0.0
 10
1.4465000000000001
 20
34.353500000000004
 30
0.0
 10
1.4465000000000001
 20
33.767499999999998
 30
0.0
 10
1.2173
 20
33.272600000000004
 30
0.0
 10
0.7569
 20
32.868600000000001
 30
0.0
 10
0.7569
 20
32.868600000000001
 30
0.0
 10
0.2965
 20
32.466500000000003
 30
0.0
 10
-0.3731
 20
32.264499999999998
 30
0.0
 10
-1.2501
 20
32.264499999999998
 30
0.0
  0
SPLINE
  5
32
100
AcDbEntity
  8
Ebene 1
100
AcDbSpline
210
0.0
220
0.0
230
1.0
 70
     1
 71
     3
 72
    48
 73
    44
 74
     0
 42
0.0000000001
 43
0.0000000001
 40
0.0
 40
0.0
 40
0.0
 40
0.0
 40
0.0909090909090909
 40
0.0909090909090909
 40
0.0909090909090909
 40
0.0909090909090909
 40
0.1818181818181818
 40
0.1818181818181818
 40
0.1818181818181818
 40
0.1818181818181818
 40
0.2727272727272727
 40
0.2727272727272727
 40
0.2727272727272727
 40
0.2727272727272727
 40
0.3636363636363637
 40
0.3636363636363637
 40
0.3636363636363637
 40
0.3636363636363637
 40
0.4545454545454546
 40
0.4545454545454546
 40
0.4545454545454546
 40
0.4545454545454546
 40
0.5454545454545455
 40
0.5454545454545455
 40
0.5454545454545455
 40
0.5454545454545455
 40
0.6363636363636365
 40
0.6363636363636365
 40
0.6363636363636365
 40
0.6363636363636365
 40
0.7272727272727274
 40
0.7272727272727274
 40
0.7272727272727274
 40
0.7272727272727274
 40
0.8181818181818183
 40
0.8181818181818183
 40
0.8181818181818183
 40
0.8181818181818183
 40
0.9090909090909093
 40
0.9090909090909093
 40
0.9090909090909093
 40
0.9090909090909093
 40
1.0
 40
1.0
 40
1.0
 40
1.0
 10
-1.0044999999999999
 20
33.198
 30
0.0
 10
-0.5259
 20
33.198
 30
0.0
 10
-0.1511
 20
33.276200000000003
 30
0.0
 10
0.12
 20
33.436399999999999
 30
0.0
 10
0.12
 20
33.436399999999999
 30
0.0
 10
0.4931
 20
33.652900000000002
 30
0.0
 10
0.6787000000000001
 20
33.975000000000001
 30
0.0
 10
0.6787000000000001
 20
34.4026
 30
0.0
 10
0.6787000000000001
 20
34.4026
 30
0.0
 10
0.6787000000000001
 20
34.775600000000004
 30
0.0
 10
0.5112
 20
35.114100000000001
 30
0.0
 10
0.1728
 20
35.419800000000002
 30
0.0
 10
0.1728
 20
35.419800000000002
 30
0.0
 10
-0.3039
 20
35.860100000000003
 30
0.0
 10
-1.0009000000000001
 20
36.193100000000001
 30
0.0
 10
-1.9198000000000002
 20
36.415100000000002
 30
0.0
 10
-1.9198000000000002
 20
36.415100000000002
 30
0.0
 10
-2.8387000000000002
 20
36.637100000000004
 30
0.0
 10
-3.5883000000000003
 20
36.748100000000001
 30
0.0
 10
-4.1724000000000006
 20
36.748100000000001
 30
0.0
 10
-4.1724000000000006
 20
36.748100000000001
 30
0.0
 10
-4.7328999999999999
 20
36.748100000000001
 30
0.0
 10
-5.1387
 20
36.640700000000002
 30
0.0
 10
-5.3879000000000001
 20
36.424199999999999
 30
0.0
 10
-5.3879000000000001
 20
36.424199999999999
 30
0.0
 10
-5.6354000000000006
 20
36.209499999999998
 30
0.0
 10
-5.7610000000000001
 20
35.927399999999999
 30
0.0
 10
-5.7610000000000001
 20
35.574400000000004
 30
0.0
 10
-5.7610000000000001
 20
35.574400000000004
 30
0.0
 10
-5.7610000000000001
 20
35.319700000000005
 30
0.0
 10
-5.6955
 20
35.079500000000003
 30
0.0
 10
-5.5626000000000007
 20
34.857500000000002
 30
0.0
 10
-5.5626000000000007
 20
34.857500000000002
 30
0.0
 10
-5.4316000000000004
 20
34.6355
 30
0.0
 10
-5.2060000000000004
 20
34.422600000000003
 30
0.0
 10
-4.8856999999999999
 20
34.220600000000005
 30
0.0
 10
-4.8856999999999999
 20
34.220600000000005
 30
0.0
 10
-4.4344999999999999
 20
33.933100000000003
 30
0.0
 10
-3.7594000000000003
 20
33.682000000000002
 30
0.0
 10
-2.8605
 20
33.469100000000005
 30
0.0
 10
-2.8605
 20
33.469100000000005
 30
0.0
 10
-2.0926
 20
33.287199999999999
 30
0.0
 10
-1.474
 20
33.198
 30
0.0
 10
-1.0044999999999999
 20
33.198
 30
0.0
  0
SPLINE
  5
33
100
AcDbEntity
  8
Ebene 1
100
AcDbSpline
210
0.0
220
0.0
230
1.0
 70
     1
 71
     3
 72
    44
 73
    40
 74
     0
 42
0.0000000001
 43
0.0000000001
 40
0.0
 40
0.0
 40
0.0
 40
0.0
 40
0.1
 40
0.1
 40
0.1
 40
0.1
 40
0.2
 40
0.2
 40
0.2
 40
0.2
 40
0.3
 40
0.3
 40
0.3
 40
0.3
 40
0.4
 40
0.4
 40
0.4
 40
0.4
 40
0.5
 40
0.5
 40
0.5
 40
0.5
 40
0.6
 40
0.6
 40
0.6
 40
0.6
 40
0.7
 40
0.7
 40
0.7
 40
0.7
 40
0.7999999999999999
 40
0.7999999999999999
 40
0.7999999999999999
 40
0.7999999999999999
 40
0.8999999999999999
 40
0.8999999999999999
 40
0.8999999999999999
 40
0.8999999999999999
 40
1.0
 40
1.0
 40
1.0
 40
1.0
 10
3.6119000000000003
 20
39.322900000000004
 30
0.0
 10
2.3891
 20
38.764200000000002
 30
0.0
 10
1.1317000000000002
 20
38.485800000000005
 30
0.0
 10
-0.1584
 20
38.485800000000005
 30
0.0
 10
-0.1584
 20
38.485800000000005
 30
0.0
 10
-1.0172000000000001
 20
38.485800000000005
 30
0.0
 10
-1.8179000000000001
 20
38.598700000000001
 30
0.0
 10
-2.5584000000000002
 20
38.824300000000001
 30
0.0
 10
-2.5584000000000002
 20
38.824300000000001
 30
0.0
 10
-3.3008000000000002
 20
39.049900000000001
 30
0.0
 10
-4.0323000000000002
 20
39.393799999999999
 30
0.0
 10
-4.7584
 20
39.856000000000002
 30
0.0
 10
-4.7584
 20
39.856000000000002
 30
0.0
 10
-5.2423999999999999
 20
40.161700000000003
 30
0.0
 10
-5.8665000000000003
 20
40.6494
 30
0.0
 10
-6.6344000000000003
 20
41.320800000000006
 30
0.0
 10
-6.6344000000000003
 20
41.320800000000006
 30
0.0
 10
-6.6344000000000003
 20
41.320800000000006
 30
0.0
 10
-6.6344000000000003
 20
42.074100000000001
 30
0.0
 10
-6.6344000000000003
 20
42.074100000000001
 30
0.0
 10
-6.6344000000000003
 20
42.074100000000001
 30
0.0
 10
-6.1904000000000003
 20
41.657400000000003
 30
0.0
 10
-5.5645000000000007
 20
41.217100000000002
 30
0.0
 10
-4.7584
 20
40.753100000000003
 30
0.0
 10
-4.7584
 20
40.753100000000003
 30
0.0
 10
-3.9523000000000001
 20
40.290900000000001
 30
0.0
 10
-3.1589
 20
39.952500000000001
 30
0.0
 10
-2.3801000000000001
 20
39.743200000000002
 30
0.0
 10
-2.3801000000000001
 20
39.743200000000002
 30
0.0
 10
-1.6031
 20
39.533900000000003
 30
0.0
 10
-0.8207
 20
39.428400000000003
 30
0.0
 10
-0.0346
 20
39.428400000000003
 30
0.0
 10
-0.0346
 20
39.428400000000003
 30
0.0
 10
1.1372
 20
39.428400000000003
 30
0.0
 10
2.3527
 20
39.634
 30
0.0
 10
3.6119000000000003
 20
40.041600000000003
 30
0.0
 10
3.6119000000000003
 20
40.041600000000003
 30
0.0
 10
3.6119000000000003
 20
40.041600000000003
 30
0.0
 10
3.6119000000000003
 20
39.322900000000004
 30
0.0
 10
3.6119000000000003
 20
39.322900000000004
 30
0.0
  0
SPLINE
  5
34
100
AcDbEntity
  8
Ebene 1
100
AcDbSpline
210
0.0
220
0.0
230
1.0
 70
     1
 71
     3
 72
   152
 73
   148
 74
     0
 42
0.0000000001
 43
0.0000000001
 40
0.0
 40
0.0
 40
0.0
 40
0.0
 40
0.027027027027027
 40
0.027027027027027
 40
0.027027027027027
 40
0.027027027027027
 40
0.0540540540540541
 40
0.0540540540540541
 40
0.0540540540540541
 40
0.0540540540540541
 40
0.0810810810810811
 40
0.0810810810810811
 40
0.0810810810810811
 40
0.0810810810810811
 40
0.1081081081081081
 40
0.1081081081081081
 40
0.1081081081081081
 40
0.1081081081081081
 40
0.1351351351351351
 40
0.1351351351351351
 40
0.1351351351351351
 40
0.1351351351351351
 40
0.1621621621621622
 40
0.1621621621621622
 40
0.1621621621621622
 40
0.1621621621621622
 40
0.1891891891891892
 40
0.1891891891891892
 40
0.1891891891891892
 40
0.1891891891891892
 40
0.2162162162162162
 40
0.2162162162162162
 40
0.2162162162162162
 40
0.2162162162162162
 40
0.2432432432432433
 40
0.2432432432432433
 40
0.2432432432432433
 40
0.2432432432432433
 40
0.2702702702702703
 40
0.2702702702702703
 40
0.2702702702702703
 40
0.2702702702702703
 40
0.2972972972972973
 40
0.2972972972972973
 40
0.2972972972972973
 40
0.2972972972972973
 40
0.3243243243243243
 40
0.3243243243243243
 40
0.3243243243243243
 40
0.3243243243243243
 40
0.3513513513513514
 40
0.3513513513513514
 40
0.3513513513513514
 40
0.3513513513513514
 40
0.3783783783783784
 40
0.3783783783783784
 40
0.3783783783783784
 40
0.3783783783783784
 40
0.4054054054054054
 40
0.4054054054054054
 40
0.4054054054054054
 40
0.4054054054054054
 40
0.4324324324324325
 40
0.4324324324324325
 40
0.4324324324324325
 40
0.4324324324324325
 40
0.4594594594594595
 40
0.4594594594594595
 40
0.4594594594594595
 40
0.4594594594594595
 40
0.4864864864864865
 40
0.4864864864864865
 40
0.4864864864864865
 40
0.4864864864864865
 40
0.5135135135135136
 40
0.5135135135135136
 40
0.5135135135135136
 40
0.5135135135135136
 40
0.5405405405405406
 40
0.5405405405405406
 40
0.5405405405405406
 40
0.5405405405405406
 40
0.5675675675675675
 40
0.5675675675675675
 40
0.5675675675675675
 40
0.5675675675675675
 40
0.5945945945945945
 40
0.5945945945945945
 40
0.5945945945945945
 40
0.5945945945945945
 40
0.6216216216216215
 40
0.6216216216216215
 40
0.6216216216216215
 40
0.6216216216216215
 40
0.6486486486486485
 40
0.6486486486486485
 40
0.6486486486486485
 40
0.6486486486486485
 40
0.6756756756756754
 40
0.6756756756756754
 40
0.6756756756756754
 40
0.6756756756756754
 40
0.7027027027027024
 40
0.7027027027027024
 40
0.7027027027027024
 40
0.7027027027027024
 40
0.7297297297297294
 40
0.7297297297297294
 40
0.7297297297297294
 40
0.7297297297297294
 40
0.7567567567567564
 40
0.7567567567567564
 40
0.7567567567567564
 40
0.7567567567567564
 40
0.7837837837837833
 40
0.7837837837837833
 40
0.7837837837837833
 40
0.7837837837837833
 40
0.8108108108108103
 40
0.8108108108108103
 40
0.8108108108108103
 40
0.8108108108108103
 40
0.8378378378378373
 40
0.8378378378378373
 40
0.8378378378378373
 40
0.8378378378378373
 40
0.8648648648648643
 40
0.8648648648648643
 40
0.8648648648648643
 40
0.8648648648648643
 40
0.8918918918918912
 40
0.8918918918918912
 40
0.8918918918918912
 40
0.8918918918918912
 40
0.9189189189189182
 40
0.9189189189189182
 40
0.9189189189189182
 40
0.9189189189189182
 40
0.9459459459459452
 40
0.9459459459459452
 40
0.9459459459459452
 40
0.9459459459459452
 40
0.9729729729729721
 40
0.9729729729729721
 40
0.9729729729729721
 40
0.9729729729729721
 40
1.0
 40
1.0
 40
1.0
 40
1.0
 10
-1.2137
 20
41.966799999999999
 30
0.0
 10
-1.2137
 20
41.966799999999999
 30
0.0
 10
-1.3084
 20
42.989400000000003
 30
0.0
 10
-1.3084
 20
42.989400000000003
 30
0.0
 10
-1.3084
 20
42.989400000000003
 30
0.0
 10
-1.3084
 20
42.989400000000003
 30
0.0
 10
-1.0372000000000001
 20
42.9803
 30
0.0
 10
-1.0372000000000001
 20
42.9803
 30
0.0
 10
-1.0372000000000001
 20
42.9803
 30
0.0
 10
-0.7352000000000001
 20
42.9803
 30
0.0
 10
-0.4586
 20
43.049500000000002
 30
0.0
 10
-0.2075
 20
43.1877
 30
0.0
 10
-0.2075
 20
43.1877
 30
0.0
 10
0.0418
 20
43.326000000000001
 30
0.0
 10
0.2365
 20
43.555300000000003
 30
0.0
 10
0.373
 20
43.875599999999999
 30
0.0
 10
0.373
 20
43.875599999999999
 30
0.0
 10
0.5094000000000001
 20
44.194000000000003
 30
0.0
 10
0.5786
 20
44.574300000000001
 30
0.0
 10
0.5786
 20
45.016500000000001
 30
0.0
 10
0.5786
 20
45.016500000000001
 30
0.0
 10
0.5786
 20
45.640599999999999
 30
0.0
 10
0.4421000000000001
 20
46.119100000000003
 30
0.0
 10
0.1673
 20
46.4467
 30
0.0
 10
0.1673
 20
46.4467
 30
0.0
 10
-0.1056
 20
46.776000000000003
 30
0.0
 10
-0.4186
 20
46.939800000000005
 30
0.0
 10
-0.7716000000000001
 20
46.939800000000005
 30
0.0
 10
-0.7716000000000001
 20
46.939800000000005
 30
0.0
 10
-1.0154000000000001
 20
46.939800000000005
 30
0.0
 10
-1.2392000000000001
 20
46.852400000000003
 30
0.0
 10
-1.4430000000000001
 20
46.679600000000001
 30
0.0
 10
-1.4430000000000001
 20
46.679600000000001
 30
0.0
 10
-1.6414
 20
46.501300000000001
 30
0.0
 10
-1.9107000000000001
 20
46.0154
 30
0.0
 10
-2.2526999999999999
 20
45.2239
 30
0.0
 10
-2.2526999999999999
 20
45.2239
 30
0.0
 10
-2.5184000000000002
 20
44.608900000000006
 30
0.0
 10
-2.7240000000000002
 20
44.190300000000001
 30
0.0
 10
-2.8660000000000001
 20
43.966500000000003
 30
0.0
 10
-2.8660000000000001
 20
43.966500000000003
 30
0.0
 10
-3.0971000000000002
 20
43.613500000000002
 30
0.0
 10
-3.3482000000000003
 20
43.3551
 30
0.0
 10
-3.6193
 20
43.1877
 30
0.0
 10
-3.6193
 20
43.1877
 30
0.0
 10
-3.8922000000000003
 20
43.020299999999999
 30
0.0
 10
-4.2016
 20
42.936599999999999
 30
0.0
 10
-4.5509000000000004
 20
42.936599999999999
 30
0.0
 10
-4.5509000000000004
 20
42.936599999999999
 30
0.0
 10
-4.9512
 20
42.936599999999999
 30
0.0
 10
-5.3151999999999999
 20
43.047600000000003
 30
0.0
 10
-5.6372
 20
43.267800000000001
 30
0.0
 10
-5.6372
 20
43.267800000000001
 30
0.0
 10
-5.9611000000000001
 20
43.488
 30
0.0
 10
-6.2086000000000006
 20
43.810000000000002
 30
0.0
 10
-6.3795999999999999
 20
44.234000000000002
 30
0.0
 10
-6.3795999999999999
 20
44.234000000000002
 30
0.0
 10
-6.5489000000000006
 20
44.659800000000004
 30
0.0
 10
-6.6344000000000003
 20
45.138400000000004
 30
0.0
 10
-6.6344000000000003
 20
45.671500000000002
 30
0.0
 10
-6.6344000000000003
 20
45.671500000000002
 30
0.0
 10
-6.6344000000000003
 20
46.308399999999999
 30
0.0
 10
-6.5288000000000004
 20
46.845200000000006
 30
0.0
 10
-6.3141000000000007
 20
47.2819
 30
0.0
 10
-6.3141000000000007
 20
47.2819
 30
0.0
 10
-6.1012000000000004
 20
47.718600000000002
 30
0.0
 10
-5.8174000000000001
 20
48.035200000000003
 30
0.0
 10
-5.4626000000000001
 20
48.233499999999999
 30
0.0
 10
-5.4626000000000001
 20
48.233499999999999
 30
0.0
 10
-5.1059000000000001
 20
48.430100000000003
 30
0.0
 10
-4.7675000000000001
 20
48.528300000000002
 30
0.0
 10
-4.4436
 20
48.528300000000002
 30
0.0
 10
-4.4436
 20
48.528300000000002
 30
0.0
 10
-4.4108000000000001
 20
48.528300000000002
 30
0.0
 10
-4.3580000000000005
 20
48.526500000000006
 30
0.0
 10
-4.2834000000000003
 20
48.5229
 30
0.0
 10
-4.2834000000000003
 20
48.5229
 30
0.0
 10
-4.2834000000000003
 20
48.5229
 30
0.0
 10
-4.2034000000000002
 20
47.516600000000004
 30
0.0
 10
-4.2034000000000002
 20
47.516600000000004
 30
0.0
 10
-4.2034000000000002
 20
47.516600000000004
 30
0.0
 10
-4.4236000000000004
 20
47.516600000000004
 30
0.0
 10
-4.5964
 20
47.496600000000001
 30
0.0
 10
-4.7201000000000004
 20
47.456600000000002
 30
0.0
 10
-4.7201000000000004
 20
47.456600000000002
 30
0.0
 10
-4.9385000000000003
 20
47.385600000000004
 30
0.0
 10
-5.1204999999999998
 20
47.276400000000002
 30
0.0
 10
-5.2697000000000003
 20
47.127200000000002
 30
0.0
 10
-5.2697000000000003
 20
47.127200000000002
 30
0.0
 10
-5.4188999999999998
 20
46.978000000000002
 30
0.0
 10
-5.5390000000000006
 20
46.772400000000005
 30
0.0
 10
-5.6299999999999999
 20
46.510400000000004
 30
0.0
 10
-5.6299999999999999
 20
46.510400000000004
 30
0.0
 10
-5.7209000000000003
 20
46.2502
 30
0.0
 10
-5.7664
 20
45.9572
 30
0.0
 10
-5.7664
 20
45.635100000000001
 30
0.0
 10
-5.7664
 20
45.635100000000001
 30
0.0
 10
-5.7664
 20
45.065600000000003
 30
0.0
 10
-5.6372
 20
44.623400000000004
 30
0.0
 10
-5.3825000000000003
 20
44.306800000000003
 30
0.0
 10
-5.3825000000000003
 20
44.306800000000003
 30
0.0
 10
-5.1859999999999999
 20
44.064800000000005
 30
0.0
 10
-4.9276
 20
43.944700000000005
 30
0.0
 10
-4.6036999999999999
 20
43.944700000000005
 30
0.0
 10
-4.6036999999999999
 20
43.944700000000005
 30
0.0
 10
-4.4108000000000001
 20
43.944700000000005
 30
0.0
 10
-4.2397999999999998
 20
43.9938
 30
0.0
 10
-4.0887000000000002
 20
44.093900000000005
 30
0.0
 10
-4.0887000000000002
 20
44.093900000000005
 30
0.0
 10
-3.9377
 20
44.194000000000003
 30
0.0
 10
-3.7903000000000002
 20
44.372300000000003
 30
0.0
 10
-3.6448
 20
44.6325
 30
0.0
 10
-3.6448
 20
44.6325
 30
0.0
 10
-3.5410000000000004
 20
44.816300000000005
 30
0.0
 10
-3.3372000000000002
 20
45.254800000000003
 30
0.0
 10
-3.0315000000000003
 20
45.948100000000004
 30
0.0
 10
-3.0315000000000003
 20
45.948100000000004
 30
0.0
 10
-2.7823000000000002
 20
46.510400000000004
 30
0.0
 10
-2.5876000000000001
 20
46.8979
 30
0.0
 10
-2.4438
 20
47.110800000000005
 30
0.0
 10
-2.4438
 20
47.110800000000005
 30
0.0
 10
-2.2564000000000002
 20
47.3947
 30
0.0
 10
-2.0270999999999999
 20
47.613
 30
0.0
 10
-1.7596000000000001
 20
47.765900000000002
 30
0.0
 10
-1.7596000000000001
 20
47.765900000000002
 30
0.0
 10
-1.4921
 20
47.918700000000001
 30
0.0
 10
-1.1865000000000001
 20
47.995200000000004
 30
0.0
 10
-0.8462000000000001
 20
47.995200000000004
 30
0.0
 10
-0.8462000000000001
 20
47.995200000000004
 30
0.0
 10
-0.4222
 20
47.995200000000004
 30
0.0
 10
-0.0328
 20
47.867800000000003
 30
0.0
 10
0.3256
 20
47.609400000000001
 30
0.0
 10
0.3256
 20
47.609400000000001
 30
0.0
 10
0.6823
 20
47.350999999999999
 30
0.0
 10
0.9589000000000001
 20
46.996200000000002
 30
0.0
 10
1.1536
 20
46.5413
 30
0.0
 10
1.1536
 20
46.5413
 30
0.0
 10
1.3501000000000001
 20
46.086400000000005
 30
0.0
 10
1.4465000000000001
 20
45.5642
 30
0.0
 10
1.4465000000000001
 20
44.978200000000001
 30
0.0
 10
1.4465000000000001
 20
44.978200000000001
 30
0.0
 10
1.4465000000000001
 20
44.093900000000005
 30
0.0
 10
1.2537
 20
43.371500000000005
 30
0.0
 10
0.8679
 20
42.811100000000003
 30
0.0
 10
0.8679
 20
42.811100000000003
 30
0.0
 10
0.4821
 20
42.252500000000005
 30
0.0
 10
-0.2111
 20
41.970400000000005
 30
0.0
 10
-1.2137
 20
41.966799999999999
 30
0.0
  0
SPLINE
  5
35
100
AcDbEntity
  8
Ebene 1
100
AcDbSpline
210
0.0
220
0.0
230
1.0
 70
     1
 71
     3
 72
    80
 73
    76
 74
     0
 42
0.0000000001
 43
0.0000000001
 40
0.0
 40
0.0
 40
0.0
 40
0.0
 40
0.0526315789473684
 40
0.0526315789473684
 40
0.0526315789473684
 40
0.0526315789473684
 40
0.1052631578947368
 40
0.1052631578947368
 40
0.1052631578947368
 40
0.1052631578947368
 40
0.1578947368421053
 40
0.1578947368421053
 40
0.1578947368421053
 40
0.1578947368421053
 40
0.2105263157894737
 40
0.2105263157894737
 40
0.2105263157894737
 40
0.2105263157894737
 40
0.2631578947368421
 40
0.2631578947368421
 40
0.2631578947368421
 40
0.2631578947368421
 40
0.3157894736842105
 40
0.3157894736842105
 40
0.3157894736842105
 40
0.3157894736842105
 40
0.3684210526315789
 40
0.3684210526315789
 40
0.3684210526315789
 40
0.3684210526315789
 40
0.4210526315789474
 40
0.4210526315789474
 40
0.4210526315789474
 40
0.4210526315789474
 40
0.4736842105263158
 40
0.4736842105263158
 40
0.4736842105263158
 40
0.4736842105263158
 40
0.5263157894736842
 40
0.5263157894736842
 40
0.5263157894736842
 40
0.5263157894736842
 40
0.5789473684210527
 40
0.5789473684210527
 40
0.5789473684210527
 40
0.5789473684210527
 40
0.631578947368421
 40
0.631578947368421
 40
0.631578947368421
 40
0.631578947368421
 40
0.6842105263157894
 40
0.6842105263157894
 40
0.6842105263157894
 40
0.6842105263157894
 40
0.7368421052631577
 40
0.7368421052631577
 40
0.7368421052631577
 40
0.7368421052631577
 40
0.7894736842105261
 40
0.7894736842105261
 40
0.7894736842105261
 40
0.7894736842105261
 40
0.8421052631578945
 40
0.8421052631578945
 40
0.8421052631578945
 40
0.8421052631578945
 40
0.8947368421052628
 40
0.8947368421052628
 40
0.8947368421052628
 40
0.8947368421052628
 40
0.9473684210526312
 40
0.9473684210526312
 40
0.9473684210526312
 40
0.9473684210526312
 40
1.0
 40
1.0
 40
1.0
 40
1.0
 10
1.3137000000000001
 20
48.961400000000005
 30
0.0
 10
1.3137000000000001
 20
48.961400000000005
 30
0.0
 10
-6.5016000000000007
 20
50.591799999999999
 30
0.0
 10
-6.5016000000000007
 20
50.591799999999999
 30
0.0
 10
-6.5016000000000007
 20
50.591799999999999
 30
0.0
 10
-6.5016000000000007
 20
50.591799999999999
 30
0.0
 10
-6.5016000000000007
 20
51.876400000000004
 30
0.0
 10
-6.5016000000000007
 20
51.876400000000004
 30
0.0
 10
-6.5016000000000007
 20
51.876400000000004
 30
0.0
 10
-6.5016000000000007
 20
51.876400000000004
 30
0.0
 10
-1.4376
 20
52.6661
 30
0.0
 10
-1.4376
 20
52.6661
 30
0.0
 10
-1.4376
 20
52.6661
 30
0.0
 10
-0.7716000000000001
 20
52.768000000000001
 30
0.0
 10
-0.1347
 20
52.837200000000003
 30
0.0
 10
0.4767
 20
52.868100000000005
 30
0.0
 10
0.4767
 20
52.868100000000005
 30
0.0
 10
-0.0492
 20
53.084600000000002
 30
0.0
 10
-0.7625000000000001
 20
53.4467
 30
0.0
 10
-1.6614
 20
53.956200000000003
 30
0.0
 10
-1.6614
 20
53.956200000000003
 30
0.0
 10
-1.6614
 20
53.956200000000003
 30
0.0
 10
-6.5016000000000007
 20
56.696600000000004
 30
0.0
 10
-6.5016000000000007
 20
56.696600000000004
 30
0.0
 10
-6.5016000000000007
 20
56.696600000000004
 30
0.0
 10
-6.5016000000000007
 20
56.696600000000004
 30
0.0
 10
-6.5016000000000007
 20
58.001200000000004
 30
0.0
 10
-6.5016000000000007
 20
58.001200000000004
 30
0.0
 10
-6.5016000000000007
 20
58.001200000000004
 30
0.0
 10
-6.5016000000000007
 20
58.001200000000004
 30
0.0
 10
1.3137000000000001
 20
56.370900000000006
 30
0.0
 10
1.3137000000000001
 20
56.370900000000006
 30
0.0
 10
1.3137000000000001
 20
56.370900000000006
 30
0.0
 10
1.3137000000000001
 20
56.370900000000006
 30
0.0
 10
1.3137000000000001
 20
55.342800000000004
 30
0.0
 10
1.3137000000000001
 20
55.342800000000004
 30
0.0
 10
1.3137000000000001
 20
55.342800000000004
 30
0.0
 10
1.3137000000000001
 20
55.342800000000004
 30
0.0
 10
-2.4875000000000003
 20
56.158000000000001
 30
0.0
 10
-2.4875000000000003
 20
56.158000000000001
 30
0.0
 10
-2.4875000000000003
 20
56.158000000000001
 30
0.0
 10
-3.3645
 20
56.345400000000005
 30
0.0
 10
-4.3489000000000004
 20
56.616500000000002
 30
0.0
 10
-5.4407000000000005
 20
56.967700000000001
 30
0.0
 10
-5.4407000000000005
 20
56.967700000000001
 30
0.0
 10
-4.9329999999999998
 20
56.743900000000004
 30
0.0
 10
-4.3853
 20
56.467300000000002
 30
0.0
 10
-3.7994000000000003
 20
56.136100000000006
 30
0.0
 10
-3.7994000000000003
 20
56.136100000000006
 30
0.0
 10
-3.7994000000000003
 20
56.136100000000006
 30
0.0
 10
1.3137000000000001
 20
53.224700000000006
 30
0.0
 10
1.3137000000000001
 20
53.224700000000006
 30
0.0
 10
1.3137000000000001
 20
53.224700000000006
 30
0.0
 10
1.3137000000000001
 20
53.224700000000006
 30
0.0
 10
1.3137000000000001
 20
52.218500000000006
 30
0.0
 10
1.3137000000000001
 20
52.218500000000006
 30
0.0
 10
1.3137000000000001
 20
52.218500000000006
 30
0.0
 10
1.3137000000000001
 20
52.218500000000006
 30
0.0
 10
-3.6975000000000002
 20
51.434200000000004
 30
0.0
 10
-3.6975000000000002
 20
51.434200000000004
 30
0.0
 10
-3.6975000000000002
 20
51.434200000000004
 30
0.0
 10
-4.1561000000000003
 20
51.363300000000002
 30
0.0
 10
-4.6909999999999998
 20
51.3123
 30
0.0
 10
-5.3024000000000004
 20
51.279600000000002
 30
0.0
 10
-5.3024000000000004
 20
51.279600000000002
 30
0.0
 10
-4.6164000000000005
 20
51.190400000000004
 30
0.0
 10
-4.0724
 20
51.103100000000005
 30
0.0
 10
-3.6702000000000004
 20
51.019400000000005
 30
0.0
 10
-3.6702000000000004
 20
51.019400000000005
 30
0.0
 10
-3.6702000000000004
 20
51.019400000000005
 30
0.0
 10
1.3137000000000001
 20
49.978500000000004
 30
0.0
 10
1.3137000000000001
 20
49.978500000000004
 30
0.0
 10
1.3137000000000001
 20
49.978500000000004
 30
0.0
 10
1.3137000000000001
 20
49.978500000000004
 30
0.0
 10
1.3137000000000001
 20
48.961400000000005
 30
0.0
 10
1.3137000000000001
 20
48.961400000000005
 30
0.0
  0
SPLINE
  5
36
100
AcDbEntity
  8
Ebene 1
100
AcDbSpline
210
0.0
220
0.0
230
1.0
 70
     1
 71
     3
 72
    28
 73
    24
 74
     0
 42
0.0000000001
 43
0.0000000001
 40
0.0
 40
0.0
 40
0.0
 40
0.0
 40
0.1666666666666667
 40
0.1666666666666667
 40
0.1666666666666667
 40
0.1666666666666667
 40
0.3333333333333333
 40
0.3333333333333333
 40
0.3333333333333333
 40
0.3333333333333333
 40
0.5
 40
0.5
 40
0.5
 40
0.5
 40
0.6666666666666666
 40
0.6666666666666666
 40
0.6666666666666666
 40
0.6666666666666666
 40
0.8333333333333333
 40
0.8333333333333333
 40
0.8333333333333333
 40
0.8333333333333333
 40
1.0
 40
1.0
 40
1.0
 40
1.0
 10
1.3137000000000001
 20
58.012100000000004
 30
0.0
 10
1.3137000000000001
 20
58.012100000000004
 30
0.0
 10
-6.5016000000000007
 20
59.644300000000001
 30
0.0
 10
-6.5016000000000007
 20
59.644300000000001
 30
0.0
 10
-6.5016000000000007
 20
59.644300000000001
 30
0.0
 10
-6.5016000000000007
 20
59.644300000000001
 30
0.0
 10
-6.5016000000000007
 20
60.688800000000001
 30
0.0
 10
-6.5016000000000007
 20
60.688800000000001
 30
0.0
 10
-6.5016000000000007
 20
60.688800000000001
 30
0.0
 10
-6.5016000000000007
 20
60.688800000000001
 30
0.0
 10
0.4294
 20
59.244
 30
0.0
 10
0.4294
 20
59.244
 30
0.0
 10
0.4294
 20
59.244
 30
0.0
 10
0.4294
 20
59.244
 30
0.0
 10
0.4294
 20
63.299900000000001
 30
0.0
 10
0.4294
 20
63.299900000000001
 30
0.0
 10
0.4294
 20
63.299900000000001
 30
0.0
 10
0.4294
 20
63.299900000000001
 30
0.0
 10
1.3137000000000001
 20
63.1143
 30
0.0
 10
1.3137000000000001
 20
63.1143
 30
0.0
 10
1.3137000000000001
 20
63.1143
 30
0.0
 10
1.3137000000000001
 20
63.1143
 30
0.0
 10
1.3137000000000001
 20
58.012100000000004
 30
0.0
 10
1.3137000000000001
 20
58.012100000000004
 30
0.0
  0
SPLINE
  5
37
100
AcDbEntity
  8
Ebene 1
100
AcDbSpline
210
0.0
220
0.0
230
1.0
 70
     1
 71
     3
 72
    44
 73
    40
 74
     0
 42
0.0000000001
 43
0.0000000001
 40
0.0
 40
0.0
 40
0.0
 40
0.0
 40
0.1
 40
0.1
 40
0.1
 40
0.1
 40
0.2
 40
0.2
 40
0.2
 40
0.2
 40
0.3
 40
0.3
 40
0.3
 40
0.3
 40
0.4
 40
0.4
 40
0.4
 40
0.4
 40
0.5
 40
0.5
 40
0.5
 40
0.5
 40
0.6
 40
0.6
 40
0.6
 40
0.6
 40
0.7
 40
0.7
 40
0.7
 40
0.7
 40
0.7999999999999999
 40
0.7999999999999999
 40
0.7999999999999999
 40
0.7999999999999999
 40
0.8999999999999999
 40
0.8999999999999999
 40
0.8999999999999999
 40
0.8999999999999999
 40
1.0
 40
1.0
 40
1.0
 40
1.0
 10
-6.6344000000000003
 20
65.811000000000007
 30
0.0
 10
-5.4116
 20
66.3733
 30
0.0
 10
-4.1579000000000006
 20
66.653500000000008
 30
0.0
 10
-2.8714
 20
66.653500000000008
 30
0.0
 10
-2.8714
 20
66.653500000000008
 30
0.0
 10
-2.0070999999999999
 20
66.653500000000008
 30
0.0
 10
-1.2065000000000001
 20
66.540700000000001
 30
0.0
 10
-0.4677
 20
66.315100000000001
 30
0.0
 10
-0.4677
 20
66.315100000000001
 30
0.0
 10
0.2729
 20
66.089399999999998
 30
0.0
 10
1.0062
 20
65.745500000000007
 30
0.0
 10
1.734
 20
65.283299999999997
 30
0.0
 10
1.734
 20
65.283299999999997
 30
0.0
 10
2.218
 20
64.974000000000004
 30
0.0
 10
2.8440000000000003
 20
64.4863
 30
0.0
 10
3.6119000000000003
 20
63.8185
 30
0.0
 10
3.6119000000000003
 20
63.8185
 30
0.0
 10
3.6119000000000003
 20
63.8185
 30
0.0
 10
3.6119000000000003
 20
63.067
 30
0.0
 10
3.6119000000000003
 20
63.067
 30
0.0
 10
3.6119000000000003
 20
63.067
 30
0.0
 10
3.1643000000000003
 20
63.478300000000004
 30
0.0
 10
2.5365000000000002
 20
63.916800000000002
 30
0.0
 10
1.7304000000000002
 20
64.382599999999996
 30
0.0
 10
1.7304000000000002
 20
64.382599999999996
 30
0.0
 10
0.9225000000000001
 20
64.848399999999998
 30
0.0
 10
0.1309
 20
65.185100000000006
 30
0.0
 10
-0.646
 20
65.392499999999998
 30
0.0
 10
-0.646
 20
65.392499999999998
 30
0.0
 10
-1.4212
 20
65.601799999999997
 30
0.0
 10
-2.2054
 20
65.705500000000001
 30
0.0
 10
-2.9933000000000001
 20
65.705500000000001
 30
0.0
 10
-2.9933000000000001
 20
65.705500000000001
 30
0.0
 10
-4.1669999999999998
 20
65.705500000000001
 30
0.0
 10
-5.3807
 20
65.5017
 30
0.0
 10
-6.6344000000000003
 20
65.092300000000009
 30
0.0
 10
-6.6344000000000003
 20
65.092300000000009
 30
0.0
 10
-6.6344000000000003
 20
65.092300000000009
 30
0.0
 10
-6.6344000000000003
 20
65.811000000000007
 30
0.0
 10
-6.6344000000000003
 20
65.811000000000007
 30
0.0
  0
SPLINE
  5
39
100
AcDbEntity
  8
LC-001-002-----0
370
    35
100
AcDbSpline
210
0.0
220
0.0
230
1.0
 70
     0
 71
     3
 72
     8
 73
     4
 74
     0
 42
0.0000000001
 43
0.0000000001
 40
0.0
 40
0.0
 40
0.0
 40
0.0
 40
1.0
 40
1.0
 40
1.0
 40
1.0
 10
-9.6567000000000007
 20
-0.6759000000000001
 30
0.0
 10
-9.6567000000000007
 20
-0.6759000000000001
 30
0.0
 10
-19.7988
 20
-0.6759000000000001
 30
0.0
 10
-19.7988
 20
-0.6759000000000001
 30
0.0
  0
SPLINE
  5
3A
100
AcDbEntity
  8
LC-001-002-----0
370
    35
100
AcDbSpline
210
0.0
220
0.0
230
1.0
 70
     0
 71
     3
 72
     8
 73
     4
 74
     0
 42
0.0000000001
 43
0.0000000001
 40
0.0
 40
0.0
 40
0.0
 40
0.0
 40
1.0
 40
1.0
 40
1.0
 40
1.0
 10
-19.7988
 20
-0.6759000000000001
 30
0.0
 10
-19.7988
 20
-0.6759000000000001
 30
0.0
 10
-26.846400000000003
 20
-0.6759000000000001
 30
0.0
 10
-26.846400000000003
 20
-0.6759000000000001
 30
0.0
  0
SPLINE
  5
3B
100
AcDbEntity
  8
LC-001-002-----0
370
    35
100
AcDbSpline
210
0.0
220
0.0
230
1.0
 70
     0
 71
     3
 72
     8
 73
     4
 74
     0
 42
0.0000000001
 43
0.0000000001
 40
0.0
 40
0.0
 40
0.0
 40
0.0
 40
1.0
 40
1.0
 40
1.0
 40
1.0
 10
-9.656600000000001
 20
-36.785900000000005
 30
0.0
 10
-9.656600000000001
 20
-36.785900000000005
 30
0.0
 10
-19.7986
 20
-36.785900000000005
 30
0.0
 10
-19.7986
 20
-36.785900000000005
 30
0.0
  0
SPLINE
  5
3C
100
AcDbEntity
  8
LC-001-002-----0
370
    35
100
AcDbSpline
210
0.0
220
0.0
230
1.0
 70
     0
 71
     3
 72
     8
 73
     4
 74
     0
 42
0.0000000001
 43
0.0000000001
 40
0.0
 40
0.0
 40
0.0
 40
0.0
 40
1.0
 40
1.0
 40
1.0
 40
1.0
 10
-19.7986
 20
-36.786000000000001
 30
0.0
 10
-19.7986
 20
-36.786000000000001
 30
0.0
 10
-26.846400000000003
 20
-36.786100000000005
 30
0.0
 10
-26.846400000000003
 20
-36.786100000000005
 30
0.0
  0
SPLINE
  5
3D
100
AcDbEntity
  8
LC-001-002-----0
370
    35
100
AcDbSpline
210
0.0
220
0.0
230
1.0
 70
     0
 71
     3
 72
     8
 73
     4
 74
     0
 42
0.0000000001
 43
0.0000000001
 40
0.0
 40
0.0
 40
0.0
 40
0.0
 40
1.0
 40
1.0
 40
1.0
 40
1.0
 10
-9.656600000000001
 20
-36.785900000000005
 30
0.0
 10
-9.656600000000001
 20
-36.785900000000005
 30
0.0
 10
-9.656600000000001
 20
-37.943899999999999
 30
0.0
 10
-9.656600000000001
 20
-37.943899999999999
 30
0.0
  0
SPLINE
  5
3E
100
AcDbEntity
  8
LC-001-002-----0
370
    35
100
AcDbSpline
210
0.0
220
0.0
230
1.0
 70
     0
 71
     3
 72
     8
 73
     4
 74
     0
 42
0.0000000001
 43
0.0000000001
 40
0.0
 40
0.0
 40
0.0
 40
0.0
 40
1.0
 40
1.0
 40
1.0
 40
1.0
 10
-9.6567000000000007
 20
-0.6759000000000001
 30
0.0
 10
-9.6567000000000007
 20
-0.6759000000000001
 30
0.0
 10
-9.6567000000000007
 20
0.4821
 30
0.0
 10
-9.6567000000000007
 20
0.4821
 30
0.0
  0
SPLINE
  5
3F
100
AcDbEntity
  8
LC-001-002-----0
370
    35
100
AcDbSpline
210
0.0
220
0.0
230
1.0
 70
     0
 71
     3
 72
     8
 73
     4
 74
     0
 42
0.0000000001
 43
0.0000000001
 40
0.0
 40
0.0
 40
0.0
 40
0.0
 40
1.0
 40
1.0
 40
1.0
 40
1.0
 10
-28.1846
 20
-4.0631000000000004
 30
0.0
 10
-28.1846
 20
-4.0631000000000004
 30
0.0
 10
-34.553600000000003
 20
-4.0631000000000004
 30
0.0
 10
-34.553600000000003
 20
-4.0631000000000004
 30
0.0
  0
SPLINE
  5
40
100
AcDbEntity
  8
LC-001-002-----0
370
    35
100
AcDbSpline
210
0.0
220
0.0
230
1.0
 70
     0
 71
     3
 72
     8
 73
     4
 74
     0
 42
0.0000000001
 43
0.0000000001
 40
0.0
 40
0.0
 40
0.0
 40
0.0
 40
1.0
 40
1.0
 40
1.0
 40
1.0
 10
-34.5535
 20
-33.398900000000005
 30
0.0
 10
-34.5535
 20
-33.398900000000005
 30
0.0
 10
-28.1845
 20
-33.398900000000005
 30
0.0
 10
-28.1845
 20
-33.398900000000005
 30
0.0
  0
SPLINE
  5
41
100
AcDbEntity
  8
LC-001-002-----0
370
    35
100
AcDbSpline
210
0.0
220
0.0
230
1.0
 70
     0
 71
     3
 72
     8
 73
     4
 74
     0
 42
0.0000000001
 43
0.0000000001
 40
0.0
 40
0.0
 40
0.0
 40
0.0
 40
1.0
 40
1.0
 40
1.0
 40
1.0
 10
-38.413600000000002
 20
-3.0981000000000001
 30
0.0
 10
-38.413600000000002
 20
-3.0981000000000001
 30
0.0
 10
-53.467500000000001
 20
-3.0982000000000003
 30
0.0
 10
-53.467500000000001
 20
-3.0982000000000003
 30
0.0
  0
SPLINE
  5
42
100
AcDbEntity
  8
LC-001-002-----0
370
    35
100
AcDbSpline
210
0.0
220
0.0
230
1.0
 70
     0
 71
     3
 72
     8
 73
     4
 74
     0
 42
0.0000000001
 43
0.0000000001
 40
0.0
 40
0.0
 40
0.0
 40
0.0
 40
1.0
 40
1.0
 40
1.0
 40
1.0
 10
-53.467400000000005
 20
-34.364000000000004
 30
0.0
 10
-53.467400000000005
 20
-34.364000000000004
 30
0.0
 10
-38.413499999999999
 20
-34.363900000000001
 30
0.0
 10
-38.413499999999999
 20
-34.363900000000001
 30
0.0
  0
SPLINE
  5
43
100
AcDbEntity
  8
LC-001-002-----0
370
    35
100
AcDbSpline
210
0.0
220
0.0
230
1.0
 70
     0
 71
     3
 72
     8
 73
     4
 74
     0
 42
0.0000000001
 43
0.0000000001
 40
0.0
 40
0.0
 40
0.0
 40
0.0
 40
1.0
 40
1.0
 40
1.0
 40
1.0
 10
-38.413600000000002
 20
-4.2917000000000005
 30
0.0
 10
-38.413600000000002
 20
-4.2917000000000005
 30
0.0
 10
-38.413600000000002
 20
-4.2561
 30
0.0
 10
-38.413600000000002
 20
-4.2561
 30
0.0
  0
SPLINE
  5
44
100
AcDbEntity
  8
LC-001-002-----0
370
    35
100
AcDbSpline
210
0.0
220
0.0
230
1.0
 70
     0
 71
     3
 72
     8
 73
     4
 74
     0
 42
0.0000000001
 43
0.0000000001
 40
0.0
 40
0.0
 40
0.0
 40
0.0
 40
1.0
 40
1.0
 40
1.0
 40
1.0
 10
-34.553600000000003
 20
-4.0631000000000004
 30
0.0
 10
-34.553600000000003
 20
-4.0631000000000004
 30
0.0
 10
-38.413600000000002
 20
-3.0981000000000001
 30
0.0
 10
-38.413600000000002
 20
-3.0981000000000001
 30
0.0
  0
SPLINE
  5
45
100
AcDbEntity
  8
LC-001-002-----0
370
    35
100
AcDbSpline
210
0.0
220
0.0
230
1.0
 70
     0
 71
     3
 72
     8
 73
     4
 74
     0
 42
0.0000000001
 43
0.0000000001
 40
0.0
 40
0.0
 40
0.0
 40
0.0
 40
1.0
 40
1.0
 40
1.0
 40
1.0
 10
-34.5535
 20
-33.398900000000005
 30
0.0
 10
-34.5535
 20
-33.398900000000005
 30
0.0
 10
-38.413499999999999
 20
-34.363900000000001
 30
0.0
 10
-38.413499999999999
 20
-34.363900000000001
 30
0.0
  0
SPLINE
  5
46
100
AcDbEntity
  8
LC-001-002-----0
370
    35
100
AcDbSpline
210
0.0
220
0.0
230
1.0
 70
     0
 71
     3
 72
     8
 73
     4
 74
     0
 42
0.0000000001
 43
0.0000000001
 40
0.0
 40
0.0
 40
0.0
 40
0.0
 40
1.0
 40
1.0
 40
1.0
 40
1.0
 10
-59.2575
 20
-3.0981000000000001
 30
0.0
 10
-59.2575
 20
-3.0981000000000001
 30
0.0
 10
-60.415500000000002
 20
-3.0981000000000001
 30
0.0
 10
-60.415500000000002
 20
-3.0981000000000001
 30
0.0
  0
SPLINE
  5
47
100
AcDbEntity
  8
LC-001-002-----0
370
    35
100
AcDbSpline
210
0.0
220
0.0
230
1.0
 70
     0
 71
     3
 72
     8
 73
     4
 74
     0
 42
0.0000000001
 43
0.0000000001
 40
0.0
 40
0.0
 40
0.0
 40
0.0
 40
1.0
 40
1.0
 40
1.0
 40
1.0
 10
-60.415500000000002
 20
-3.0981000000000001
 30
0.0
 10
-60.415500000000002
 20
-3.0981000000000001
 30
0.0
 10
-60.415400000000005
 20
-33.206000000000003
 30
0.0
 10
-60.415400000000005
 20
-33.206000000000003
 30
0.0
  0
SPLINE
  5
48
100
AcDbEntity
  8
LC-001-002-----0
370
    35
100
AcDbSpline
210
0.0
220
0.0
230
1.0
 70
     0
 71
     3
 72
     8
 73
     4
 74
     0
 42
0.0000000001
 43
0.0000000001
 40
0.0
 40
0.0
 40
0.0
 40
0.0
 40
1.0
 40
1.0
 40
1.0
 40
1.0
 10
-60.415400000000005
 20
-34.363900000000001
 30
0.0
 10
-60.415400000000005
 20
-34.363900000000001
 30
0.0
 10
-59.257400000000004
 20
-34.363900000000001
 30
0.0
 10
-59.257400000000004
 20
-34.363900000000001
 30
0.0
  0
SPLINE
  5
49
100
AcDbEntity
  8
LC-001-002-----0
370
    35
100
AcDbSpline
210
0.0
220
0.0
230
1.0
 70
     0
 71
     3
 72
     8
 73
     4
 74
     0
 42
0.0000000001
 43
0.0000000001
 40
0.0
 40
0.0
 40
0.0
 40
0.0
 40
1.0
 40
1.0
 40
1.0
 40
1.0
 10
-34.553600000000003
 20
-5.2567000000000004
 30
0.0
 10
-34.553600000000003
 20
-5.2567000000000004
 30
0.0
 10
-34.5535
 20
-32.205200000000005
 30
0.0
 10
-34.5535
 20
-32.205200000000005
 30
0.0
  0
SPLINE
  5
4A
100
AcDbEntity
  8
LC-001-002-----0
370
    35
100
AcDbSpline
210
0.0
220
0.0
230
1.0
 70
     0
 71
     3
 72
     8
 73
     4
 74
     0
 42
0.0000000001
 43
0.0000000001
 40
0.0
 40
0.0
 40
0.0
 40
0.0
 40
1.0
 40
1.0
 40
1.0
 40
1.0
 10
-58.099500000000006
 20
-1.2647000000000002
 30
0.0
 10
-58.739100000000001
 20
-1.2647000000000002
 30
0.0
 10
-59.2575
 20
-1.7831000000000001
 30
0.0
 10
-59.2575
 20
-2.4227000000000003
 30
0.0
  0
SPLINE
  5
4B
100
AcDbEntity
  8
LC-001-002-----0
370
    35
100
AcDbSpline
210
0.0
220
0.0
230
1.0
 70
     0
 71
     3
 72
     8
 73
     4
 74
     0
 42
0.0000000001
 43
0.0000000001
 40
0.0
 40
0.0
 40
0.0
 40
0.0
 40
1.0
 40
1.0
 40
1.0
 40
1.0
 10
-59.257400000000004
 20
-35.039400000000001
 30
0.0
 10
-59.257400000000004
 20
-35.679000000000002
 30
0.0
 10
-58.739000000000004
 20
-36.197400000000002
 30
0.0
 10
-58.099400000000003
 20
-36.197400000000002
 30
0.0
  0
SPLINE
  5
4C
100
AcDbEntity
  8
LC-001-002-----0
370
    35
100
AcDbSpline
210
0.0
220
0.0
230
1.0
 70
     0
 71
     3
 72
     8
 73
     4
 74
     0
 42
0.0000000001
 43
0.0000000001
 40
0.0
 40
0.0
 40
0.0
 40
0.0
 40
1.0
 40
1.0
 40
1.0
 40
1.0
 10
-58.099400000000003
 20
-35.039400000000001
 30
0.0
 10
-58.099400000000003
 20
-35.039400000000001
 30
0.0
 10
-55.011400000000002
 20
-35.039400000000001
 30
0.0
 10
-55.011400000000002
 20
-35.039400000000001
 30
0.0
  0
SPLINE
  5
4D
100
AcDbEntity
  8
LC-001-002-----0
370
    35
100
AcDbSpline
210
0.0
220
0.0
230
1.0
 70
     0
 71
     3
 72
     8
 73
     4
 74
     0
 42
0.0000000001
 43
0.0000000001
 40
0.0
 40
0.0
 40
0.0
 40
0.0
 40
1.0
 40
1.0
 40
1.0
 40
1.0
 10
-53.467500000000001
 20
-3.0982000000000003
 30
0.0
 10
-53.467500000000001
 20
-3.0982000000000003
 30
0.0
 10
-53.853500000000004
 20
-3.0982000000000003
 30
0.0
 10
-53.853500000000004
 20
-3.0982000000000003
 30
0.0
  0
SPLINE
  5
4E
100
AcDbEntity
  8
LC-001-002-----0
370
    35
100
AcDbSpline
210
0.0
220
0.0
230
1.0
 70
     0
 71
     3
 72
     8
 73
     4
 74
     0
 42
0.0000000001
 43
0.0000000001
 40
0.0
 40
0.0
 40
0.0
 40
0.0
 40
1.0
 40
1.0
 40
1.0
 40
1.0
 10
-53.467400000000005
 20
-34.364000000000004
 30
0.0
 10
-53.467400000000005
 20
-34.364000000000004
 30
0.0
 10
-53.853400000000001
 20
-34.364000000000004
 30
0.0
 10
-53.853400000000001
 20
-34.364000000000004
 30
0.0
  0
SPLINE
  5
4F
100
AcDbEntity
  8
LC-001-002-----0
370
    35
100
AcDbSpline
210
0.0
220
0.0
230
1.0
 70
     0
 71
     3
 72
     8
 73
     4
 74
     0
 42
0.0000000001
 43
0.0000000001
 40
0.0
 40
0.0
 40
0.0
 40
0.0
 40
1.0
 40
1.0
 40
1.0
 40
1.0
 10
-55.011500000000005
 20
-1.2647000000000002
 30
0.0
 10
-55.011500000000005
 20
-1.2647000000000002
 30
0.0
 10
-58.099500000000006
 20
-1.2647000000000002
 30
0.0
 10
-58.099500000000006
 20
-1.2647000000000002
 30
0.0
  0
SPLINE
  5
50
100
AcDbEntity
  8
LC-001-002-----0
370
    35
100
AcDbSpline
210
0.0
220
0.0
230
1.0
 70
     0
 71
     3
 72
    12
 73
     8
 74
     0
 42
0.0000000001
 43
0.0000000001
 40
0.0
 40
0.0
 40
0.0
 40
0.0
 40
0.5
 40
0.5
 40
0.5
 40
0.5
 40
1.0
 40
1.0
 40
1.0
 40
1.0
 10
-55.011400000000002
 20
-36.197400000000002
 30
0.0
 10
-54.704300000000003
 20
-36.197400000000002
 30
0.0
 10
-54.409800000000004
 20
-36.075400000000002
 30
0.0
 10
-54.192700000000002
 20
-35.858200000000004
 30
0.0
 10
-54.192700000000002
 20
-35.858200000000004
 30
0.0
 10
-53.9754
 20
-35.640999999999998
 30
0.0
 10
-53.853400000000001
 20
-35.346499999999999
 30
0.0
 10
-53.853400000000001
 20
-35.039400000000001
 30
0.0
  0
SPLINE
  5
51
100
AcDbEntity
  8
LC-001-002-----0
370
    35
100
AcDbSpline
210
0.0
220
0.0
230
1.0
 70
     0
 71
     3
 72
     8
 73
     4
 74
     0
 42
0.0000000001
 43
0.0000000001
 40
0.0
 40
0.0
 40
0.0
 40
0.0
 40
1.0
 40
1.0
 40
1.0
 40
1.0
 10
-58.099400000000003
 20
-36.197400000000002
 30
0.0
 10
-58.099400000000003
 20
-36.197400000000002
 30
0.0
 10
-55.011400000000002
 20
-36.197400000000002
 30
0.0
 10
-55.011400000000002
 20
-36.197400000000002
 30
0.0
  0
SPLINE
  5
52
100
AcDbEntity
  8
LC-001-002-----0
370
    35
100
AcDbSpline
210
0.0
220
0.0
230
1.0
 70
     0
 71
     3
 72
     8
 73
     4
 74
     0
 42
0.0000000001
 43
0.0000000001
 40
0.0
 40
0.0
 40
0.0
 40
0.0
 40
1.0
 40
1.0
 40
1.0
 40
1.0
 10
-26.846400000000003
 20
-0.6759000000000001
 30
0.0
 10
-26.846400000000003
 20
-0.6759000000000001
 30
0.0
 10
-26.846400000000003
 20
-36.786100000000005
 30
0.0
 10
-26.846400000000003
 20
-36.786100000000005
 30
0.0
  0
SPLINE
  5
53
100
AcDbEntity
  8
LC-001-002-----0
370
    35
100
AcDbSpline
210
0.0
220
0.0
230
1.0
 70
     0
 71
     3
 72
     8
 73
     4
 74
     0
 42
0.0000000001
 43
0.0000000001
 40
0.0
 40
0.0
 40
0.0
 40
0.0
 40
1.0
 40
1.0
 40
1.0
 40
1.0
 10
-28.1846
 20
-4.0631000000000004
 30
0.0
 10
-28.1846
 20
-4.0631000000000004
 30
0.0
 10
-28.1846
 20
-1.0619000000000001
 30
0.0
 10
-28.1846
 20
-1.0619000000000001
 30
0.0
  0
SPLINE
  5
54
100
AcDbEntity
  8
LC-001-002-----0
370
    35
100
AcDbSpline
210
0.0
220
0.0
230
1.0
 70
     0
 71
     3
 72
     8
 73
     4
 74
     0
 42
0.0000000001
 43
0.0000000001
 40
0.0
 40
0.0
 40
0.0
 40
0.0
 40
1.0
 40
1.0
 40
1.0
 40
1.0
 10
-26.640600000000003
 20
0.4821
 30
0.0
 10
-27.493300000000001
 20
0.4821
 30
0.0
 10
-28.1846
 20
-0.2091
 30
0.0
 10
-28.1846
 20
-1.0619000000000001
 30
0.0
  0
SPLINE
  5
55
100
AcDbEntity
  8
LC-001-002-----0
370
    35
100
AcDbSpline
210
0.0
220
0.0
230
1.0
 70
     0
 71
     3
 72
     8
 73
     4
 74
     0
 42
0.0000000001
 43
0.0000000001
 40
0.0
 40
0.0
 40
0.0
 40
0.0
 40
1.0
 40
1.0
 40
1.0
 40
1.0
 10
-9.6567000000000007
 20
0.4821
 30
0.0
 10
-9.6567000000000007
 20
0.4821
 30
0.0
 10
-26.640600000000003
 20
0.4821
 30
0.0
 10
-26.640600000000003
 20
0.4821
 30
0.0
  0
SPLINE
  5
56
100
AcDbEntity
  8
LC-001-002-----0
370
    35
100
AcDbSpline
210
0.0
220
0.0
230
1.0
 70
     0
 71
     3
 72
     8
 73
     4
 74
     0
 42
0.0000000001
 43
0.0000000001
 40
0.0
 40
0.0
 40
0.0
 40
0.0
 40
1.0
 40
1.0
 40
1.0
 40
1.0
 10
-28.1845
 20
-36.399900000000002
 30
0.0
 10
-28.1845
 20
-36.399900000000002
 30
0.0
 10
-28.1845
 20
-33.398900000000005
 30
0.0
 10
-28.1845
 20
-33.398900000000005
 30
0.0
  0
SPLINE
  5
57
100
AcDbEntity
  8
LC-001-002-----0
370
    35
100
AcDbSpline
210
0.0
220
0.0
230
1.0
 70
     0
 71
     3
 72
     8
 73
     4
 74
     0
 42
0.0000000001
 43
0.0000000001
 40
0.0
 40
0.0
 40
0.0
 40
0.0
 40
1.0
 40
1.0
 40
1.0
 40
1.0
 10
-28.1845
 20
-36.399900000000002
 30
0.0
 10
-28.1845
 20
-37.252700000000004
 30
0.0
 10
-27.493300000000001
 20
-37.943899999999999
 30
0.0
 10
-26.640500000000003
 20
-37.943899999999999
 30
0.0
  0
SPLINE
  5
58
100
AcDbEntity
  8
LC-001-002-----0
370
    35
100
AcDbSpline
210
0.0
220
0.0
230
1.0
 70
     0
 71
     3
 72
     8
 73
     4
 74
     0
 42
0.0000000001
 43
0.0000000001
 40
0.0
 40
0.0
 40
0.0
 40
0.0
 40
1.0
 40
1.0
 40
1.0
 40
1.0
 10
-9.656600000000001
 20
-37.943899999999999
 30
0.0
 10
-9.656600000000001
 20
-37.943899999999999
 30
0.0
 10
-26.640500000000003
 20
-37.943899999999999
 30
0.0
 10
-26.640500000000003
 20
-37.943899999999999
 30
0.0
  0
SPLINE
  5
59
100
AcDbEntity
  8
LC-001-002-----0
370
    35
100
AcDbSpline
210
0.0
220
0.0
230
1.0
 70
     0
 71
     3
 72
     8
 73
     4
 74
     0
 42
0.0000000001
 43
0.0000000001
 40
0.0
 40
0.0
 40
0.0
 40
0.0
 40
1.0
 40
1.0
 40
1.0
 40
1.0
 10
-38.413499999999999
 20
-34.363900000000001
 30
0.0
 10
-38.413499999999999
 20
-34.363900000000001
 30
0.0
 10
-28.1845
 20
-36.399900000000002
 30
0.0
 10
-28.1845
 20
-36.399900000000002
 30
0.0
  0
SPLINE
  5
5A
100
AcDbEntity
  8
LC-001-002-----0
370
    35
100
AcDbSpline
210
0.0
220
0.0
230
1.0
 70
     0
 71
     3
 72
     8
 73
     4
 74
     0
 42
0.0000000001
 43
0.0000000001
 40
0.0
 40
0.0
 40
0.0
 40
0.0
 40
1.0
 40
1.0
 40
1.0
 40
1.0
 10
-38.413600000000002
 20
-3.0981000000000001
 30
0.0
 10
-38.413600000000002
 20
-3.0981000000000001
 30
0.0
 10
-28.1846
 20
-1.0619000000000001
 30
0.0
 10
-28.1846
 20
-1.0619000000000001
 30
0.0
  0
SPLINE
  5
5B
100
AcDbEntity
  8
LC-001-002-----0
370
    35
100
AcDbSpline
210
0.0
220
0.0
230
1.0
 70
     0
 71
     3
 72
     8
 73
     4
 74
     0
 42
0.0000000001
 43
0.0000000001
 40
0.0
 40
0.0
 40
0.0
 40
0.0
 40
1.0
 40
1.0
 40
1.0
 40
1.0
 10
-60.415400000000005
 20
-33.2059
 30
0.0
 10
-60.415400000000005
 20
-33.2059
 30
0.0
 10
-60.415400000000005
 20
-34.363900000000001
 30
0.0
 10
-60.415400000000005
 20
-34.363900000000001
 30
0.0
  0
SPLINE
  5
5C
100
AcDbEntity
  8
LC-001-002-----0
370
    35
100
AcDbSpline
210
0.0
220
0.0
230
1.0
 70
     0
 71
     3
 72
     8
 73
     4
 74
     0
 42
0.0000000001
 43
0.0000000001
 40
0.0
 40
0.0
 40
0.0
 40
0.0
 40
1.0
 40
1.0
 40
1.0
 40
1.0
 10
-38.413600000000002
 20
-4.2561
 30
0.0
 10
-38.413600000000002
 20
-4.2561
 30
0.0
 10
-38.413499999999999
 20
-33.2059
 30
0.0
 10
-38.413499999999999
 20
-33.2059
 30
0.0
  0
SPLINE
  5
5D
100
AcDbEntity
  8
LC-001-002-----0
370
    20
  6
New Line1
100
AcDbSpline
210
0.0
220
0.0
230
1.0
 70
     0
 71
     3
 72
     8
 73
     4
 74
     0
 42
0.0000000001
 43
0.0000000001
 40
0.0
 40
0.0
 40
0.0
 40
0.0
 40
1.0
 40
1.0
 40
1.0
 40
1.0
 10
-60.415400000000005
 20
-18.731000000000002
 30
0.0
 10
-60.415400000000005
 20
-18.731000000000002
 30
0.0
 10
-8.1128
 20
-18.730800000000002
 30
0.0
 10
-8.1128
 20
-18.730800000000002
 30
0.0
  0
SPLINE
  5
5F
100
AcDbEntity
  8
LC-001-002-----0
370
    35
100
AcDbSpline
210
0.0
220
0.0
230
1.0
 70
     0
 71
     3
 72
     8
 73
     4
 74
     0
 42
0.0000000001
 43
0.0000000001
 40
0.0
 40
0.0
 40
0.0
 40
0.0
 40
1.0
 40
1.0
 40
1.0
 40
1.0
 10
-55.011500000000005
 20
-2.4227000000000003
 30
0.0
 10
-55.011500000000005
 20
-2.4227000000000003
 30
0.0
 10
-58.099500000000006
 20
-2.4227000000000003
 30
0.0
 10
-58.099500000000006
 20
-2.4227000000000003
 30
0.0
  0
SPLINE
  5
60
100
AcDbEntity
  8
LC-001-002-----0
370
    35
100
AcDbSpline
210
0.0
220
0.0
230
1.0
 70
     0
 71
     3
 72
     8
 73
     4
 74
     0
 42
0.0000000001
 43
0.0000000001
 40
0.0
 40
0.0
 40
0.0
 40
0.0
 40
1.0
 40
1.0
 40
1.0
 40
1.0
 10
-53.853500000000004
 20
-3.0982000000000003
 30
0.0
 10
-53.853500000000004
 20
-3.0982000000000003
 30
0.0
 10
-53.853500000000004
 20
-2.4227000000000003
 30
0.0
 10
-53.853500000000004
 20
-2.4227000000000003
 30
0.0
  0
SPLINE
  5
61
100
AcDbEntity
  8
LC-001-002-----0
370
    35
100
AcDbSpline
210
0.0
220
0.0
230
1.0
 70
     0
 71
     3
 72
     8
 73
     4
 74
     0
 42
0.0000000001
 43
0.0000000001
 40
0.0
 40
0.0
 40
0.0
 40
0.0
 40
1.0
 40
1.0
 40
1.0
 40
1.0
 10
-55.011400000000002
 20
-33.206000000000003
 30
0.0
 10
-55.011400000000002
 20
-33.206000000000003
 30
0.0
 10
-55.011500000000005
 20
-2.4227000000000003
 30
0.0
 10
-55.011500000000005
 20
-2.4227000000000003
 30
0.0
  0
SPLINE
  5
62
100
AcDbEntity
  8
LC-001-002-----0
370
    35
100
AcDbSpline
210
0.0
220
0.0
230
1.0
 70
     0
 71
     3
 72
     8
 73
     4
 74
     0
 42
0.0000000001
 43
0.0000000001
 40
0.0
 40
0.0
 40
0.0
 40
0.0
 40
1.0
 40
1.0
 40
1.0
 40
1.0
 10
-58.099500000000006
 20
-4.2561
 30
0.0
 10
-58.099500000000006
 20
-4.2561
 30
0.0
 10
-58.099500000000006
 20
-2.4227000000000003
 30
0.0
 10
-58.099500000000006
 20
-2.4227000000000003
 30
0.0
  0
SPLINE
  5
63
100
AcDbEntity
  8
LC-001-002-----0
370
    35
100
AcDbSpline
210
0.0
220
0.0
230
1.0
 70
     0
 71
     3
 72
     8
 73
     4
 74
     0
 42
0.0000000001
 43
0.0000000001
 40
0.0
 40
0.0
 40
0.0
 40
0.0
 40
1.0
 40
1.0
 40
1.0
 40
1.0
 10
-59.2575
 20
-2.4227000000000003
 30
0.0
 10
-59.2575
 20
-2.4227000000000003
 30
0.0
 10
-59.2575
 20
-3.0981000000000001
 30
0.0
 10
-59.2575
 20
-3.0981000000000001
 30
0.0
  0
SPLINE
  5
64
100
AcDbEntity
  8
LC-001-002-----0
370
    35
100
AcDbSpline
210
0.0
220
0.0
230
1.0
 70
     0
 71
     3
 72
     8
 73
     4
 74
     0
 42
0.0000000001
 43
0.0000000001
 40
0.0
 40
0.0
 40
0.0
 40
0.0
 40
1.0
 40
1.0
 40
1.0
 40
1.0
 10
-59.257400000000004
 20
-34.363900000000001
 30
0.0
 10
-59.257400000000004
 20
-34.363900000000001
 30
0.0
 10
-59.257400000000004
 20
-35.039400000000001
 30
0.0
 10
-59.257400000000004
 20
-35.039400000000001
 30
0.0
  0
SPLINE
  5
65
100
AcDbEntity
  8
LC-001-002-----0
370
    35
100
AcDbSpline
210
0.0
220
0.0
230
1.0
 70
     0
 71
     3
 72
     8
 73
     4
 74
     0
 42
0.0000000001
 43
0.0000000001
 40
0.0
 40
0.0
 40
0.0
 40
0.0
 40
1.0
 40
1.0
 40
1.0
 40
1.0
 10
-53.853400000000001
 20
-34.364000000000004
 30
0.0
 10
-53.853400000000001
 20
-34.364000000000004
 30
0.0
 10
-53.853400000000001
 20
-35.039400000000001
 30
0.0
 10
-53.853400000000001
 20
-35.039400000000001
 30
0.0
  0
SPLINE
  5
66
100
AcDbEntity
  8
LC-001-002-----0
370
    35
100
AcDbSpline
210
0.0
220
0.0
230
1.0
 70
     0
 71
     3
 72
     8
 73
     4
 74
     0
 42
0.0000000001
 43
0.0000000001
 40
0.0
 40
0.0
 40
0.0
 40
0.0
 40
1.0
 40
1.0
 40
1.0
 40
1.0
 10
-55.397500000000001
 20
-2.4227000000000003
 30
0.0
 10
-55.397500000000001
 20
-2.4227000000000003
 30
0.0
 10
-55.397500000000001
 20
-2.8087
 30
0.0
 10
-55.397500000000001
 20
-2.8087
 30
0.0
  0
SPLINE
  5
67
100
AcDbEntity
  8
LC-001-002-----0
370
    35
100
AcDbSpline
210
0.0
220
0.0
230
1.0
 70
     0
 71
     3
 72
     8
 73
     4
 74
     0
 42
0.0000000001
 43
0.0000000001
 40
0.0
 40
0.0
 40
0.0
 40
0.0
 40
1.0
 40
1.0
 40
1.0
 40
1.0
 10
-55.397500000000001
 20
-2.8087
 30
0.0
 10
-55.397500000000001
 20
-2.8087
 30
0.0
 10
-55.783500000000004
 20
-2.8087
 30
0.0
 10
-55.783500000000004
 20
-2.8087
 30
0.0
  0
SPLINE
  5
68
100
AcDbEntity
  8
LC-001-002-----0
370
    35
100
AcDbSpline
210
0.0
220
0.0
230
1.0
 70
     0
 71
     3
 72
     8
 73
     4
 74
     0
 42
0.0000000001
 43
0.0000000001
 40
0.0
 40
0.0
 40
0.0
 40
0.0
 40
1.0
 40
1.0
 40
1.0
 40
1.0
 10
-55.783500000000004
 20
-2.8087
 30
0.0
 10
-55.783500000000004
 20
-2.8087
 30
0.0
 10
-55.783500000000004
 20
-2.4227000000000003
 30
0.0
 10
-55.783500000000004
 20
-2.4227000000000003
 30
0.0
  0
SPLINE
  5
69
100
AcDbEntity
  8
LC-001-002-----0
370
    35
100
AcDbSpline
210
0.0
220
0.0
230
1.0
 70
     0
 71
     3
 72
     8
 73
     4
 74
     0
 42
0.0000000001
 43
0.0000000001
 40
0.0
 40
0.0
 40
0.0
 40
0.0
 40
1.0
 40
1.0
 40
1.0
 40
1.0
 10
-55.011500000000005
 20
-3.5807000000000002
 30
0.0
 10
-55.011500000000005
 20
-3.5807000000000002
 30
0.0
 10
-56.169499999999999
 20
-3.5807000000000002
 30
0.0
 10
-56.169499999999999
 20
-3.5807000000000002
 30
0.0
  0
SPLINE
  5
6A
100
AcDbEntity
  8
LC-001-002-----0
370
    35
100
AcDbSpline
210
0.0
220
0.0
230
1.0
 70
     0
 71
     3
 72
     8
 73
     4
 74
     0
 42
0.0000000001
 43
0.0000000001
 40
0.0
 40
0.0
 40
0.0
 40
0.0
 40
1.0
 40
1.0
 40
1.0
 40
1.0
 10
-56.046600000000005
 20
-3.9634
 30
0.0
 10
-56.046600000000005
 20
-3.9634
 30
0.0
 10
-56.169499999999999
 20
-3.5807000000000002
 30
0.0
 10
-56.169499999999999
 20
-3.5807000000000002
 30
0.0
  0
SPLINE
  5
6B
100
AcDbEntity
  8
LC-001-002-----0
370
    35
100
AcDbSpline
210
0.0
220
0.0
230
1.0
 70
     0
 71
     3
 72
     8
 73
     4
 74
     0
 42
0.0000000001
 43
0.0000000001
 40
0.0
 40
0.0
 40
0.0
 40
0.0
 40
1.0
 40
1.0
 40
1.0
 40
1.0
 10
-58.099500000000006
 20
-3.5807000000000002
 30
0.0
 10
-58.099500000000006
 20
-3.5807000000000002
 30
0.0
 10
-56.293400000000005
 20
-4.2048000000000005
 30
0.0
 10
-56.293400000000005
 20
-4.2048000000000005
 30
0.0
  0
SPLINE
  5
6C
100
AcDbEntity
  8
LC-001-002-----0
370
    35
100
AcDbSpline
210
0.0
220
0.0
230
1.0
 70
     0
 71
     3
 72
    12
 73
     8
 74
     0
 42
0.0000000001
 43
0.0000000001
 40
0.0
 40
0.0
 40
0.0
 40
0.0
 40
0.5
 40
0.5
 40
0.5
 40
0.5
 40
1.0
 40
1.0
 40
1.0
 40
1.0
 10
-53.853500000000004
 20
-2.4227000000000003
 30
0.0
 10
-53.853500000000004
 20
-2.1156000000000001
 30
0.0
 10
-53.975500000000004
 20
-1.8210000000000002
 30
0.0
 10
-54.192700000000002
 20
-1.6038000000000001
 30
0.0
 10
-54.192700000000002
 20
-1.6038000000000001
 30
0.0
 10
-54.4099
 20
-1.3866000000000001
 30
0.0
 10
-54.704300000000003
 20
-1.2647000000000002
 30
0.0
 10
-55.011500000000005
 20
-1.2647000000000002
 30
0.0
  0
SPLINE
  5
6D
100
AcDbEntity
  8
LC-001-002-----0
370
    35
100
AcDbSpline
210
0.0
220
0.0
230
1.0
 70
     0
 71
     3
 72
     8
 73
     4
 74
     0
 42
0.0000000001
 43
0.0000000001
 40
0.0
 40
0.0
 40
0.0
 40
0.0
 40
1.0
 40
1.0
 40
1.0
 40
1.0
 10
-58.099400000000003
 20
-33.881399999999999
 30
0.0
 10
-58.099400000000003
 20
-33.881399999999999
 30
0.0
 10
-56.293200000000006
 20
-33.257300000000001
 30
0.0
 10
-56.293200000000006
 20
-33.257300000000001
 30
0.0
  0
SPLINE
  5
6E
100
AcDbEntity
  8
LC-001-002-----0
370
    35
100
AcDbSpline
210
0.0
220
0.0
230
1.0
 70
     0
 71
     3
 72
     8
 73
     4
 74
     0
 42
0.0000000001
 43
0.0000000001
 40
0.0
 40
0.0
 40
0.0
 40
0.0
 40
1.0
 40
1.0
 40
1.0
 40
1.0
 10
-56.046500000000002
 20
-33.498699999999999
 30
0.0
 10
-56.046500000000002
 20
-33.498699999999999
 30
0.0
 10
-56.169400000000003
 20
-33.881399999999999
 30
0.0
 10
-56.169400000000003
 20
-33.881399999999999
 30
0.0
  0
SPLINE
  5
6F
100
AcDbEntity
  8
LC-001-002-----0
370
    35
100
AcDbSpline
210
0.0
220
0.0
230
1.0
 70
     0
 71
     3
 72
     8
 73
     4
 74
     0
 42
0.0000000001
 43
0.0000000001
 40
0.0
 40
0.0
 40
0.0
 40
0.0
 40
1.0
 40
1.0
 40
1.0
 40
1.0
 10
-55.011400000000002
 20
-33.881399999999999
 30
0.0
 10
-55.011400000000002
 20
-33.881399999999999
 30
0.0
 10
-56.169400000000003
 20
-33.881399999999999
 30
0.0
 10
-56.169400000000003
 20
-33.881399999999999
 30
0.0
  0
SPLINE
  5
70
100
AcDbEntity
  8
LC-001-002-----0
370
    35
100
AcDbSpline
210
0.0
220
0.0
230
1.0
 70
     0
 71
     3
 72
     8
 73
     4
 74
     0
 42
0.0000000001
 43
0.0000000001
 40
0.0
 40
0.0
 40
0.0
 40
0.0
 40
1.0
 40
1.0
 40
1.0
 40
1.0
 10
-55.397400000000005
 20
-35.039400000000001
 30
0.0
 10
-55.397400000000005
 20
-35.039400000000001
 30
0.0
 10
-55.397400000000005
 20
-34.653400000000005
 30
0.0
 10
-55.397400000000005
 20
-34.653400000000005
 30
0.0
  0
SPLINE
  5
71
100
AcDbEntity
  8
LC-001-002-----0
370
    35
100
AcDbSpline
210
0.0
220
0.0
230
1.0
 70
     0
 71
     3
 72
     8
 73
     4
 74
     0
 42
0.0000000001
 43
0.0000000001
 40
0.0
 40
0.0
 40
0.0
 40
0.0
 40
1.0
 40
1.0
 40
1.0
 40
1.0
 10
-55.7834
 20
-34.653400000000005
 30
0.0
 10
-55.7834
 20
-34.653400000000005
 30
0.0
 10
-55.7834
 20
-35.039400000000001
 30
0.0
 10
-55.7834
 20
-35.039400000000001
 30
0.0
  0
SPLINE
  5
72
100
AcDbEntity
  8
LC-001-002-----0
370
    35
100
AcDbSpline
210
0.0
220
0.0
230
1.0
 70
     0
 71
     3
 72
     8
 73
     4
 74
     0
 42
0.0000000001
 43
0.0000000001
 40
0.0
 40
0.0
 40
0.0
 40
0.0
 40
1.0
 40
1.0
 40
1.0
 40
1.0
 10
-55.397400000000005
 20
-34.653400000000005
 30
0.0
 10
-55.397400000000005
 20
-34.653400000000005
 30
0.0
 10
-55.7834
 20
-34.653400000000005
 30
0.0
 10
-55.7834
 20
-34.653400000000005
 30
0.0
  0
SPLINE
  5
73
100
AcDbEntity
  8
LC-001-002-----0
370
    35
100
AcDbSpline
210
0.0
220
0.0
230
1.0
 70
     0
 71
     3
 72
     8
 73
     4
 74
     0
 42
0.0000000001
 43
0.0000000001
 40
0.0
 40
0.0
 40
0.0
 40
0.0
 40
1.0
 40
1.0
 40
1.0
 40
1.0
 10
-24.7104
 20
-36.6798
 30
0.0
 10
-24.7104
 20
-36.6798
 30
0.0
 10
-26.6404
 20
-36.162700000000001
 30
0.0
 10
-26.6404
 20
-36.162700000000001
 30
0.0
  0
SPLINE
  5
74
100
AcDbEntity
  8
LC-001-002-----0
370
    35
100
AcDbSpline
210
0.0
220
0.0
230
1.0
 70
     0
 71
     3
 72
     8
 73
     4
 74
     0
 42
0.0000000001
 43
0.0000000001
 40
0.0
 40
0.0
 40
0.0
 40
0.0
 40
1.0
 40
1.0
 40
1.0
 40
1.0
 10
-18.6585
 20
-35.521799999999999
 30
0.0
 10
-18.6585
 20
-35.521799999999999
 30
0.0
 10
-17.3765
 20
-35.521799999999999
 30
0.0
 10
-17.3765
 20
-35.521799999999999
 30
0.0
  0
SPLINE
  5
75
100
AcDbEntity
  8
LC-001-002-----0
370
    35
100
AcDbSpline
210
0.0
220
0.0
230
1.0
 70
     0
 71
     3
 72
     8
 73
     4
 74
     0
 42
0.0000000001
 43
0.0000000001
 40
0.0
 40
0.0
 40
0.0
 40
0.0
 40
1.0
 40
1.0
 40
1.0
 40
1.0
 10
-24.903500000000001
 20
-34.749900000000004
 30
0.0
 10
-24.903500000000001
 20
-34.749900000000004
 30
0.0
 10
-24.903600000000001
 20
-18.730900000000002
 30
0.0
 10
-24.903600000000001
 20
-18.730900000000002
 30
0.0
  0
SPLINE
  5
76
100
AcDbEntity
  8
LC-001-002-----0
370
    35
100
AcDbSpline
210
0.0
220
0.0
230
1.0
 70
     0
 71
     3
 72
     8
 73
     4
 74
     0
 42
0.0000000001
 43
0.0000000001
 40
0.0
 40
0.0
 40
0.0
 40
0.0
 40
1.0
 40
1.0
 40
1.0
 40
1.0
 10
-20.974500000000003
 20
-35.521799999999999
 30
0.0
 10
-20.974500000000003
 20
-35.521799999999999
 30
0.0
 10
-19.692500000000003
 20
-35.521799999999999
 30
0.0
 10
-19.692500000000003
 20
-35.521799999999999
 30
0.0
  0
SPLINE
  5
77
100
AcDbEntity
  8
LC-001-002-----0
370
    35
100
AcDbSpline
210
0.0
220
0.0
230
1.0
 70
     0
 71
     3
 72
     8
 73
     4
 74
     0
 42
0.0000000001
 43
0.0000000001
 40
0.0
 40
0.0
 40
0.0
 40
0.0
 40
1.0
 40
1.0
 40
1.0
 40
1.0
 10
-15.060600000000001
 20
-35.521799999999999
 30
0.0
 10
-15.060600000000001
 20
-35.521799999999999
 30
0.0
 10
-15.060600000000001
 20
-34.595100000000002
 30
0.0
 10
-15.060600000000001
 20
-34.595100000000002
 30
0.0
  0
SPLINE
  5
78
100
AcDbEntity
  8
LC-001-002-----0
370
    35
100
AcDbSpline
210
0.0
220
0.0
230
1.0
 70
     0
 71
     3
 72
     8
 73
     4
 74
     0
 42
0.0000000001
 43
0.0000000001
 40
0.0
 40
0.0
 40
0.0
 40
0.0
 40
1.0
 40
1.0
 40
1.0
 40
1.0
 10
-14.0265
 20
-35.521700000000003
 30
0.0
 10
-14.0265
 20
-35.521700000000003
 30
0.0
 10
-12.7446
 20
-35.521700000000003
 30
0.0
 10
-12.7446
 20
-35.521700000000003
 30
0.0
  0
SPLINE
  5
79
100
AcDbEntity
  8
LC-001-002-----0
370
    35
100
AcDbSpline
210
0.0
220
0.0
230
1.0
 70
     0
 71
     3
 72
     8
 73
     4
 74
     0
 42
0.0000000001
 43
0.0000000001
 40
0.0
 40
0.0
 40
0.0
 40
0.0
 40
1.0
 40
1.0
 40
1.0
 40
1.0
 10
-16.342500000000001
 20
-35.521799999999999
 30
0.0
 10
-16.342500000000001
 20
-35.521799999999999
 30
0.0
 10
-15.060600000000001
 20
-35.521799999999999
 30
0.0
 10
-15.060600000000001
 20
-35.521799999999999
 30
0.0
  0
SPLINE
  5
7A
100
AcDbEntity
  8
LC-001-002-----0
370
    35
100
AcDbSpline
210
0.0
220
0.0
230
1.0
 70
     0
 71
     3
 72
     8
 73
     4
 74
     0
 42
0.0000000001
 43
0.0000000001
 40
0.0
 40
0.0
 40
0.0
 40
0.0
 40
1.0
 40
1.0
 40
1.0
 40
1.0
 10
-19.692500000000003
 20
-35.521799999999999
 30
0.0
 10
-19.692500000000003
 20
-35.521799999999999
 30
0.0
 10
-19.692500000000003
 20
-34.595100000000002
 30
0.0
 10
-19.692500000000003
 20
-34.595100000000002
 30
0.0
  0
SPLINE
  5
7B
100
AcDbEntity
  8
LC-001-002-----0
370
    35
100
AcDbSpline
210
0.0
220
0.0
230
1.0
 70
     0
 71
     3
 72
     8
 73
     4
 74
     0
 42
0.0000000001
 43
0.0000000001
 40
0.0
 40
0.0
 40
0.0
 40
0.0
 40
1.0
 40
1.0
 40
1.0
 40
1.0
 10
-11.7105
 20
-35.521700000000003
 30
0.0
 10
-11.7105
 20
-35.521700000000003
 30
0.0
 10
-8.1127000000000002
 20
-35.521700000000003
 30
0.0
 10
-8.1127000000000002
 20
-35.521700000000003
 30
0.0
  0
SPLINE
  5
7C
100
AcDbEntity
  8
LC-001-002-----0
370
    35
100
AcDbSpline
210
0.0
220
0.0
230
1.0
 70
     0
 71
     3
 72
     8
 73
     4
 74
     0
 42
0.0000000001
 43
0.0000000001
 40
0.0
 40
0.0
 40
0.0
 40
0.0
 40
1.0
 40
1.0
 40
1.0
 40
1.0
 10
-11.7105
 20
-35.521700000000003
 30
0.0
 10
-11.7105
 20
-35.521700000000003
 30
0.0
 10
-11.7105
 20
-18.730800000000002
 30
0.0
 10
-11.7105
 20
-18.730800000000002
 30
0.0
  0
SPLINE
  5
7D
100
AcDbEntity
  8
LC-001-002-----0
370
    35
100
AcDbSpline
210
0.0
220
0.0
230
1.0
 70
     0
 71
     3
 72
     8
 73
     4
 74
     0
 42
0.0000000001
 43
0.0000000001
 40
0.0
 40
0.0
 40
0.0
 40
0.0
 40
1.0
 40
1.0
 40
1.0
 40
1.0
 10
-24.7105
 20
-0.7821
 30
0.0
 10
-24.7105
 20
-0.7821
 30
0.0
 10
-26.640500000000003
 20
-1.2993000000000001
 30
0.0
 10
-26.640500000000003
 20
-1.2993000000000001
 30
0.0
  0
SPLINE
  5
7E
100
AcDbEntity
  8
LC-001-002-----0
370
    35
100
AcDbSpline
210
0.0
220
0.0
230
1.0
 70
     0
 71
     3
 72
     8
 73
     4
 74
     0
 42
0.0000000001
 43
0.0000000001
 40
0.0
 40
0.0
 40
0.0
 40
0.0
 40
1.0
 40
1.0
 40
1.0
 40
1.0
 10
-14.0265
 20
-35.521700000000003
 30
0.0
 10
-14.0265
 20
-35.521700000000003
 30
0.0
 10
-14.628400000000001
 20
-34.479300000000002
 30
0.0
 10
-14.628400000000001
 20
-34.479300000000002
 30
0.0
  0
SPLINE
  5
7F
100
AcDbEntity
  8
LC-001-002-----0
370
    35
100
AcDbSpline
210
0.0
220
0.0
230
1.0
 70
     0
 71
     3
 72
     8
 73
     4
 74
     0
 42
0.0000000001
 43
0.0000000001
 40
0.0
 40
0.0
 40
0.0
 40
0.0
 40
1.0
 40
1.0
 40
1.0
 40
1.0
 10
-17.3765
 20
-35.521799999999999
 30
0.0
 10
-17.3765
 20
-35.521799999999999
 30
0.0
 10
-17.3765
 20
-34.595100000000002
 30
0.0
 10
-17.3765
 20
-34.595100000000002
 30
0.0
  0
SPLINE
  5
80
100
AcDbEntity
  8
LC-001-002-----0
370
    35
100
AcDbSpline
210
0.0
220
0.0
230
1.0
 70
     0
 71
     3
 72
     8
 73
     4
 74
     0
 42
0.0000000001
 43
0.0000000001
 40
0.0
 40
0.0
 40
0.0
 40
0.0
 40
1.0
 40
1.0
 40
1.0
 40
1.0
 10
-16.342500000000001
 20
-35.521799999999999
 30
0.0
 10
-16.342500000000001
 20
-35.521799999999999
 30
0.0
 10
-16.944400000000002
 20
-34.479300000000002
 30
0.0
 10
-16.944400000000002
 20
-34.479300000000002
 30
0.0
  0
SPLINE
  5
81
100
AcDbEntity
  8
LC-001-002-----0
370
    35
100
AcDbSpline
210
0.0
220
0.0
230
1.0
 70
     0
 71
     3
 72
     8
 73
     4
 74
     0
 42
0.0000000001
 43
0.0000000001
 40
0.0
 40
0.0
 40
0.0
 40
0.0
 40
1.0
 40
1.0
 40
1.0
 40
1.0
 10
-18.6586
 20
-1.9401000000000002
 30
0.0
 10
-18.6586
 20
-1.9401000000000002
 30
0.0
 10
-17.3765
 20
-1.9401000000000002
 30
0.0
 10
-17.3765
 20
-1.9401000000000002
 30
0.0
  0
SPLINE
  5
82
100
AcDbEntity
  8
LC-001-002-----0
370
    35
100
AcDbSpline
210
0.0
220
0.0
230
1.0
 70
     0
 71
     3
 72
     8
 73
     4
 74
     0
 42
0.0000000001
 43
0.0000000001
 40
0.0
 40
0.0
 40
0.0
 40
0.0
 40
1.0
 40
1.0
 40
1.0
 40
1.0
 10
-18.6585
 20
-35.521799999999999
 30
0.0
 10
-18.6585
 20
-35.521799999999999
 30
0.0
 10
-19.260300000000001
 20
-34.479399999999998
 30
0.0
 10
-19.260300000000001
 20
-34.479399999999998
 30
0.0
  0
SPLINE
  5
83
100
AcDbEntity
  8
LC-001-002-----0
370
    35
100
AcDbSpline
210
0.0
220
0.0
230
1.0
 70
     0
 71
     3
 72
     8
 73
     4
 74
     0
 42
0.0000000001
 43
0.0000000001
 40
0.0
 40
0.0
 40
0.0
 40
0.0
 40
1.0
 40
1.0
 40
1.0
 40
1.0
 10
-14.0265
 20
-35.521700000000003
 30
0.0
 10
-14.0265
 20
-35.521700000000003
 30
0.0
 10
-14.0265
 20
-18.730800000000002
 30
0.0
 10
-14.0265
 20
-18.730800000000002
 30
0.0
  0
SPLINE
  5
84
100
AcDbEntity
  8
LC-001-002-----0
370
    35
100
AcDbSpline
210
0.0
220
0.0
230
1.0
 70
     0
 71
     3
 72
     8
 73
     4
 74
     0
 42
0.0000000001
 43
0.0000000001
 40
0.0
 40
0.0
 40
0.0
 40
0.0
 40
1.0
 40
1.0
 40
1.0
 40
1.0
 10
-22.008500000000002
 20
-35.521799999999999
 30
0.0
 10
-22.008500000000002
 20
-35.521799999999999
 30
0.0
 10
-22.008500000000002
 20
-34.595100000000002
 30
0.0
 10
-22.008500000000002
 20
-34.595100000000002
 30
0.0
  0
SPLINE
  5
85
100
AcDbEntity
  8
LC-001-002-----0
370
    35
100
AcDbSpline
210
0.0
220
0.0
230
1.0
 70
     0
 71
     3
 72
     8
 73
     4
 74
     0
 42
0.0000000001
 43
0.0000000001
 40
0.0
 40
0.0
 40
0.0
 40
0.0
 40
1.0
 40
1.0
 40
1.0
 40
1.0
 10
-24.7104
 20
-36.6798
 30
0.0
 10
-24.7104
 20
-36.6798
 30
0.0
 10
-9.656600000000001
 20
-36.679700000000004
 30
0.0
 10
-9.656600000000001
 20
-36.679700000000004
 30
0.0
  0
SPLINE
  5
86
100
AcDbEntity
  8
LC-001-002-----0
370
    35
100
AcDbSpline
210
0.0
220
0.0
230
1.0
 70
     0
 71
     3
 72
     8
 73
     4
 74
     0
 42
0.0000000001
 43
0.0000000001
 40
0.0
 40
0.0
 40
0.0
 40
0.0
 40
1.0
 40
1.0
 40
1.0
 40
1.0
 10
-23.977700000000002
 20
-35.521799999999999
 30
0.0
 10
-23.977700000000002
 20
-35.521799999999999
 30
0.0
 10
-22.008500000000002
 20
-35.521799999999999
 30
0.0
 10
-22.008500000000002
 20
-35.521799999999999
 30
0.0
  0
SPLINE
  5
87
100
AcDbEntity
  8
LC-001-002-----0
370
    35
100
AcDbSpline
210
0.0
220
0.0
230
1.0
 70
     0
 71
     3
 72
     8
 73
     4
 74
     0
 42
0.0000000001
 43
0.0000000001
 40
0.0
 40
0.0
 40
0.0
 40
0.0
 40
1.0
 40
1.0
 40
1.0
 40
1.0
 10
-24.903500000000001
 20
-2.7121
 30
0.0
 10
-24.903500000000001
 20
-2.7121
 30
0.0
 10
-24.903600000000001
 20
-18.730900000000002
 30
0.0
 10
-24.903600000000001
 20
-18.730900000000002
 30
0.0
  0
SPLINE
  5
88
100
AcDbEntity
  8
LC-001-002-----0
370
    35
100
AcDbSpline
210
0.0
220
0.0
230
1.0
 70
     0
 71
     3
 72
     8
 73
     4
 74
     0
 42
0.0000000001
 43
0.0000000001
 40
0.0
 40
0.0
 40
0.0
 40
0.0
 40
1.0
 40
1.0
 40
1.0
 40
1.0
 10
-20.974600000000002
 20
-1.9401000000000002
 30
0.0
 10
-20.974600000000002
 20
-1.9401000000000002
 30
0.0
 10
-19.692500000000003
 20
-1.9401000000000002
 30
0.0
 10
-19.692500000000003
 20
-1.9401000000000002
 30
0.0
  0
SPLINE
  5
89
100
AcDbEntity
  8
LC-001-002-----0
370
    35
100
AcDbSpline
210
0.0
220
0.0
230
1.0
 70
     0
 71
     3
 72
     8
 73
     4
 74
     0
 42
0.0000000001
 43
0.0000000001
 40
0.0
 40
0.0
 40
0.0
 40
0.0
 40
1.0
 40
1.0
 40
1.0
 40
1.0
 10
-16.342500000000001
 20
-35.521799999999999
 30
0.0
 10
-16.342500000000001
 20
-35.521799999999999
 30
0.0
 10
-16.342500000000001
 20
-18.730900000000002
 30
0.0
 10
-16.342500000000001
 20
-18.730900000000002
 30
0.0
  0
SPLINE
  5
8A
100
AcDbEntity
  8
LC-001-002-----0
370
    35
100
AcDbSpline
210
0.0
220
0.0
230
1.0
 70
     0
 71
     3
 72
     8
 73
     4
 74
     0
 42
0.0000000001
 43
0.0000000001
 40
0.0
 40
0.0
 40
0.0
 40
0.0
 40
1.0
 40
1.0
 40
1.0
 40
1.0
 10
-15.060600000000001
 20
-1.9401000000000002
 30
0.0
 10
-15.060600000000001
 20
-1.9401000000000002
 30
0.0
 10
-15.060600000000001
 20
-2.8667000000000002
 30
0.0
 10
-15.060600000000001
 20
-2.8667000000000002
 30
0.0
  0
SPLINE
  5
8B
100
AcDbEntity
  8
LC-001-002-----0
370
    35
100
AcDbSpline
210
0.0
220
0.0
230
1.0
 70
     0
 71
     3
 72
     8
 73
     4
 74
     0
 42
0.0000000001
 43
0.0000000001
 40
0.0
 40
0.0
 40
0.0
 40
0.0
 40
1.0
 40
1.0
 40
1.0
 40
1.0
 10
-14.0266
 20
-1.9400000000000002
 30
0.0
 10
-14.0266
 20
-1.9400000000000002
 30
0.0
 10
-12.7446
 20
-1.9400000000000002
 30
0.0
 10
-12.7446
 20
-1.9400000000000002
 30
0.0
  0
SPLINE
  5
8C
100
AcDbEntity
  8
LC-001-002-----0
370
    35
100
AcDbSpline
210
0.0
220
0.0
230
1.0
 70
     0
 71
     3
 72
     8
 73
     4
 74
     0
 42
0.0000000001
 43
0.0000000001
 40
0.0
 40
0.0
 40
0.0
 40
0.0
 40
1.0
 40
1.0
 40
1.0
 40
1.0
 10
-18.6585
 20
-35.521799999999999
 30
0.0
 10
-18.6585
 20
-35.521799999999999
 30
0.0
 10
-18.6585
 20
-18.730900000000002
 30
0.0
 10
-18.6585
 20
-18.730900000000002
 30
0.0
  0
SPLINE
  5
8D
100
AcDbEntity
  8
LC-001-002-----0
370
    35
100
AcDbSpline
210
0.0
220
0.0
230
1.0
 70
     0
 71
     3
 72
     8
 73
     4
 74
     0
 42
0.0000000001
 43
0.0000000001
 40
0.0
 40
0.0
 40
0.0
 40
0.0
 40
1.0
 40
1.0
 40
1.0
 40
1.0
 10
-16.342600000000001
 20
-1.9401000000000002
 30
0.0
 10
-16.342600000000001
 20
-1.9401000000000002
 30
0.0
 10
-15.060600000000001
 20
-1.9401000000000002
 30
0.0
 10
-15.060600000000001
 20
-1.9401000000000002
 30
0.0
  0
SPLINE
  5
8E
100
AcDbEntity
  8
LC-001-002-----0
370
    35
100
AcDbSpline
210
0.0
220
0.0
230
1.0
 70
     0
 71
     3
 72
     8
 73
     4
 74
     0
 42
0.0000000001
 43
0.0000000001
 40
0.0
 40
0.0
 40
0.0
 40
0.0
 40
1.0
 40
1.0
 40
1.0
 40
1.0
 10
-19.692500000000003
 20
-1.9401000000000002
 30
0.0
 10
-19.692500000000003
 20
-1.9401000000000002
 30
0.0
 10
-19.692500000000003
 20
-2.8667000000000002
 30
0.0
 10
-19.692500000000003
 20
-2.8667000000000002
 30
0.0
  0
SPLINE
  5
8F
100
AcDbEntity
  8
LC-001-002-----0
370
    35
100
AcDbSpline
210
0.0
220
0.0
230
1.0
 70
     0
 71
     3
 72
     8
 73
     4
 74
     0
 42
0.0000000001
 43
0.0000000001
 40
0.0
 40
0.0
 40
0.0
 40
0.0
 40
1.0
 40
1.0
 40
1.0
 40
1.0
 10
-11.710600000000001
 20
-1.9400000000000002
 30
0.0
 10
-11.710600000000001
 20
-1.9400000000000002
 30
0.0
 10
-8.1128
 20
-1.9400000000000002
 30
0.0
 10
-8.1128
 20
-1.9400000000000002
 30
0.0
  0
SPLINE
  5
90
100
AcDbEntity
  8
LC-001-002-----0
370
    35
100
AcDbSpline
210
0.0
220
0.0
230
1.0
 70
     0
 71
     3
 72
     8
 73
     4
 74
     0
 42
0.0000000001
 43
0.0000000001
 40
0.0
 40
0.0
 40
0.0
 40
0.0
 40
1.0
 40
1.0
 40
1.0
 40
1.0
 10
-11.710600000000001
 20
-1.9400000000000002
 30
0.0
 10
-11.710600000000001
 20
-1.9400000000000002
 30
0.0
 10
-11.7105
 20
-18.730800000000002
 30
0.0
 10
-11.7105
 20
-18.730800000000002
 30
0.0
  0
SPLINE
  5
91
100
AcDbEntity
  8
LC-001-002-----0
370
    35
100
AcDbSpline
210
0.0
220
0.0
230
1.0
 70
     0
 71
     3
 72
     8
 73
     4
 74
     0
 42
0.0000000001
 43
0.0000000001
 40
0.0
 40
0.0
 40
0.0
 40
0.0
 40
1.0
 40
1.0
 40
1.0
 40
1.0
 10
-14.0266
 20
-1.9400000000000002
 30
0.0
 10
-14.0266
 20
-1.9400000000000002
 30
0.0
 10
-14.628500000000001
 20
-2.9824999999999999
 30
0.0
 10
-14.628500000000001
 20
-2.9824999999999999
 30
0.0
  0
SPLINE
  5
92
100
AcDbEntity
  8
LC-001-002-----0
370
    35
100
AcDbSpline
210
0.0
220
0.0
230
1.0
 70
     0
 71
     3
 72
     8
 73
     4
 74
     0
 42
0.0000000001
 43
0.0000000001
 40
0.0
 40
0.0
 40
0.0
 40
0.0
 40
1.0
 40
1.0
 40
1.0
 40
1.0
 10
-17.3765
 20
-1.9401000000000002
 30
0.0
 10
-17.3765
 20
-1.9401000000000002
 30
0.0
 10
-17.3765
 20
-2.8667000000000002
 30
0.0
 10
-17.3765
 20
-2.8667000000000002
 30
0.0
  0
SPLINE
  5
93
100
AcDbEntity
  8
LC-001-002-----0
370
    35
100
AcDbSpline
210
0.0
220
0.0
230
1.0
 70
     0
 71
     3
 72
     8
 73
     4
 74
     0
 42
0.0000000001
 43
0.0000000001
 40
0.0
 40
0.0
 40
0.0
 40
0.0
 40
1.0
 40
1.0
 40
1.0
 40
1.0
 10
-16.342600000000001
 20
-1.9401000000000002
 30
0.0
 10
-16.342600000000001
 20
-1.9401000000000002
 30
0.0
 10
-16.944500000000001
 20
-2.9824999999999999
 30
0.0
 10
-16.944500000000001
 20
-2.9824999999999999
 30
0.0
  0
SPLINE
  5
94
100
AcDbEntity
  8
LC-001-002-----0
370
    35
100
AcDbSpline
210
0.0
220
0.0
230
1.0
 70
     0
 71
     3
 72
     8
 73
     4
 74
     0
 42
0.0000000001
 43
0.0000000001
 40
0.0
 40
0.0
 40
0.0
 40
0.0
 40
1.0
 40
1.0
 40
1.0
 40
1.0
 10
-20.974500000000003
 20
-35.521799999999999
 30
0.0
 10
-20.974500000000003
 20
-35.521799999999999
 30
0.0
 10
-20.974500000000003
 20
-18.730900000000002
 30
0.0
 10
-20.974500000000003
 20
-18.730900000000002
 30
0.0
  0
SPLINE
  5
95
100
AcDbEntity
  8
LC-001-002-----0
370
    35
100
AcDbSpline
210
0.0
220
0.0
230
1.0
 70
     0
 71
     3
 72
     8
 73
     4
 74
     0
 42
0.0000000001
 43
0.0000000001
 40
0.0
 40
0.0
 40
0.0
 40
0.0
 40
1.0
 40
1.0
 40
1.0
 40
1.0
 10
-18.6586
 20
-1.9401000000000002
 30
0.0
 10
-18.6586
 20
-1.9401000000000002
 30
0.0
 10
-19.2605
 20
-2.9824999999999999
 30
0.0
 10
-19.2605
 20
-2.9824999999999999
 30
0.0
  0
SPLINE
  5
96
100
AcDbEntity
  8
LC-001-002-----0
370
    35
100
AcDbSpline
210
0.0
220
0.0
230
1.0
 70
     0
 71
     3
 72
     8
 73
     4
 74
     0
 42
0.0000000001
 43
0.0000000001
 40
0.0
 40
0.0
 40
0.0
 40
0.0
 40
1.0
 40
1.0
 40
1.0
 40
1.0
 10
-14.0266
 20
-1.9400000000000002
 30
0.0
 10
-14.0266
 20
-1.9400000000000002
 30
0.0
 10
-14.0265
 20
-18.730800000000002
 30
0.0
 10
-14.0265
 20
-18.730800000000002
 30
0.0
  0
SPLINE
  5
97
100
AcDbEntity
  8
LC-001-002-----0
370
    35
100
AcDbSpline
210
0.0
220
0.0
230
1.0
 70
     0
 71
     3
 72
     8
 73
     4
 74
     0
 42
0.0000000001
 43
0.0000000001
 40
0.0
 40
0.0
 40
0.0
 40
0.0
 40
1.0
 40
1.0
 40
1.0
 40
1.0
 10
-22.008500000000002
 20
-1.9401000000000002
 30
0.0
 10
-22.008500000000002
 20
-1.9401000000000002
 30
0.0
 10
-22.008500000000002
 20
-2.8667000000000002
 30
0.0
 10
-22.008500000000002
 20
-2.8667000000000002
 30
0.0
  0
SPLINE
  5
98
100
AcDbEntity
  8
LC-001-002-----0
370
    35
100
AcDbSpline
210
0.0
220
0.0
230
1.0
 70
     0
 71
     3
 72
     8
 73
     4
 74
     0
 42
0.0000000001
 43
0.0000000001
 40
0.0
 40
0.0
 40
0.0
 40
0.0
 40
1.0
 40
1.0
 40
1.0
 40
1.0
 10
-24.7105
 20
-0.7821
 30
0.0
 10
-24.7105
 20
-0.7821
 30
0.0
 10
-9.6567000000000007
 20
-0.782
 30
0.0
 10
-9.6567000000000007
 20
-0.782
 30
0.0
  0
SPLINE
  5
99
100
AcDbEntity
  8
LC-001-002-----0
370
    35
100
AcDbSpline
210
0.0
220
0.0
230
1.0
 70
     0
 71
     3
 72
     8
 73
     4
 74
     0
 42
0.0000000001
 43
0.0000000001
 40
0.0
 40
0.0
 40
0.0
 40
0.0
 40
1.0
 40
1.0
 40
1.0
 40
1.0
 10
-23.977900000000002
 20
-1.9401000000000002
 30
0.0
 10
-23.977900000000002
 20
-1.9401000000000002
 30
0.0
 10
-22.008500000000002
 20
-1.9401000000000002
 30
0.0
 10
-22.008500000000002
 20
-1.9401000000000002
 30
0.0
  0
SPLINE
  5
9A
100
AcDbEntity
  8
LC-001-002-----0
370
    35
100
AcDbSpline
210
0.0
220
0.0
230
1.0
 70
     0
 71
     3
 72
     8
 73
     4
 74
     0
 42
0.0000000001
 43
0.0000000001
 40
0.0
 40
0.0
 40
0.0
 40
0.0
 40
1.0
 40
1.0
 40
1.0
 40
1.0
 10
-16.342600000000001
 20
-1.9401000000000002
 30
0.0
 10
-16.342600000000001
 20
-1.9401000000000002
 30
0.0
 10
-16.342500000000001
 20
-18.730900000000002
 30
0.0
 10
-16.342500000000001
 20
-18.730900000000002
 30
0.0
  0
SPLINE
  5
9B
100
AcDbEntity
  8
LC-001-002-----0
370
    35
100
AcDbSpline
210
0.0
220
0.0
230
1.0
 70
     0
 71
     3
 72
     8
 73
     4
 74
     0
 42
0.0000000001
 43
0.0000000001
 40
0.0
 40
0.0
 40
0.0
 40
0.0
 40
1.0
 40
1.0
 40
1.0
 40
1.0
 10
-18.6586
 20
-1.9401000000000002
 30
0.0
 10
-18.6586
 20
-1.9401000000000002
 30
0.0
 10
-18.6585
 20
-18.730900000000002
 30
0.0
 10
-18.6585
 20
-18.730900000000002
 30
0.0
  0
SPLINE
  5
9C
100
AcDbEntity
  8
LC-001-002-----0
370
    35
100
AcDbSpline
210
0.0
220
0.0
230
1.0
 70
     0
 71
     3
 72
     8
 73
     4
 74
     0
 42
0.0000000001
 43
0.0000000001
 40
0.0
 40
0.0
 40
0.0
 40
0.0
 40
1.0
 40
1.0
 40
1.0
 40
1.0
 10
-20.974600000000002
 20
-1.9401000000000002
 30
0.0
 10
-20.974600000000002
 20
-1.9401000000000002
 30
0.0
 10
-20.974500000000003
 20
-18.730900000000002
 30
0.0
 10
-20.974500000000003
 20
-18.730900000000002
 30
0.0
  0
SPLINE
  5
9D
100
AcDbEntity
  8
LC-001-002-----0
370
    35
100
AcDbSpline
210
0.0
220
0.0
230
1.0
 70
     0
 71
     3
 72
     8
 73
     4
 74
     0
 42
0.0000000001
 43
0.0000000001
 40
0.0
 40
0.0
 40
0.0
 40
0.0
 40
1.0
 40
1.0
 40
1.0
 40
1.0
 10
-8.1127000000000002
 20
-35.521700000000003
 30
0.0
 10
-8.1127000000000002
 20
-35.521700000000003
 30
0.0
 10
-8.1127000000000002
 20
-36.583300000000001
 30
0.0
 10
-8.1127000000000002
 20
-36.583300000000001
 30
0.0
  0
SPLINE
  5
9E
100
AcDbEntity
  8
LC-001-002-----0
370
    35
100
AcDbSpline
210
0.0
220
0.0
230
1.0
 70
     0
 71
     3
 72
     8
 73
     4
 74
     0
 42
0.0000000001
 43
0.0000000001
 40
0.0
 40
0.0
 40
0.0
 40
0.0
 40
1.0
 40
1.0
 40
1.0
 40
1.0
 10
-8.1128
 20
-2.133
 30
0.0
 10
-8.1128
 20
-2.133
 30
0.0
 10
-8.1128
 20
-0.8786000000000001
 30
0.0
 10
-8.1128
 20
-0.8786000000000001
 30
0.0
  0
SPLINE
  5
9F
100
AcDbEntity
  8
LC-001-002-----0
370
    35
100
AcDbSpline
210
0.0
220
0.0
230
1.0
 70
     0
 71
     3
 72
     8
 73
     4
 74
     0
 42
0.0000000001
 43
0.0000000001
 40
0.0
 40
0.0
 40
0.0
 40
0.0
 40
1.0
 40
1.0
 40
1.0
 40
1.0
 10
-26.640500000000003
 20
-34.749900000000004
 30
0.0
 10
-26.640500000000003
 20
-34.749900000000004
 30
0.0
 10
-26.640600000000003
 20
-18.730900000000002
 30
0.0
 10
-26.640600000000003
 20
-18.730900000000002
 30
0.0
  0
SPLINE
  5
A0
100
AcDbEntity
  8
LC-001-002-----0
370
    35
100
AcDbSpline
210
0.0
220
0.0
230
1.0
 70
     0
 71
     3
 72
     8
 73
     4
 74
     0
 42
0.0000000001
 43
0.0000000001
 40
0.0
 40
0.0
 40
0.0
 40
0.0
 40
1.0
 40
1.0
 40
1.0
 40
1.0
 10
-23.977700000000002
 20
-35.521799999999999
 30
0.0
 10
-23.977700000000002
 20
-35.521799999999999
 30
0.0
 10
-23.977900000000002
 20
-18.730900000000002
 30
0.0
 10
-23.977900000000002
 20
-18.730900000000002
 30
0.0
  0
SPLINE
  5
A1
100
AcDbEntity
  8
LC-001-002-----0
370
    35
100
AcDbSpline
210
0.0
220
0.0
230
1.0
 70
     0
 71
     3
 72
     8
 73
     4
 74
     0
 42
0.0000000001
 43
0.0000000001
 40
0.0
 40
0.0
 40
0.0
 40
0.0
 40
1.0
 40
1.0
 40
1.0
 40
1.0
 10
-26.640600000000003
 20
-34.749900000000004
 30
0.0
 10
-26.640600000000003
 20
-34.749900000000004
 30
0.0
 10
-24.903500000000001
 20
-34.749900000000004
 30
0.0
 10
-24.903500000000001
 20
-34.749900000000004
 30
0.0
  0
SPLINE
  5
A2
100
AcDbEntity
  8
LC-001-002-----0
370
    35
100
AcDbSpline
210
0.0
220
0.0
230
1.0
 70
     0
 71
     3
 72
     8
 73
     4
 74
     0
 42
0.0000000001
 43
0.0000000001
 40
0.0
 40
0.0
 40
0.0
 40
0.0
 40
1.0
 40
1.0
 40
1.0
 40
1.0
 10
-26.640500000000003
 20
-2.7121
 30
0.0
 10
-26.640500000000003
 20
-2.7121
 30
0.0
 10
-26.640600000000003
 20
-18.730900000000002
 30
0.0
 10
-26.640600000000003
 20
-18.730900000000002
 30
0.0
  0
SPLINE
  5
A3
100
AcDbEntity
  8
LC-001-002-----0
370
    35
100
AcDbSpline
210
0.0
220
0.0
230
1.0
 70
     0
 71
     3
 72
     8
 73
     4
 74
     0
 42
0.0000000001
 43
0.0000000001
 40
0.0
 40
0.0
 40
0.0
 40
0.0
 40
1.0
 40
1.0
 40
1.0
 40
1.0
 10
-9.656600000000001
 20
-37.741300000000003
 30
0.0
 10
-9.656600000000001
 20
-37.741300000000003
 30
0.0
 10
-9.2706
 20
-37.741300000000003
 30
0.0
 10
-9.2706
 20
-37.741300000000003
 30
0.0
  0
SPLINE
  5
A4
100
AcDbEntity
  8
LC-001-002-----0
370
    35
100
AcDbSpline
210
0.0
220
0.0
230
1.0
 70
     0
 71
     3
 72
     8
 73
     4
 74
     0
 42
0.0000000001
 43
0.0000000001
 40
0.0
 40
0.0
 40
0.0
 40
0.0
 40
1.0
 40
1.0
 40
1.0
 40
1.0
 10
-23.977900000000002
 20
-1.9401000000000002
 30
0.0
 10
-23.977900000000002
 20
-1.9401000000000002
 30
0.0
 10
-23.977900000000002
 20
-18.730900000000002
 30
0.0
 10
-23.977900000000002
 20
-18.730900000000002
 30
0.0
  0
SPLINE
  5
A5
100
AcDbEntity
  8
LC-001-002-----0
370
    35
100
AcDbSpline
210
0.0
220
0.0
230
1.0
 70
     0
 71
     3
 72
     8
 73
     4
 74
     0
 42
0.0000000001
 43
0.0000000001
 40
0.0
 40
0.0
 40
0.0
 40
0.0
 40
1.0
 40
1.0
 40
1.0
 40
1.0
 10
-26.640600000000003
 20
-2.7121
 30
0.0
 10
-26.640600000000003
 20
-2.7121
 30
0.0
 10
-24.903500000000001
 20
-2.7121
 30
0.0
 10
-24.903500000000001
 20
-2.7121
 30
0.0
  0
SPLINE
  5
A6
100
AcDbEntity
  8
LC-001-002-----0
370
    35
100
AcDbSpline
210
0.0
220
0.0
230
1.0
 70
     0
 71
     3
 72
     8
 73
     4
 74
     0
 42
0.0000000001
 43
0.0000000001
 40
0.0
 40
0.0
 40
0.0
 40
0.0
 40
1.0
 40
1.0
 40
1.0
 40
1.0
 10
-15.060600000000001
 20
-2.8667000000000002
 30
0.0
 10
-15.060600000000001
 20
-2.8667000000000002
 30
0.0
 10
-15.060600000000001
 20
-18.730900000000002
 30
0.0
 10
-15.060600000000001
 20
-18.730900000000002
 30
0.0
  0
SPLINE
  5
A7
100
AcDbEntity
  8
LC-001-002-----0
370
    35
100
AcDbSpline
210
0.0
220
0.0
230
1.0
 70
     0
 71
     3
 72
     8
 73
     4
 74
     0
 42
0.0000000001
 43
0.0000000001
 40
0.0
 40
0.0
 40
0.0
 40
0.0
 40
1.0
 40
1.0
 40
1.0
 40
1.0
 10
-17.3765
 20
-2.8667000000000002
 30
0.0
 10
-17.3765
 20
-2.8667000000000002
 30
0.0
 10
-17.3765
 20
-18.730900000000002
 30
0.0
 10
-17.3765
 20
-18.730900000000002
 30
0.0
  0
SPLINE
  5
A8
100
AcDbEntity
  8
LC-001-002-----0
370
    35
100
AcDbSpline
210
0.0
220
0.0
230
1.0
 70
     0
 71
     3
 72
     8
 73
     4
 74
     0
 42
0.0000000001
 43
0.0000000001
 40
0.0
 40
0.0
 40
0.0
 40
0.0
 40
1.0
 40
1.0
 40
1.0
 40
1.0
 10
-19.692500000000003
 20
-2.8667000000000002
 30
0.0
 10
-19.692500000000003
 20
-2.8667000000000002
 30
0.0
 10
-19.692500000000003
 20
-18.730900000000002
 30
0.0
 10
-19.692500000000003
 20
-18.730900000000002
 30
0.0
  0
SPLINE
  5
A9
100
AcDbEntity
  8
LC-001-002-----0
370
    35
100
AcDbSpline
210
0.0
220
0.0
230
1.0
 70
     0
 71
     3
 72
     8
 73
     4
 74
     0
 42
0.0000000001
 43
0.0000000001
 40
0.0
 40
0.0
 40
0.0
 40
0.0
 40
1.0
 40
1.0
 40
1.0
 40
1.0
 10
-22.008500000000002
 20
-2.8667000000000002
 30
0.0
 10
-22.008500000000002
 20
-2.8667000000000002
 30
0.0
 10
-22.008600000000001
 20
-18.730900000000002
 30
0.0
 10
-22.008600000000001
 20
-18.730900000000002
 30
0.0
  0
SPLINE
  5
AA
100
AcDbEntity
  8
LC-001-002-----0
370
    35
100
AcDbSpline
210
0.0
220
0.0
230
1.0
 70
     0
 71
     3
 72
     8
 73
     4
 74
     0
 42
0.0000000001
 43
0.0000000001
 40
0.0
 40
0.0
 40
0.0
 40
0.0
 40
1.0
 40
1.0
 40
1.0
 40
1.0
 10
-23.977900000000002
 20
-1.9401000000000002
 30
0.0
 10
-23.977900000000002
 20
-1.9401000000000002
 30
0.0
 10
-24.903500000000001
 20
-2.7121
 30
0.0
 10
-24.903500000000001
 20
-2.7121
 30
0.0
  0
SPLINE
  5
AB
100
AcDbEntity
  8
LC-001-002-----0
370
    35
100
AcDbSpline
210
0.0
220
0.0
230
1.0
 70
     0
 71
     3
 72
     8
 73
     4
 74
     0
 42
0.0000000001
 43
0.0000000001
 40
0.0
 40
0.0
 40
0.0
 40
0.0
 40
1.0
 40
1.0
 40
1.0
 40
1.0
 10
-9.656600000000001
 20
-36.679700000000004
 30
0.0
 10
-9.656600000000001
 20
-36.679700000000004
 30
0.0
 10
-9.656600000000001
 20
-37.741300000000003
 30
0.0
 10
-9.656600000000001
 20
-37.741300000000003
 30
0.0
  0
SPLINE
  5
AC
100
AcDbEntity
  8
LC-001-002-----0
370
    35
100
AcDbSpline
210
0.0
220
0.0
230
1.0
 70
     0
 71
     3
 72
     8
 73
     4
 74
     0
 42
0.0000000001
 43
0.0000000001
 40
0.0
 40
0.0
 40
0.0
 40
0.0
 40
1.0
 40
1.0
 40
1.0
 40
1.0
 10
-11.710600000000001
 20
-1.9400000000000002
 30
0.0
 10
-11.710600000000001
 20
-1.9400000000000002
 30
0.0
 10
-12.3124
 20
-2.9824999999999999
 30
0.0
 10
-12.3124
 20
-2.9824999999999999
 30
0.0
  0
SPLINE
  5
AD
100
AcDbEntity
  8
LC-001-002-----0
370
    35
100
AcDbSpline
210
0.0
220
0.0
230
1.0
 70
     0
 71
     3
 72
     8
 73
     4
 74
     0
 42
0.0000000001
 43
0.0000000001
 40
0.0
 40
0.0
 40
0.0
 40
0.0
 40
1.0
 40
1.0
 40
1.0
 40
1.0
 10
-12.7446
 20
-2.8667000000000002
 30
0.0
 10
-12.7446
 20
-2.8667000000000002
 30
0.0
 10
-12.7446
 20
-18.730800000000002
 30
0.0
 10
-12.7446
 20
-18.730800000000002
 30
0.0
  0
SPLINE
  5
AE
100
AcDbEntity
  8
LC-001-002-----0
370
    35
100
AcDbSpline
210
0.0
220
0.0
230
1.0
 70
     0
 71
     3
 72
     8
 73
     4
 74
     0
 42
0.0000000001
 43
0.0000000001
 40
0.0
 40
0.0
 40
0.0
 40
0.0
 40
1.0
 40
1.0
 40
1.0
 40
1.0
 10
-20.974600000000002
 20
-1.9401000000000002
 30
0.0
 10
-20.974600000000002
 20
-1.9401000000000002
 30
0.0
 10
-21.576499999999999
 20
-2.9824999999999999
 30
0.0
 10
-21.576499999999999
 20
-2.9824999999999999
 30
0.0
  0
SPLINE
  5
AF
100
AcDbEntity
  8
LC-001-002-----0
370
    35
100
AcDbSpline
210
0.0
220
0.0
230
1.0
 70
     0
 71
     3
 72
     8
 73
     4
 74
     0
 42
0.0000000001
 43
0.0000000001
 40
0.0
 40
0.0
 40
0.0
 40
0.0
 40
1.0
 40
1.0
 40
1.0
 40
1.0
 10
-8.1128
 20
-18.730800000000002
 30
0.0
 10
-8.1128
 20
-18.730800000000002
 30
0.0
 10
-8.1128
 20
-2.133
 30
0.0
 10
-8.1128
 20
-2.133
 30
0.0
  0
SPLINE
  5
B0
100
AcDbEntity
  8
LC-001-002-----0
370
    35
100
AcDbSpline
210
0.0
220
0.0
230
1.0
 70
     0
 71
     3
 72
     8
 73
     4
 74
     0
 42
0.0000000001
 43
0.0000000001
 40
0.0
 40
0.0
 40
0.0
 40
0.0
 40
1.0
 40
1.0
 40
1.0
 40
1.0
 10
-26.640500000000003
 20
-1.2993000000000001
 30
0.0
 10
-26.640500000000003
 20
-1.2993000000000001
 30
0.0
 10
-26.640500000000003
 20
-2.7121
 30
0.0
 10
-26.640500000000003
 20
-2.7121
 30
0.0
  0
SPLINE
  5
B1
100
AcDbEntity
  8
LC-001-002-----0
370
    35
100
AcDbSpline
210
0.0
220
0.0
230
1.0
 70
     0
 71
     3
 72
     8
 73
     4
 74
     0
 42
0.0000000001
 43
0.0000000001
 40
0.0
 40
0.0
 40
0.0
 40
0.0
 40
1.0
 40
1.0
 40
1.0
 40
1.0
 10
-15.060600000000001
 20
-34.595100000000002
 30
0.0
 10
-15.060600000000001
 20
-34.595100000000002
 30
0.0
 10
-15.060600000000001
 20
-18.730900000000002
 30
0.0
 10
-15.060600000000001
 20
-18.730900000000002
 30
0.0
  0
SPLINE
  5
B2
100
AcDbEntity
  8
LC-001-002-----0
370
    35
100
AcDbSpline
210
0.0
220
0.0
230
1.0
 70
     0
 71
     3
 72
     8
 73
     4
 74
     0
 42
0.0000000001
 43
0.0000000001
 40
0.0
 40
0.0
 40
0.0
 40
0.0
 40
1.0
 40
1.0
 40
1.0
 40
1.0
 10
-17.3765
 20
-34.595100000000002
 30
0.0
 10
-17.3765
 20
-34.595100000000002
 30
0.0
 10
-17.3765
 20
-18.730900000000002
 30
0.0
 10
-17.3765
 20
-18.730900000000002
 30
0.0
  0
SPLINE
  5
B3
100
AcDbEntity
  8
LC-001-002-----0
370
    35
100
AcDbSpline
210
0.0
220
0.0
230
1.0
 70
     0
 71
     3
 72
     8
 73
     4
 74
     0
 42
0.0000000001
 43
0.0000000001
 40
0.0
 40
0.0
 40
0.0
 40
0.0
 40
1.0
 40
1.0
 40
1.0
 40
1.0
 10
-19.692500000000003
 20
-34.595100000000002
 30
0.0
 10
-19.692500000000003
 20
-34.595100000000002
 30
0.0
 10
-19.692500000000003
 20
-18.730900000000002
 30
0.0
 10
-19.692500000000003
 20
-18.730900000000002
 30
0.0
  0
SPLINE
  5
B4
100
AcDbEntity
  8
LC-001-002-----0
370
    35
100
AcDbSpline
210
0.0
220
0.0
230
1.0
 70
     0
 71
     3
 72
     8
 73
     4
 74
     0
 42
0.0000000001
 43
0.0000000001
 40
0.0
 40
0.0
 40
0.0
 40
0.0
 40
1.0
 40
1.0
 40
1.0
 40
1.0
 10
-22.008500000000002
 20
-34.595100000000002
 30
0.0
 10
-22.008500000000002
 20
-34.595100000000002
 30
0.0
 10
-22.008600000000001
 20
-18.730900000000002
 30
0.0
 10
-22.008600000000001
 20
-18.730900000000002
 30
0.0
  0
SPLINE
  5
B5
100
AcDbEntity
  8
LC-001-002-----0
370
    35
100
AcDbSpline
210
0.0
220
0.0
230
1.0
 70
     0
 71
     3
 72
     8
 73
     4
 74
     0
 42
0.0000000001
 43
0.0000000001
 40
0.0
 40
0.0
 40
0.0
 40
0.0
 40
1.0
 40
1.0
 40
1.0
 40
1.0
 10
-12.7446
 20
-2.8667000000000002
 30
0.0
 10
-12.7446
 20
-2.8667000000000002
 30
0.0
 10
-12.7446
 20
-1.9400000000000002
 30
0.0
 10
-12.7446
 20
-1.9400000000000002
 30
0.0
  0
SPLINE
  5
B6
100
AcDbEntity
  8
LC-001-002-----0
370
    35
100
AcDbSpline
210
0.0
220
0.0
230
1.0
 70
     0
 71
     3
 72
     8
 73
     4
 74
     0
 42
0.0000000001
 43
0.0000000001
 40
0.0
 40
0.0
 40
0.0
 40
0.0
 40
1.0
 40
1.0
 40
1.0
 40
1.0
 10
-9.6567000000000007
 20
-0.782
 30
0.0
 10
-9.6567000000000007
 20
-0.782
 30
0.0
 10
-9.6567000000000007
 20
0.2794
 30
0.0
 10
-9.6567000000000007
 20
0.2794
 30
0.0
  0
SPLINE
  5
B7
100
AcDbEntity
  8
LC-001-002-----0
370
    35
100
AcDbSpline
210
0.0
220
0.0
230
1.0
 70
     0
 71
     3
 72
     8
 73
     4
 74
     0
 42
0.0000000001
 43
0.0000000001
 40
0.0
 40
0.0
 40
0.0
 40
0.0
 40
1.0
 40
1.0
 40
1.0
 40
1.0
 10
-9.6567000000000007
 20
0.2794
 30
0.0
 10
-9.6567000000000007
 20
0.2794
 30
0.0
 10
-9.2706999999999997
 20
0.2794
 30
0.0
 10
-9.2706999999999997
 20
0.2794
 30
0.0
  0
SPLINE
  5
B8
100
AcDbEntity
  8
LC-001-002-----0
370
    35
100
AcDbSpline
210
0.0
220
0.0
230
1.0
 70
     0
 71
     3
 72
     8
 73
     4
 74
     0
 42
0.0000000001
 43
0.0000000001
 40
0.0
 40
0.0
 40
0.0
 40
0.0
 40
1.0
 40
1.0
 40
1.0
 40
1.0
 10
-23.977700000000002
 20
-35.521799999999999
 30
0.0
 10
-23.977700000000002
 20
-35.521799999999999
 30
0.0
 10
-24.903500000000001
 20
-34.749900000000004
 30
0.0
 10
-24.903500000000001
 20
-34.749900000000004
 30
0.0
  0
SPLINE
  5
B9
100
AcDbEntity
  8
LC-001-002-----0
370
    35
100
AcDbSpline
210
0.0
220
0.0
230
1.0
 70
     0
 71
     3
 72
     8
 73
     4
 74
     0
 42
0.0000000001
 43
0.0000000001
 40
0.0
 40
0.0
 40
0.0
 40
0.0
 40
1.0
 40
1.0
 40
1.0
 40
1.0
 10
-11.7105
 20
-35.521700000000003
 30
0.0
 10
-11.7105
 20
-35.521700000000003
 30
0.0
 10
-12.3124
 20
-34.479300000000002
 30
0.0
 10
-12.3124
 20
-34.479300000000002
 30
0.0
  0
SPLINE
  5
BA
100
AcDbEntity
  8
LC-001-002-----0
370
    35
100
AcDbSpline
210
0.0
220
0.0
230
1.0
 70
     0
 71
     3
 72
     8
 73
     4
 74
     0
 42
0.0000000001
 43
0.0000000001
 40
0.0
 40
0.0
 40
0.0
 40
0.0
 40
1.0
 40
1.0
 40
1.0
 40
1.0
 10
-12.7446
 20
-34.595100000000002
 30
0.0
 10
-12.7446
 20
-34.595100000000002
 30
0.0
 10
-12.7446
 20
-18.730800000000002
 30
0.0
 10
-12.7446
 20
-18.730800000000002
 30
0.0
  0
SPLINE
  5
BB
100
AcDbEntity
  8
LC-001-002-----0
370
    35
100
AcDbSpline
210
0.0
220
0.0
230
1.0
 70
     0
 71
     3
 72
     8
 73
     4
 74
     0
 42
0.0000000001
 43
0.0000000001
 40
0.0
 40
0.0
 40
0.0
 40
0.0
 40
1.0
 40
1.0
 40
1.0
 40
1.0
 10
-20.974500000000003
 20
-35.521799999999999
 30
0.0
 10
-20.974500000000003
 20
-35.521799999999999
 30
0.0
 10
-21.5763
 20
-34.479300000000002
 30
0.0
 10
-21.5763
 20
-34.479300000000002
 30
0.0
  0
SPLINE
  5
BC
100
AcDbEntity
  8
LC-001-002-----0
370
    35
100
AcDbSpline
210
0.0
220
0.0
230
1.0
 70
     0
 71
     3
 72
     8
 73
     4
 74
     0
 42
0.0000000001
 43
0.0000000001
 40
0.0
 40
0.0
 40
0.0
 40
0.0
 40
1.0
 40
1.0
 40
1.0
 40
1.0
 10
-8.1128
 20
-18.730800000000002
 30
0.0
 10
-8.1128
 20
-18.730800000000002
 30
0.0
 10
-8.1127000000000002
 20
-35.521700000000003
 30
0.0
 10
-8.1127000000000002
 20
-35.521700000000003
 30
0.0
  0
SPLINE
  5
BD
100
AcDbEntity
  8
LC-001-002-----0
370
    35
100
AcDbSpline
210
0.0
220
0.0
230
1.0
 70
     0
 71
     3
 72
     8
 73
     4
 74
     0
 42
0.0000000001
 43
0.0000000001
 40
0.0
 40
0.0
 40
0.0
 40
0.0
 40
1.0
 40
1.0
 40
1.0
 40
1.0
 10
-26.6404
 20
-36.162700000000001
 30
0.0
 10
-26.6404
 20
-36.162700000000001
 30
0.0
 10
-26.640500000000003
 20
-34.749900000000004
 30
0.0
 10
-26.640500000000003
 20
-34.749900000000004
 30
0.0
  0
SPLINE
  5
BE
100
AcDbEntity
  8
LC-001-002-----0
370
    35
100
AcDbSpline
210
0.0
220
0.0
230
1.0
 70
     0
 71
     3
 72
     8
 73
     4
 74
     0
 42
0.0000000001
 43
0.0000000001
 40
0.0
 40
0.0
 40
0.0
 40
0.0
 40
1.0
 40
1.0
 40
1.0
 40
1.0
 10
-12.7446
 20
-34.595100000000002
 30
0.0
 10
-12.7446
 20
-34.595100000000002
 30
0.0
 10
-12.7446
 20
-35.521700000000003
 30
0.0
 10
-12.7446
 20
-35.521700000000003
 30
0.0
  0
SPLINE
  5
C0
100
AcDbEntity
  8
LC-002-001-----0
370
    35
100
AcDbSpline
210
0.0
220
0.0
230
1.0
 70
     0
 71
     3
 72
     8
 73
     4
 74
     0
 42
0.0000000001
 43
0.0000000001
 40
0.0
 40
0.0
 40
0.0
 40
0.0
 40
1.0
 40
1.0
 40
1.0
 40
1.0
 10
-38.413600000000002
 20
-4.2561
 30
0.0
 10
-38.413600000000002
 20
-4.2561
 30
0.0
 10
-55.011500000000005
 20
-4.2561999999999998
 30
0.0
 10
-55.011500000000005
 20
-4.2561999999999998
 30
0.0
  0
SPLINE
  5
C1
100
AcDbEntity
  8
LC-002-001-----0
370
    35
100
AcDbSpline
210
0.0
220
0.0
230
1.0
 70
     0
 71
     3
 72
     8
 73
     4
 74
     0
 42
0.0000000001
 43
0.0000000001
 40
0.0
 40
0.0
 40
0.0
 40
0.0
 40
1.0
 40
1.0
 40
1.0
 40
1.0
 10
-60.415400000000005
 20
-33.206000000000003
 30
0.0
 10
-60.415400000000005
 20
-33.206000000000003
 30
0.0
 10
-58.099400000000003
 20
-33.206000000000003
 30
0.0
 10
-58.099400000000003
 20
-33.206000000000003
 30
0.0
  0
SPLINE
  5
C2
100
AcDbEntity
  8
LC-002-001-----0
370
    35
100
AcDbSpline
210
0.0
220
0.0
230
1.0
 70
     0
 71
     3
 72
     8
 73
     4
 74
     0
 42
0.0000000001
 43
0.0000000001
 40
0.0
 40
0.0
 40
0.0
 40
0.0
 40
1.0
 40
1.0
 40
1.0
 40
1.0
 10
-34.553600000000003
 20
-5.2567000000000004
 30
0.0
 10
-34.553600000000003
 20
-5.2567000000000004
 30
0.0
 10
-38.413600000000002
 20
-4.2917000000000005
 30
0.0
 10
-38.413600000000002
 20
-4.2917000000000005
 30
0.0
  0
SPLINE
  5
C3
100
AcDbEntity
  8
LC-002-001-----0
370
    35
100
AcDbSpline
210
0.0
220
0.0
230
1.0
 70
     0
 71
     3
 72
     8
 73
     4
 74
     0
 42
0.0000000001
 43
0.0000000001
 40
0.0
 40
0.0
 40
0.0
 40
0.0
 40
1.0
 40
1.0
 40
1.0
 40
1.0
 10
-26.846400000000003
 20
-5.2210999999999999
 30
0.0
 10
-26.846400000000003
 20
-5.2210999999999999
 30
0.0
 10
-34.553600000000003
 20
-5.2210999999999999
 30
0.0
 10
-34.553600000000003
 20
-5.2210999999999999
 30
0.0
  0
SPLINE
  5
C4
100
AcDbEntity
  8
LC-002-001-----0
370
    35
100
AcDbSpline
210
0.0
220
0.0
230
1.0
 70
     0
 71
     3
 72
     8
 73
     4
 74
     0
 42
0.0000000001
 43
0.0000000001
 40
0.0
 40
0.0
 40
0.0
 40
0.0
 40
1.0
 40
1.0
 40
1.0
 40
1.0
 10
-34.5535
 20
-32.240900000000003
 30
0.0
 10
-34.5535
 20
-32.240900000000003
 30
0.0
 10
-26.846400000000003
 20
-32.240900000000003
 30
0.0
 10
-26.846400000000003
 20
-32.240900000000003
 30
0.0
  0
SPLINE
  5
C5
100
AcDbEntity
  8
LC-002-001-----0
370
    35
100
AcDbSpline
210
0.0
220
0.0
230
1.0
 70
     0
 71
     3
 72
     8
 73
     4
 74
     0
 42
0.0000000001
 43
0.0000000001
 40
0.0
 40
0.0
 40
0.0
 40
0.0
 40
1.0
 40
1.0
 40
1.0
 40
1.0
 10
-34.5535
 20
-32.205200000000005
 30
0.0
 10
-34.5535
 20
-32.205200000000005
 30
0.0
 10
-38.413499999999999
 20
-33.170200000000001
 30
0.0
 10
-38.413499999999999
 20
-33.170200000000001
 30
0.0
  0
SPLINE
  5
C6
100
AcDbEntity
  8
LC-002-001-----0
370
    35
100
AcDbSpline
210
0.0
220
0.0
230
1.0
 70
     0
 71
     3
 72
     8
 73
     4
 74
     0
 42
0.0000000001
 43
0.0000000001
 40
0.0
 40
0.0
 40
0.0
 40
0.0
 40
1.0
 40
1.0
 40
1.0
 40
1.0
 10
-58.099500000000006
 20
-4.2561999999999998
 30
0.0
 10
-58.099500000000006
 20
-4.2561999999999998
 30
0.0
 10
-60.415500000000002
 20
-4.2561999999999998
 30
0.0
 10
-60.415500000000002
 20
-4.2561999999999998
 30
0.0
  0
SPLINE
  5
C7
100
AcDbEntity
  8
LC-002-001-----0
370
    35
100
AcDbSpline
210
0.0
220
0.0
230
1.0
 70
     0
 71
     3
 72
     8
 73
     4
 74
     0
 42
0.0000000001
 43
0.0000000001
 40
0.0
 40
0.0
 40
0.0
 40
0.0
 40
1.0
 40
1.0
 40
1.0
 40
1.0
 10
-55.011400000000002
 20
-33.206000000000003
 30
0.0
 10
-55.011400000000002
 20
-33.206000000000003
 30
0.0
 10
-38.413499999999999
 20
-33.2059
 30
0.0
 10
-38.413499999999999
 20
-33.2059
 30
0.0
  0
SPLINE
  5
C8
100
AcDbEntity
  8
LC-002-001-----0
370
    35
100
AcDbSpline
210
0.0
220
0.0
230
1.0
 70
     0
 71
     3
 72
     8
 73
     4
 74
     0
 42
0.0000000001
 43
0.0000000001
 40
0.0
 40
0.0
 40
0.0
 40
0.0
 40
1.0
 40
1.0
 40
1.0
 40
1.0
 10
-55.011400000000002
 20
-35.039400000000001
 30
0.0
 10
-55.011400000000002
 20
-35.039400000000001
 30
0.0
 10
-55.011400000000002
 20
-33.206000000000003
 30
0.0
 10
-55.011400000000002
 20
-33.206000000000003
 30
0.0
  0
SPLINE
  5
CA
100
AcDbEntity
  8
LC-003-005-----0
370
    35
100
AcDbSpline
210
0.0
220
0.0
230
1.0
 70
     0
 71
     3
 72
     8
 73
     4
 74
     0
 42
0.0000000001
 43
0.0000000001
 40
0.0
 40
0.0
 40
0.0
 40
0.0
 40
1.0
 40
1.0
 40
1.0
 40
1.0
 10
-58.099500000000006
 20
-4.2561999999999998
 30
0.0
 10
-58.099500000000006
 20
-4.2561999999999998
 30
0.0
 10
-58.099400000000003
 20
-35.039400000000001
 30
0.0
 10
-58.099400000000003
 20
-35.039400000000001
 30
0.0
  0
SPLINE
  5
CB
100
AcDbEntity
  8
LC-003-005-----0
370
    35
100
AcDbSpline
210
0.0
220
0.0
230
1.0
 70
     0
 71
     3
 72
     8
 73
     4
 74
     0
 42
0.0000000001
 43
0.0000000001
 40
0.0
 40
0.0
 40
0.0
 40
0.0
 40
1.0
 40
1.0
 40
1.0
 40
1.0
 10
-55.012500000000003
 20
-3.5807000000000002
 30
0.0
 10
-55.012500000000003
 20
-3.5807000000000002
 30
0.0
 10
-55.011500000000005
 20
-3.5797000000000003
 30
0.0
 10
-55.011500000000005
 20
-3.5797000000000003
 30
0.0
  0
SPLINE
  5
CC
100
AcDbEntity
  8
LC-003-005-----0
370
    35
100
AcDbSpline
210
0.0
220
0.0
230
1.0
 70
     0
 71
     3
 72
     8
 73
     4
 74
     0
 42
0.0000000001
 43
0.0000000001
 40
0.0
 40
0.0
 40
0.0
 40
0.0
 40
1.0
 40
1.0
 40
1.0
 40
1.0
 10
-55.148900000000005
 20
-3.5807000000000002
 30
0.0
 10
-55.148900000000005
 20
-3.5807000000000002
 30
0.0
 10
-55.011500000000005
 20
-3.4432
 30
0.0
 10
-55.011500000000005
 20
-3.4432
 30
0.0
  0
SPLINE
  5
CD
100
AcDbEntity
  8
LC-003-005-----0
370
    35
100
AcDbSpline
210
0.0
220
0.0
230
1.0
 70
     0
 71
     3
 72
     8
 73
     4
 74
     0
 42
0.0000000001
 43
0.0000000001
 40
0.0
 40
0.0
 40
0.0
 40
0.0
 40
1.0
 40
1.0
 40
1.0
 40
1.0
 10
-55.285299999999999
 20
-3.5807000000000002
 30
0.0
 10
-55.285299999999999
 20
-3.5807000000000002
 30
0.0
 10
-55.011500000000005
 20
-3.3068
 30
0.0
 10
-55.011500000000005
 20
-3.3068
 30
0.0
  0
SPLINE
  5
CE
100
AcDbEntity
  8
LC-003-005-----0
370
    35
100
AcDbSpline
210
0.0
220
0.0
230
1.0
 70
     0
 71
     3
 72
     8
 73
     4
 74
     0
 42
0.0000000001
 43
0.0000000001
 40
0.0
 40
0.0
 40
0.0
 40
0.0
 40
1.0
 40
1.0
 40
1.0
 40
1.0
 10
-55.421800000000005
 20
-3.5807000000000002
 30
0.0
 10
-55.421800000000005
 20
-3.5807000000000002
 30
0.0
 10
-55.011500000000005
 20
-3.1703000000000001
 30
0.0
 10
-55.011500000000005
 20
-3.1703000000000001
 30
0.0
  0
SPLINE
  5
CF
100
AcDbEntity
  8
LC-003-005-----0
370
    35
100
AcDbSpline
210
0.0
220
0.0
230
1.0
 70
     0
 71
     3
 72
     8
 73
     4
 74
     0
 42
0.0000000001
 43
0.0000000001
 40
0.0
 40
0.0
 40
0.0
 40
0.0
 40
1.0
 40
1.0
 40
1.0
 40
1.0
 10
-56.188500000000005
 20
-4.2107999999999999
 30
0.0
 10
-56.188500000000005
 20
-4.2107999999999999
 30
0.0
 10
-56.041900000000005
 20
-4.0643000000000002
 30
0.0
 10
-56.041900000000005
 20
-4.0643000000000002
 30
0.0
  0
SPLINE
  5
D0
100
AcDbEntity
  8
LC-003-005-----0
370
    35
100
AcDbSpline
210
0.0
220
0.0
230
1.0
 70
     0
 71
     3
 72
     8
 73
     4
 74
     0
 42
0.0000000001
 43
0.0000000001
 40
0.0
 40
0.0
 40
0.0
 40
0.0
 40
1.0
 40
1.0
 40
1.0
 40
1.0
 10
-55.558300000000003
 20
-3.5807000000000002
 30
0.0
 10
-55.558300000000003
 20
-3.5807000000000002
 30
0.0
 10
-55.011500000000005
 20
-3.0338000000000003
 30
0.0
 10
-55.011500000000005
 20
-3.0338000000000003
 30
0.0
  0
SPLINE
  5
D1
100
AcDbEntity
  8
LC-003-005-----0
370
    35
100
AcDbSpline
210
0.0
220
0.0
230
1.0
 70
     0
 71
     3
 72
     8
 73
     4
 74
     0
 42
0.0000000001
 43
0.0000000001
 40
0.0
 40
0.0
 40
0.0
 40
0.0
 40
1.0
 40
1.0
 40
1.0
 40
1.0
 10
-56.312400000000004
 20
-4.1983000000000006
 30
0.0
 10
-56.312400000000004
 20
-4.1983000000000006
 30
0.0
 10
-56.054100000000005
 20
-3.9400000000000004
 30
0.0
 10
-56.054100000000005
 20
-3.9400000000000004
 30
0.0
  0
SPLINE
  5
D2
100
AcDbEntity
  8
LC-003-005-----0
370
    35
100
AcDbSpline
210
0.0
220
0.0
230
1.0
 70
     0
 71
     3
 72
     8
 73
     4
 74
     0
 42
0.0000000001
 43
0.0000000001
 40
0.0
 40
0.0
 40
0.0
 40
0.0
 40
1.0
 40
1.0
 40
1.0
 40
1.0
 10
-55.694800000000001
 20
-3.5807000000000002
 30
0.0
 10
-55.694800000000001
 20
-3.5807000000000002
 30
0.0
 10
-55.011500000000005
 20
-2.8973
 30
0.0
 10
-55.011500000000005
 20
-2.8973
 30
0.0
  0
SPLINE
  5
D3
100
AcDbEntity
  8
LC-003-005-----0
370
    35
100
AcDbSpline
210
0.0
220
0.0
230
1.0
 70
     0
 71
     3
 72
     8
 73
     4
 74
     0
 42
0.0000000001
 43
0.0000000001
 40
0.0
 40
0.0
 40
0.0
 40
0.0
 40
1.0
 40
1.0
 40
1.0
 40
1.0
 10
-56.413800000000002
 20
-4.1633000000000004
 30
0.0
 10
-56.413800000000002
 20
-4.1633000000000004
 30
0.0
 10
-56.087300000000006
 20
-3.8367
 30
0.0
 10
-56.087300000000006
 20
-3.8367
 30
0.0
  0
SPLINE
  5
D4
100
AcDbEntity
  8
LC-003-005-----0
370
    35
100
AcDbSpline
210
0.0
220
0.0
230
1.0
 70
     0
 71
     3
 72
     8
 73
     4
 74
     0
 42
0.0000000001
 43
0.0000000001
 40
0.0
 40
0.0
 40
0.0
 40
0.0
 40
1.0
 40
1.0
 40
1.0
 40
1.0
 10
-55.831200000000003
 20
-3.5807000000000002
 30
0.0
 10
-55.831200000000003
 20
-3.5807000000000002
 30
0.0
 10
-55.011500000000005
 20
-2.7610000000000001
 30
0.0
 10
-55.011500000000005
 20
-2.7610000000000001
 30
0.0
  0
SPLINE
  5
D5
100
AcDbEntity
  8
LC-003-005-----0
370
    35
100
AcDbSpline
210
0.0
220
0.0
230
1.0
 70
     0
 71
     3
 72
     8
 73
     4
 74
     0
 42
0.0000000001
 43
0.0000000001
 40
0.0
 40
0.0
 40
0.0
 40
0.0
 40
1.0
 40
1.0
 40
1.0
 40
1.0
 10
-56.515300000000003
 20
-4.1282000000000005
 30
0.0
 10
-56.515300000000003
 20
-4.1282000000000005
 30
0.0
 10
-56.120400000000004
 20
-3.7334000000000001
 30
0.0
 10
-56.120400000000004
 20
-3.7334000000000001
 30
0.0
  0
SPLINE
  5
D6
100
AcDbEntity
  8
LC-003-005-----0
370
    35
100
AcDbSpline
210
0.0
220
0.0
230
1.0
 70
     0
 71
     3
 72
     8
 73
     4
 74
     0
 42
0.0000000001
 43
0.0000000001
 40
0.0
 40
0.0
 40
0.0
 40
0.0
 40
1.0
 40
1.0
 40
1.0
 40
1.0
 10
-55.967700000000001
 20
-3.5807000000000002
 30
0.0
 10
-55.967700000000001
 20
-3.5807000000000002
 30
0.0
 10
-55.011500000000005
 20
-2.6245000000000003
 30
0.0
 10
-55.011500000000005
 20
-2.6245000000000003
 30
0.0
  0
SPLINE
  5
D7
100
AcDbEntity
  8
LC-003-005-----0
370
    35
100
AcDbSpline
210
0.0
220
0.0
230
1.0
 70
     0
 71
     3
 72
     8
 73
     4
 74
     0
 42
0.0000000001
 43
0.0000000001
 40
0.0
 40
0.0
 40
0.0
 40
0.0
 40
1.0
 40
1.0
 40
1.0
 40
1.0
 10
-56.616700000000002
 20
-4.0932000000000004
 30
0.0
 10
-56.616700000000002
 20
-4.0932000000000004
 30
0.0
 10
-56.153600000000004
 20
-3.6301000000000001
 30
0.0
 10
-56.153600000000004
 20
-3.6301000000000001
 30
0.0
  0
SPLINE
  5
D8
100
AcDbEntity
  8
LC-003-005-----0
370
    35
100
AcDbSpline
210
0.0
220
0.0
230
1.0
 70
     0
 71
     3
 72
     8
 73
     4
 74
     0
 42
0.0000000001
 43
0.0000000001
 40
0.0
 40
0.0
 40
0.0
 40
0.0
 40
1.0
 40
1.0
 40
1.0
 40
1.0
 10
-56.104200000000006
 20
-3.5807000000000002
 30
0.0
 10
-56.104200000000006
 20
-3.5807000000000002
 30
0.0
 10
-55.011500000000005
 20
-2.488
 30
0.0
 10
-55.011500000000005
 20
-2.488
 30
0.0
  0
SPLINE
  5
D9
100
AcDbEntity
  8
LC-003-005-----0
370
    35
100
AcDbSpline
210
0.0
220
0.0
230
1.0
 70
     0
 71
     3
 72
     8
 73
     4
 74
     0
 42
0.0000000001
 43
0.0000000001
 40
0.0
 40
0.0
 40
0.0
 40
0.0
 40
1.0
 40
1.0
 40
1.0
 40
1.0
 10
-56.7181
 20
-4.0581000000000005
 30
0.0
 10
-56.7181
 20
-4.0581000000000005
 30
0.0
 10
-55.468700000000005
 20
-2.8087
 30
0.0
 10
-55.468700000000005
 20
-2.8087
 30
0.0
  0
SPLINE
  5
DA
100
AcDbEntity
  8
LC-003-005-----0
370
    35
100
AcDbSpline
210
0.0
220
0.0
230
1.0
 70
     0
 71
     3
 72
     8
 73
     4
 74
     0
 42
0.0000000001
 43
0.0000000001
 40
0.0
 40
0.0
 40
0.0
 40
0.0
 40
1.0
 40
1.0
 40
1.0
 40
1.0
 10
-55.397500000000001
 20
-2.7375000000000003
 30
0.0
 10
-55.397500000000001
 20
-2.7375000000000003
 30
0.0
 10
-55.082700000000003
 20
-2.4227000000000003
 30
0.0
 10
-55.082700000000003
 20
-2.4227000000000003
 30
0.0
  0
SPLINE
  5
DB
100
AcDbEntity
  8
LC-003-005-----0
370
    35
100
AcDbSpline
210
0.0
220
0.0
230
1.0
 70
     0
 71
     3
 72
     8
 73
     4
 74
     0
 42
0.0000000001
 43
0.0000000001
 40
0.0
 40
0.0
 40
0.0
 40
0.0
 40
1.0
 40
1.0
 40
1.0
 40
1.0
 10
-56.819600000000001
 20
-4.0231000000000003
 30
0.0
 10
-56.819600000000001
 20
-4.0231000000000003
 30
0.0
 10
-55.605200000000004
 20
-2.8087
 30
0.0
 10
-55.605200000000004
 20
-2.8087
 30
0.0
  0
SPLINE
  5
DC
100
AcDbEntity
  8
LC-003-005-----0
370
    35
100
AcDbSpline
210
0.0
220
0.0
230
1.0
 70
     0
 71
     3
 72
     8
 73
     4
 74
     0
 42
0.0000000001
 43
0.0000000001
 40
0.0
 40
0.0
 40
0.0
 40
0.0
 40
1.0
 40
1.0
 40
1.0
 40
1.0
 10
-55.397500000000001
 20
-2.601
 30
0.0
 10
-55.397500000000001
 20
-2.601
 30
0.0
 10
-55.219200000000001
 20
-2.4227000000000003
 30
0.0
 10
-55.219200000000001
 20
-2.4227000000000003
 30
0.0
  0
SPLINE
  5
DD
100
AcDbEntity
  8
LC-003-005-----0
370
    35
100
AcDbSpline
210
0.0
220
0.0
230
1.0
 70
     0
 71
     3
 72
     8
 73
     4
 74
     0
 42
0.0000000001
 43
0.0000000001
 40
0.0
 40
0.0
 40
0.0
 40
0.0
 40
1.0
 40
1.0
 40
1.0
 40
1.0
 10
-56.920900000000003
 20
-3.988
 30
0.0
 10
-56.920900000000003
 20
-3.988
 30
0.0
 10
-55.741600000000005
 20
-2.8087
 30
0.0
 10
-55.741600000000005
 20
-2.8087
 30
0.0
  0
SPLINE
  5
DE
100
AcDbEntity
  8
LC-003-005-----0
370
    35
100
AcDbSpline
210
0.0
220
0.0
230
1.0
 70
     0
 71
     3
 72
     8
 73
     4
 74
     0
 42
0.0000000001
 43
0.0000000001
 40
0.0
 40
0.0
 40
0.0
 40
0.0
 40
1.0
 40
1.0
 40
1.0
 40
1.0
 10
-55.397500000000001
 20
-2.4645999999999999
 30
0.0
 10
-55.397500000000001
 20
-2.4645999999999999
 30
0.0
 10
-55.355600000000003
 20
-2.4227000000000003
 30
0.0
 10
-55.355600000000003
 20
-2.4227000000000003
 30
0.0
  0
SPLINE
  5
DF
100
AcDbEntity
  8
LC-003-005-----0
370
    35
100
AcDbSpline
210
0.0
220
0.0
230
1.0
 70
     0
 71
     3
 72
     8
 73
     4
 74
     0
 42
0.0000000001
 43
0.0000000001
 40
0.0
 40
0.0
 40
0.0
 40
0.0
 40
1.0
 40
1.0
 40
1.0
 40
1.0
 10
-57.022300000000001
 20
-3.9530000000000003
 30
0.0
 10
-57.022300000000001
 20
-3.9530000000000003
 30
0.0
 10
-55.783500000000004
 20
-2.7141000000000002
 30
0.0
 10
-55.783500000000004
 20
-2.7141000000000002
 30
0.0
  0
SPLINE
  5
E0
100
AcDbEntity
  8
LC-003-005-----0
370
    35
100
AcDbSpline
210
0.0
220
0.0
230
1.0
 70
     0
 71
     3
 72
     8
 73
     4
 74
     0
 42
0.0000000001
 43
0.0000000001
 40
0.0
 40
0.0
 40
0.0
 40
0.0
 40
1.0
 40
1.0
 40
1.0
 40
1.0
 10
-57.123699999999999
 20
-3.9179000000000004
 30
0.0
 10
-57.123699999999999
 20
-3.9179000000000004
 30
0.0
 10
-55.783500000000004
 20
-2.5776000000000003
 30
0.0
 10
-55.783500000000004
 20
-2.5776000000000003
 30
0.0
  0
SPLINE
  5
E1
100
AcDbEntity
  8
LC-003-005-----0
370
    35
100
AcDbSpline
210
0.0
220
0.0
230
1.0
 70
     0
 71
     3
 72
     8
 73
     4
 74
     0
 42
0.0000000001
 43
0.0000000001
 40
0.0
 40
0.0
 40
0.0
 40
0.0
 40
1.0
 40
1.0
 40
1.0
 40
1.0
 10
-57.225200000000001
 20
-3.8829000000000002
 30
0.0
 10
-57.225200000000001
 20
-3.8829000000000002
 30
0.0
 10
-55.783500000000004
 20
-2.4411
 30
0.0
 10
-55.783500000000004
 20
-2.4411
 30
0.0
  0
SPLINE
  5
E2
100
AcDbEntity
  8
LC-003-005-----0
370
    35
100
AcDbSpline
210
0.0
220
0.0
230
1.0
 70
     0
 71
     3
 72
     8
 73
     4
 74
     0
 42
0.0000000001
 43
0.0000000001
 40
0.0
 40
0.0
 40
0.0
 40
0.0
 40
1.0
 40
1.0
 40
1.0
 40
1.0
 10
-57.326600000000006
 20
-3.8478000000000003
 30
0.0
 10
-57.326600000000006
 20
-3.8478000000000003
 30
0.0
 10
-55.901400000000002
 20
-2.4227000000000003
 30
0.0
 10
-55.901400000000002
 20
-2.4227000000000003
 30
0.0
  0
SPLINE
  5
E3
100
AcDbEntity
  8
LC-003-005-----0
370
    35
100
AcDbSpline
210
0.0
220
0.0
230
1.0
 70
     0
 71
     3
 72
     8
 73
     4
 74
     0
 42
0.0000000001
 43
0.0000000001
 40
0.0
 40
0.0
 40
0.0
 40
0.0
 40
1.0
 40
1.0
 40
1.0
 40
1.0
 10
-57.428000000000004
 20
-3.8128000000000002
 30
0.0
 10
-57.428000000000004
 20
-3.8128000000000002
 30
0.0
 10
-56.0379
 20
-2.4227000000000003
 30
0.0
 10
-56.0379
 20
-2.4227000000000003
 30
0.0
  0
SPLINE
  5
E4
100
AcDbEntity
  8
LC-003-005-----0
370
    35
100
AcDbSpline
210
0.0
220
0.0
230
1.0
 70
     0
 71
     3
 72
     8
 73
     4
 74
     0
 42
0.0000000001
 43
0.0000000001
 40
0.0
 40
0.0
 40
0.0
 40
0.0
 40
1.0
 40
1.0
 40
1.0
 40
1.0
 10
-57.529500000000006
 20
-3.7777000000000003
 30
0.0
 10
-57.529500000000006
 20
-3.7777000000000003
 30
0.0
 10
-56.174400000000006
 20
-2.4227000000000003
 30
0.0
 10
-56.174400000000006
 20
-2.4227000000000003
 30
0.0
  0
SPLINE
  5
E5
100
AcDbEntity
  8
LC-003-005-----0
370
    35
100
AcDbSpline
210
0.0
220
0.0
230
1.0
 70
     0
 71
     3
 72
     8
 73
     4
 74
     0
 42
0.0000000001
 43
0.0000000001
 40
0.0
 40
0.0
 40
0.0
 40
0.0
 40
1.0
 40
1.0
 40
1.0
 40
1.0
 10
-57.630900000000004
 20
-3.7427000000000001
 30
0.0
 10
-57.630900000000004
 20
-3.7427000000000001
 30
0.0
 10
-56.310900000000004
 20
-2.4227000000000003
 30
0.0
 10
-56.310900000000004
 20
-2.4227000000000003
 30
0.0
  0
SPLINE
  5
E6
100
AcDbEntity
  8
LC-003-005-----0
370
    35
100
AcDbSpline
210
0.0
220
0.0
230
1.0
 70
     0
 71
     3
 72
     8
 73
     4
 74
     0
 42
0.0000000001
 43
0.0000000001
 40
0.0
 40
0.0
 40
0.0
 40
0.0
 40
1.0
 40
1.0
 40
1.0
 40
1.0
 10
-57.732300000000002
 20
-3.7076000000000002
 30
0.0
 10
-57.732300000000002
 20
-3.7076000000000002
 30
0.0
 10
-56.447400000000002
 20
-2.4227000000000003
 30
0.0
 10
-56.447400000000002
 20
-2.4227000000000003
 30
0.0
  0
SPLINE
  5
E7
100
AcDbEntity
  8
LC-003-005-----0
370
    35
100
AcDbSpline
210
0.0
220
0.0
230
1.0
 70
     0
 71
     3
 72
     8
 73
     4
 74
     0
 42
0.0000000001
 43
0.0000000001
 40
0.0
 40
0.0
 40
0.0
 40
0.0
 40
1.0
 40
1.0
 40
1.0
 40
1.0
 10
-57.833800000000004
 20
-3.6725000000000003
 30
0.0
 10
-57.833800000000004
 20
-3.6725000000000003
 30
0.0
 10
-56.583800000000004
 20
-2.4227000000000003
 30
0.0
 10
-56.583800000000004
 20
-2.4227000000000003
 30
0.0
  0
SPLINE
  5
E8
100
AcDbEntity
  8
LC-003-005-----0
370
    35
100
AcDbSpline
210
0.0
220
0.0
230
1.0
 70
     0
 71
     3
 72
     8
 73
     4
 74
     0
 42
0.0000000001
 43
0.0000000001
 40
0.0
 40
0.0
 40
0.0
 40
0.0
 40
1.0
 40
1.0
 40
1.0
 40
1.0
 10
-57.935100000000006
 20
-3.6374
 30
0.0
 10
-57.935100000000006
 20
-3.6374
 30
0.0
 10
-56.720300000000002
 20
-2.4227000000000003
 30
0.0
 10
-56.720300000000002
 20
-2.4227000000000003
 30
0.0
  0
SPLINE
  5
E9
100
AcDbEntity
  8
LC-003-005-----0
370
    35
100
AcDbSpline
210
0.0
220
0.0
230
1.0
 70
     0
 71
     3
 72
     8
 73
     4
 74
     0
 42
0.0000000001
 43
0.0000000001
 40
0.0
 40
0.0
 40
0.0
 40
0.0
 40
1.0
 40
1.0
 40
1.0
 40
1.0
 10
-58.036500000000004
 20
-3.6024000000000003
 30
0.0
 10
-58.036500000000004
 20
-3.6024000000000003
 30
0.0
 10
-56.8568
 20
-2.4227000000000003
 30
0.0
 10
-56.8568
 20
-2.4227000000000003
 30
0.0
  0
SPLINE
  5
EA
100
AcDbEntity
  8
LC-003-005-----0
370
    35
100
AcDbSpline
210
0.0
220
0.0
230
1.0
 70
     0
 71
     3
 72
     8
 73
     4
 74
     0
 42
0.0000000001
 43
0.0000000001
 40
0.0
 40
0.0
 40
0.0
 40
0.0
 40
1.0
 40
1.0
 40
1.0
 40
1.0
 10
-58.099500000000006
 20
-3.5289000000000001
 30
0.0
 10
-58.099500000000006
 20
-3.5289000000000001
 30
0.0
 10
-56.993300000000005
 20
-2.4227000000000003
 30
0.0
 10
-56.993300000000005
 20
-2.4227000000000003
 30
0.0
  0
SPLINE
  5
EB
100
AcDbEntity
  8
LC-003-005-----0
370
    35
100
AcDbSpline
210
0.0
220
0.0
230
1.0
 70
     0
 71
     3
 72
     8
 73
     4
 74
     0
 42
0.0000000001
 43
0.0000000001
 40
0.0
 40
0.0
 40
0.0
 40
0.0
 40
1.0
 40
1.0
 40
1.0
 40
1.0
 10
-58.099500000000006
 20
-3.3924000000000003
 30
0.0
 10
-58.099500000000006
 20
-3.3924000000000003
 30
0.0
 10
-57.129800000000003
 20
-2.4227000000000003
 30
0.0
 10
-57.129800000000003
 20
-2.4227000000000003
 30
0.0
  0
SPLINE
  5
EC
100
AcDbEntity
  8
LC-003-005-----0
370
    35
100
AcDbSpline
210
0.0
220
0.0
230
1.0
 70
     0
 71
     3
 72
     8
 73
     4
 74
     0
 42
0.0000000001
 43
0.0000000001
 40
0.0
 40
0.0
 40
0.0
 40
0.0
 40
1.0
 40
1.0
 40
1.0
 40
1.0
 10
-58.099500000000006
 20
-3.2559
 30
0.0
 10
-58.099500000000006
 20
-3.2559
 30
0.0
 10
-57.266300000000001
 20
-2.4227000000000003
 30
0.0
 10
-57.266300000000001
 20
-2.4227000000000003
 30
0.0
  0
SPLINE
  5
ED
100
AcDbEntity
  8
LC-003-005-----0
370
    35
100
AcDbSpline
210
0.0
220
0.0
230
1.0
 70
     0
 71
     3
 72
     8
 73
     4
 74
     0
 42
0.0000000001
 43
0.0000000001
 40
0.0
 40
0.0
 40
0.0
 40
0.0
 40
1.0
 40
1.0
 40
1.0
 40
1.0
 10
-58.099500000000006
 20
-3.1194999999999999
 30
0.0
 10
-58.099500000000006
 20
-3.1194999999999999
 30
0.0
 10
-57.402700000000003
 20
-2.4227000000000003
 30
0.0
 10
-57.402700000000003
 20
-2.4227000000000003
 30
0.0
  0
SPLINE
  5
EE
100
AcDbEntity
  8
LC-003-005-----0
370
    35
100
AcDbSpline
210
0.0
220
0.0
230
1.0
 70
     0
 71
     3
 72
     8
 73
     4
 74
     0
 42
0.0000000001
 43
0.0000000001
 40
0.0
 40
0.0
 40
0.0
 40
0.0
 40
1.0
 40
1.0
 40
1.0
 40
1.0
 10
-58.099500000000006
 20
-2.9830000000000001
 30
0.0
 10
-58.099500000000006
 20
-2.9830000000000001
 30
0.0
 10
-57.539100000000005
 20
-2.4227000000000003
 30
0.0
 10
-57.539100000000005
 20
-2.4227000000000003
 30
0.0
  0
SPLINE
  5
EF
100
AcDbEntity
  8
LC-003-005-----0
370
    35
100
AcDbSpline
210
0.0
220
0.0
230
1.0
 70
     0
 71
     3
 72
     8
 73
     4
 74
     0
 42
0.0000000001
 43
0.0000000001
 40
0.0
 40
0.0
 40
0.0
 40
0.0
 40
1.0
 40
1.0
 40
1.0
 40
1.0
 10
-58.099500000000006
 20
-2.8465000000000003
 30
0.0
 10
-58.099500000000006
 20
-2.8465000000000003
 30
0.0
 10
-57.675600000000003
 20
-2.4227000000000003
 30
0.0
 10
-57.675600000000003
 20
-2.4227000000000003
 30
0.0
  0
SPLINE
  5
F0
100
AcDbEntity
  8
LC-003-005-----0
370
    35
100
AcDbSpline
210
0.0
220
0.0
230
1.0
 70
     0
 71
     3
 72
     8
 73
     4
 74
     0
 42
0.0000000001
 43
0.0000000001
 40
0.0
 40
0.0
 40
0.0
 40
0.0
 40
1.0
 40
1.0
 40
1.0
 40
1.0
 10
-58.099500000000006
 20
-2.71
 30
0.0
 10
-58.099500000000006
 20
-2.71
 30
0.0
 10
-57.812100000000001
 20
-2.4227000000000003
 30
0.0
 10
-57.812100000000001
 20
-2.4227000000000003
 30
0.0
  0
SPLINE
  5
F1
100
AcDbEntity
  8
LC-003-005-----0
370
    35
100
AcDbSpline
210
0.0
220
0.0
230
1.0
 70
     0
 71
     3
 72
     8
 73
     4
 74
     0
 42
0.0000000001
 43
0.0000000001
 40
0.0
 40
0.0
 40
0.0
 40
0.0
 40
1.0
 40
1.0
 40
1.0
 40
1.0
 10
-58.099500000000006
 20
-2.5736000000000003
 30
0.0
 10
-58.099500000000006
 20
-2.5736000000000003
 30
0.0
 10
-57.948500000000003
 20
-2.4227000000000003
 30
0.0
 10
-57.948500000000003
 20
-2.4227000000000003
 30
0.0
  0
SPLINE
  5
F2
100
AcDbEntity
  8
LC-003-005-----0
370
    35
100
AcDbSpline
210
0.0
220
0.0
230
1.0
 70
     0
 71
     3
 72
     8
 73
     4
 74
     0
 42
0.0000000001
 43
0.0000000001
 40
0.0
 40
0.0
 40
0.0
 40
0.0
 40
1.0
 40
1.0
 40
1.0
 40
1.0
 10
-58.099500000000006
 20
-2.4372000000000003
 30
0.0
 10
-58.099500000000006
 20
-2.4372000000000003
 30
0.0
 10
-58.085000000000001
 20
-2.4227000000000003
 30
0.0
 10
-58.085000000000001
 20
-2.4227000000000003
 30
0.0
  0
SPLINE
  5
F3
100
AcDbEntity
  8
LC-003-005-----0
370
    20
100
AcDbSpline
210
0.0
220
0.0
230
1.0
 70
     0
 71
     3
 72
     8
 73
     4
 74
     0
 42
0.0000000001
 43
0.0000000001
 40
0.0
 40
0.0
 40
0.0
 40
0.0
 40
1.0
 40
1.0
 40
1.0
 40
1.0
 10
-55.082900000000002
 20
-35.039400000000001
 30
0.0
 10
-55.082900000000002
 20
-35.039400000000001
 30
0.0
 10
-55.011400000000002
 20
-34.9679
 30
0.0
 10
-55.011400000000002
 20
-34.9679
 30
0.0
  0
SPLINE
  5
F4
100
AcDbEntity
  8
LC-003-005-----0
370
    20
100
AcDbSpline
210
0.0
220
0.0
230
1.0
 70
     0
 71
     3
 72
     8
 73
     4
 74
     0
 42
0.0000000001
 43
0.0000000001
 40
0.0
 40
0.0
 40
0.0
 40
0.0
 40
1.0
 40
1.0
 40
1.0
 40
1.0
 10
-55.2194
 20
-35.039400000000001
 30
0.0
 10
-55.2194
 20
-35.039400000000001
 30
0.0
 10
-55.011400000000002
 20
-34.831400000000002
 30
0.0
 10
-55.011400000000002
 20
-34.831400000000002
 30
0.0
  0
SPLINE
  5
F5
100
AcDbEntity
  8
LC-003-005-----0
370
    20
100
AcDbSpline
210
0.0
220
0.0
230
1.0
 70
     0
 71
     3
 72
     8
 73
     4
 74
     0
 42
0.0000000001
 43
0.0000000001
 40
0.0
 40
0.0
 40
0.0
 40
0.0
 40
1.0
 40
1.0
 40
1.0
 40
1.0
 10
-55.355900000000005
 20
-35.039400000000001
 30
0.0
 10
-55.355900000000005
 20
-35.039400000000001
 30
0.0
 10
-55.011400000000002
 20
-34.695
 30
0.0
 10
-55.011400000000002
 20
-34.695
 30
0.0
  0
SPLINE
  5
F6
100
AcDbEntity
  8
LC-003-005-----0
370
    20
100
AcDbSpline
210
0.0
220
0.0
230
1.0
 70
     0
 71
     3
 72
     8
 73
     4
 74
     0
 42
0.0000000001
 43
0.0000000001
 40
0.0
 40
0.0
 40
0.0
 40
0.0
 40
1.0
 40
1.0
 40
1.0
 40
1.0
 10
-55.397400000000005
 20
-34.944500000000005
 30
0.0
 10
-55.397400000000005
 20
-34.944500000000005
 30
0.0
 10
-55.011400000000002
 20
-34.558500000000002
 30
0.0
 10
-55.011400000000002
 20
-34.558500000000002
 30
0.0
  0
SPLINE
  5
F7
100
AcDbEntity
  8
LC-003-005-----0
370
    20
100
AcDbSpline
210
0.0
220
0.0
230
1.0
 70
     0
 71
     3
 72
     8
 73
     4
 74
     0
 42
0.0000000001
 43
0.0000000001
 40
0.0
 40
0.0
 40
0.0
 40
0.0
 40
1.0
 40
1.0
 40
1.0
 40
1.0
 10
-55.397400000000005
 20
-34.808
 30
0.0
 10
-55.397400000000005
 20
-34.808
 30
0.0
 10
-55.011400000000002
 20
-34.422000000000004
 30
0.0
 10
-55.011400000000002
 20
-34.422000000000004
 30
0.0
  0
SPLINE
  5
F8
100
AcDbEntity
  8
LC-003-005-----0
370
    20
100
AcDbSpline
210
0.0
220
0.0
230
1.0
 70
     0
 71
     3
 72
     8
 73
     4
 74
     0
 42
0.0000000001
 43
0.0000000001
 40
0.0
 40
0.0
 40
0.0
 40
0.0
 40
1.0
 40
1.0
 40
1.0
 40
1.0
 10
-55.397400000000005
 20
-34.671500000000002
 30
0.0
 10
-55.397400000000005
 20
-34.671500000000002
 30
0.0
 10
-55.011400000000002
 20
-34.285499999999999
 30
0.0
 10
-55.011400000000002
 20
-34.285499999999999
 30
0.0
  0
SPLINE
  5
F9
100
AcDbEntity
  8
LC-003-005-----0
370
    20
100
AcDbSpline
210
0.0
220
0.0
230
1.0
 70
     0
 71
     3
 72
     8
 73
     4
 74
     0
 42
0.0000000001
 43
0.0000000001
 40
0.0
 40
0.0
 40
0.0
 40
0.0
 40
1.0
 40
1.0
 40
1.0
 40
1.0
 10
-55.901800000000001
 20
-35.039400000000001
 30
0.0
 10
-55.901800000000001
 20
-35.039400000000001
 30
0.0
 10
-55.7834
 20
-34.920999999999999
 30
0.0
 10
-55.7834
 20
-34.920999999999999
 30
0.0
  0
SPLINE
  5
FA
100
AcDbEntity
  8
LC-003-005-----0
370
    20
100
AcDbSpline
210
0.0
220
0.0
230
1.0
 70
     0
 71
     3
 72
     8
 73
     4
 74
     0
 42
0.0000000001
 43
0.0000000001
 40
0.0
 40
0.0
 40
0.0
 40
0.0
 40
1.0
 40
1.0
 40
1.0
 40
1.0
 10
-55.515800000000006
 20
-34.653400000000005
 30
0.0
 10
-55.515800000000006
 20
-34.653400000000005
 30
0.0
 10
-55.011400000000002
 20
-34.149000000000001
 30
0.0
 10
-55.011400000000002
 20
-34.149000000000001
 30
0.0
  0
SPLINE
  5
FB
100
AcDbEntity
  8
LC-003-005-----0
370
    20
100
AcDbSpline
210
0.0
220
0.0
230
1.0
 70
     0
 71
     3
 72
     8
 73
     4
 74
     0
 42
0.0000000001
 43
0.0000000001
 40
0.0
 40
0.0
 40
0.0
 40
0.0
 40
1.0
 40
1.0
 40
1.0
 40
1.0
 10
-56.0383
 20
-35.039400000000001
 30
0.0
 10
-56.0383
 20
-35.039400000000001
 30
0.0
 10
-55.7834
 20
-34.784600000000005
 30
0.0
 10
-55.7834
 20
-34.784600000000005
 30
0.0
  0
SPLINE
  5
FC
100
AcDbEntity
  8
LC-003-005-----0
370
    20
100
AcDbSpline
210
0.0
220
0.0
230
1.0
 70
     0
 71
     3
 72
     8
 73
     4
 74
     0
 42
0.0000000001
 43
0.0000000001
 40
0.0
 40
0.0
 40
0.0
 40
0.0
 40
1.0
 40
1.0
 40
1.0
 40
1.0
 10
-55.652300000000004
 20
-34.653400000000005
 30
0.0
 10
-55.652300000000004
 20
-34.653400000000005
 30
0.0
 10
-55.011400000000002
 20
-34.012599999999999
 30
0.0
 10
-55.011400000000002
 20
-34.012599999999999
 30
0.0
  0
SPLINE
  5
FD
100
AcDbEntity
  8
LC-003-005-----0
370
    20
100
AcDbSpline
210
0.0
220
0.0
230
1.0
 70
     0
 71
     3
 72
     8
 73
     4
 74
     0
 42
0.0000000001
 43
0.0000000001
 40
0.0
 40
0.0
 40
0.0
 40
0.0
 40
1.0
 40
1.0
 40
1.0
 40
1.0
 10
-56.174800000000005
 20
-35.039400000000001
 30
0.0
 10
-56.174800000000005
 20
-35.039400000000001
 30
0.0
 10
-55.016800000000003
 20
-33.881399999999999
 30
0.0
 10
-55.016800000000003
 20
-33.881399999999999
 30
0.0
  0
SPLINE
  5
FE
100
AcDbEntity
  8
LC-003-005-----0
370
    20
100
AcDbSpline
210
0.0
220
0.0
230
1.0
 70
     0
 71
     3
 72
     8
 73
     4
 74
     0
 42
0.0000000001
 43
0.0000000001
 40
0.0
 40
0.0
 40
0.0
 40
0.0
 40
1.0
 40
1.0
 40
1.0
 40
1.0
 10
-56.311199999999999
 20
-35.039400000000001
 30
0.0
 10
-56.311199999999999
 20
-35.039400000000001
 30
0.0
 10
-55.153200000000005
 20
-33.881399999999999
 30
0.0
 10
-55.153200000000005
 20
-33.881399999999999
 30
0.0
  0
SPLINE
  5
FF
100
AcDbEntity
  8
LC-003-005-----0
370
    20
100
AcDbSpline
210
0.0
220
0.0
230
1.0
 70
     0
 71
     3
 72
     8
 73
     4
 74
     0
 42
0.0000000001
 43
0.0000000001
 40
0.0
 40
0.0
 40
0.0
 40
0.0
 40
1.0
 40
1.0
 40
1.0
 40
1.0
 10
-56.447700000000005
 20
-35.039400000000001
 30
0.0
 10
-56.447700000000005
 20
-35.039400000000001
 30
0.0
 10
-55.289700000000003
 20
-33.881399999999999
 30
0.0
 10
-55.289700000000003
 20
-33.881399999999999
 30
0.0
  0
SPLINE
  5
100
100
AcDbEntity
  8
LC-003-005-----0
370
    20
100
AcDbSpline
210
0.0
220
0.0
230
1.0
 70
     0
 71
     3
 72
     8
 73
     4
 74
     0
 42
0.0000000001
 43
0.0000000001
 40
0.0
 40
0.0
 40
0.0
 40
0.0
 40
1.0
 40
1.0
 40
1.0
 40
1.0
 10
-56.584200000000003
 20
-35.039400000000001
 30
0.0
 10
-56.584200000000003
 20
-35.039400000000001
 30
0.0
 10
-55.426100000000005
 20
-33.881399999999999
 30
0.0
 10
-55.426100000000005
 20
-33.881399999999999
 30
0.0
  0
SPLINE
  5
101
100
AcDbEntity
  8
LC-003-005-----0
370
    20
100
AcDbSpline
210
0.0
220
0.0
230
1.0
 70
     0
 71
     3
 72
     8
 73
     4
 74
     0
 42
0.0000000001
 43
0.0000000001
 40
0.0
 40
0.0
 40
0.0
 40
0.0
 40
1.0
 40
1.0
 40
1.0
 40
1.0
 10
-56.720600000000005
 20
-35.039400000000001
 30
0.0
 10
-56.720600000000005
 20
-35.039400000000001
 30
0.0
 10
-55.562600000000003
 20
-33.881399999999999
 30
0.0
 10
-55.562600000000003
 20
-33.881399999999999
 30
0.0
  0
SPLINE
  5
102
100
AcDbEntity
  8
LC-003-005-----0
370
    20
100
AcDbSpline
210
0.0
220
0.0
230
1.0
 70
     0
 71
     3
 72
     8
 73
     4
 74
     0
 42
0.0000000001
 43
0.0000000001
 40
0.0
 40
0.0
 40
0.0
 40
0.0
 40
1.0
 40
1.0
 40
1.0
 40
1.0
 10
-56.856999999999999
 20
-35.039400000000001
 30
0.0
 10
-56.856999999999999
 20
-35.039400000000001
 30
0.0
 10
-55.699000000000005
 20
-33.881399999999999
 30
0.0
 10
-55.699000000000005
 20
-33.881399999999999
 30
0.0
  0
SPLINE
  5
103
100
AcDbEntity
  8
LC-003-005-----0
370
    20
100
AcDbSpline
210
0.0
220
0.0
230
1.0
 70
     0
 71
     3
 72
     8
 73
     4
 74
     0
 42
0.0000000001
 43
0.0000000001
 40
0.0
 40
0.0
 40
0.0
 40
0.0
 40
1.0
 40
1.0
 40
1.0
 40
1.0
 10
-56.993500000000004
 20
-35.039400000000001
 30
0.0
 10
-56.993500000000004
 20
-35.039400000000001
 30
0.0
 10
-55.835500000000003
 20
-33.881399999999999
 30
0.0
 10
-55.835500000000003
 20
-33.881399999999999
 30
0.0
  0
SPLINE
  5
104
100
AcDbEntity
  8
LC-003-005-----0
370
    20
100
AcDbSpline
210
0.0
220
0.0
230
1.0
 70
     0
 71
     3
 72
     8
 73
     4
 74
     0
 42
0.0000000001
 43
0.0000000001
 40
0.0
 40
0.0
 40
0.0
 40
0.0
 40
1.0
 40
1.0
 40
1.0
 40
1.0
 10
-57.130000000000003
 20
-35.039400000000001
 30
0.0
 10
-57.130000000000003
 20
-35.039400000000001
 30
0.0
 10
-55.972000000000001
 20
-33.881399999999999
 30
0.0
 10
-55.972000000000001
 20
-33.881399999999999
 30
0.0
  0
SPLINE
  5
105
100
AcDbEntity
  8
LC-003-005-----0
370
    20
100
AcDbSpline
210
0.0
220
0.0
230
1.0
 70
     0
 71
     3
 72
     8
 73
     4
 74
     0
 42
0.0000000001
 43
0.0000000001
 40
0.0
 40
0.0
 40
0.0
 40
0.0
 40
1.0
 40
1.0
 40
1.0
 40
1.0
 10
-57.266500000000001
 20
-35.039400000000001
 30
0.0
 10
-57.266500000000001
 20
-35.039400000000001
 30
0.0
 10
-56.108499999999999
 20
-33.881399999999999
 30
0.0
 10
-56.108499999999999
 20
-33.881399999999999
 30
0.0
  0
SPLINE
  5
106
100
AcDbEntity
  8
LC-003-005-----0
370
    20
100
AcDbSpline
210
0.0
220
0.0
230
1.0
 70
     0
 71
     3
 72
     8
 73
     4
 74
     0
 42
0.0000000001
 43
0.0000000001
 40
0.0
 40
0.0
 40
0.0
 40
0.0
 40
1.0
 40
1.0
 40
1.0
 40
1.0
 10
-57.403000000000006
 20
-35.039400000000001
 30
0.0
 10
-57.403000000000006
 20
-35.039400000000001
 30
0.0
 10
-56.133700000000005
 20
-33.770099999999999
 30
0.0
 10
-56.133700000000005
 20
-33.770099999999999
 30
0.0
  0
SPLINE
  5
107
100
AcDbEntity
  8
LC-003-005-----0
370
    20
100
AcDbSpline
210
0.0
220
0.0
230
1.0
 70
     0
 71
     3
 72
     8
 73
     4
 74
     0
 42
0.0000000001
 43
0.0000000001
 40
0.0
 40
0.0
 40
0.0
 40
0.0
 40
1.0
 40
1.0
 40
1.0
 40
1.0
 10
-57.539400000000001
 20
-35.039400000000001
 30
0.0
 10
-57.539400000000001
 20
-35.039400000000001
 30
0.0
 10
-56.069100000000006
 20
-33.569099999999999
 30
0.0
 10
-56.069100000000006
 20
-33.569099999999999
 30
0.0
  0
SPLINE
  5
108
100
AcDbEntity
  8
LC-003-005-----0
370
    20
100
AcDbSpline
210
0.0
220
0.0
230
1.0
 70
     0
 71
     3
 72
     8
 73
     4
 74
     0
 42
0.0000000001
 43
0.0000000001
 40
0.0
 40
0.0
 40
0.0
 40
0.0
 40
1.0
 40
1.0
 40
1.0
 40
1.0
 10
-57.675900000000006
 20
-35.039400000000001
 30
0.0
 10
-57.675900000000006
 20
-35.039400000000001
 30
0.0
 10
-56.040600000000005
 20
-33.4041
 30
0.0
 10
-56.040600000000005
 20
-33.4041
 30
0.0
  0
SPLINE
  5
109
100
AcDbEntity
  8
LC-003-005-----0
370
    20
100
AcDbSpline
210
0.0
220
0.0
230
1.0
 70
     0
 71
     3
 72
     8
 73
     4
 74
     0
 42
0.0000000001
 43
0.0000000001
 40
0.0
 40
0.0
 40
0.0
 40
0.0
 40
1.0
 40
1.0
 40
1.0
 40
1.0
 10
-57.812400000000004
 20
-35.039400000000001
 30
0.0
 10
-57.812400000000004
 20
-35.039400000000001
 30
0.0
 10
-56.085300000000004
 20
-33.3123
 30
0.0
 10
-56.085300000000004
 20
-33.3123
 30
0.0
  0
SPLINE
  5
10A
100
AcDbEntity
  8
LC-003-005-----0
370
    20
100
AcDbSpline
210
0.0
220
0.0
230
1.0
 70
     0
 71
     3
 72
     8
 73
     4
 74
     0
 42
0.0000000001
 43
0.0000000001
 40
0.0
 40
0.0
 40
0.0
 40
0.0
 40
1.0
 40
1.0
 40
1.0
 40
1.0
 10
-57.948900000000002
 20
-35.039400000000001
 30
0.0
 10
-57.948900000000002
 20
-35.039400000000001
 30
0.0
 10
-56.166700000000006
 20
-33.257400000000004
 30
0.0
 10
-56.166700000000006
 20
-33.257400000000004
 30
0.0
  0
SPLINE
  5
10B
100
AcDbEntity
  8
LC-003-005-----0
370
    20
100
AcDbSpline
210
0.0
220
0.0
230
1.0
 70
     0
 71
     3
 72
     8
 73
     4
 74
     0
 42
0.0000000001
 43
0.0000000001
 40
0.0
 40
0.0
 40
0.0
 40
0.0
 40
1.0
 40
1.0
 40
1.0
 40
1.0
 10
-58.0854
 20
-35.039400000000001
 30
0.0
 10
-58.0854
 20
-35.039400000000001
 30
0.0
 10
-56.308300000000003
 20
-33.2624
 30
0.0
 10
-56.308300000000003
 20
-33.2624
 30
0.0
  0
SPLINE
  5
10C
100
AcDbEntity
  8
LC-003-005-----0
370
    20
100
AcDbSpline
210
0.0
220
0.0
230
1.0
 70
     0
 71
     3
 72
     8
 73
     4
 74
     0
 42
0.0000000001
 43
0.0000000001
 40
0.0
 40
0.0
 40
0.0
 40
0.0
 40
1.0
 40
1.0
 40
1.0
 40
1.0
 10
-58.099400000000003
 20
-34.917000000000002
 30
0.0
 10
-58.099400000000003
 20
-34.917000000000002
 30
0.0
 10
-56.5169
 20
-33.334400000000002
 30
0.0
 10
-56.5169
 20
-33.334400000000002
 30
0.0
  0
SPLINE
  5
10D
100
AcDbEntity
  8
LC-003-005-----0
370
    20
100
AcDbSpline
210
0.0
220
0.0
230
1.0
 70
     0
 71
     3
 72
     8
 73
     4
 74
     0
 42
0.0000000001
 43
0.0000000001
 40
0.0
 40
0.0
 40
0.0
 40
0.0
 40
1.0
 40
1.0
 40
1.0
 40
1.0
 10
-58.099400000000003
 20
-34.7806
 30
0.0
 10
-58.099400000000003
 20
-34.7806
 30
0.0
 10
-56.7254
 20
-33.406500000000001
 30
0.0
 10
-56.7254
 20
-33.406500000000001
 30
0.0
  0
SPLINE
  5
10E
100
AcDbEntity
  8
LC-003-005-----0
370
    20
100
AcDbSpline
210
0.0
220
0.0
230
1.0
 70
     0
 71
     3
 72
     8
 73
     4
 74
     0
 42
0.0000000001
 43
0.0000000001
 40
0.0
 40
0.0
 40
0.0
 40
0.0
 40
1.0
 40
1.0
 40
1.0
 40
1.0
 10
-58.099400000000003
 20
-34.644100000000002
 30
0.0
 10
-58.099400000000003
 20
-34.644100000000002
 30
0.0
 10
-56.934000000000005
 20
-33.4786
 30
0.0
 10
-56.934000000000005
 20
-33.4786
 30
0.0
  0
SPLINE
  5
10F
100
AcDbEntity
  8
LC-003-005-----0
370
    20
100
AcDbSpline
210
0.0
220
0.0
230
1.0
 70
     0
 71
     3
 72
     8
 73
     4
 74
     0
 42
0.0000000001
 43
0.0000000001
 40
0.0
 40
0.0
 40
0.0
 40
0.0
 40
1.0
 40
1.0
 40
1.0
 40
1.0
 10
-58.099400000000003
 20
-34.507600000000004
 30
0.0
 10
-58.099400000000003
 20
-34.507600000000004
 30
0.0
 10
-57.142500000000005
 20
-33.550699999999999
 30
0.0
 10
-57.142500000000005
 20
-33.550699999999999
 30
0.0
  0
SPLINE
  5
110
100
AcDbEntity
  8
LC-003-005-----0
370
    20
100
AcDbSpline
210
0.0
220
0.0
230
1.0
 70
     0
 71
     3
 72
     8
 73
     4
 74
     0
 42
0.0000000001
 43
0.0000000001
 40
0.0
 40
0.0
 40
0.0
 40
0.0
 40
1.0
 40
1.0
 40
1.0
 40
1.0
 10
-58.099400000000003
 20
-34.371200000000002
 30
0.0
 10
-58.099400000000003
 20
-34.371200000000002
 30
0.0
 10
-57.351100000000002
 20
-33.622700000000002
 30
0.0
 10
-57.351100000000002
 20
-33.622700000000002
 30
0.0
  0
SPLINE
  5
111
100
AcDbEntity
  8
LC-003-005-----0
370
    20
100
AcDbSpline
210
0.0
220
0.0
230
1.0
 70
     0
 71
     3
 72
     8
 73
     4
 74
     0
 42
0.0000000001
 43
0.0000000001
 40
0.0
 40
0.0
 40
0.0
 40
0.0
 40
1.0
 40
1.0
 40
1.0
 40
1.0
 10
-58.099400000000003
 20
-34.234700000000004
 30
0.0
 10
-58.099400000000003
 20
-34.234700000000004
 30
0.0
 10
-57.559600000000003
 20
-33.694800000000001
 30
0.0
 10
-57.559600000000003
 20
-33.694800000000001
 30
0.0
  0
SPLINE
  5
112
100
AcDbEntity
  8
LC-003-005-----0
370
    20
100
AcDbSpline
210
0.0
220
0.0
230
1.0
 70
     0
 71
     3
 72
     8
 73
     4
 74
     0
 42
0.0000000001
 43
0.0000000001
 40
0.0
 40
0.0
 40
0.0
 40
0.0
 40
1.0
 40
1.0
 40
1.0
 40
1.0
 10
-58.099400000000003
 20
-34.098199999999999
 30
0.0
 10
-58.099400000000003
 20
-34.098199999999999
 30
0.0
 10
-57.7682
 20
-33.7669
 30
0.0
 10
-57.7682
 20
-33.7669
 30
0.0
  0
SPLINE
  5
113
100
AcDbEntity
  8
LC-003-005-----0
370
    20
100
AcDbSpline
210
0.0
220
0.0
230
1.0
 70
     0
 71
     3
 72
     8
 73
     4
 74
     0
 42
0.0000000001
 43
0.0000000001
 40
0.0
 40
0.0
 40
0.0
 40
0.0
 40
1.0
 40
1.0
 40
1.0
 40
1.0
 10
-58.099400000000003
 20
-33.9617
 30
0.0
 10
-58.099400000000003
 20
-33.9617
 30
0.0
 10
-57.976600000000005
 20
-33.838900000000002
 30
0.0
 10
-57.976600000000005
 20
-33.838900000000002
 30
0.0
  0
SPLINE
  5
114
100
AcDbEntity
  8
LC-003-005-----0
370
    20
100
AcDbSpline
210
0.0
220
0.0
230
1.0
 70
     0
 71
     3
 72
     8
 73
     4
 74
     0
 42
0.0000000001
 43
0.0000000001
 40
0.0
 40
0.0
 40
0.0
 40
0.0
 40
1.0
 40
1.0
 40
1.0
 40
1.0
 10
-60.415500000000002
 20
-3.9725000000000001
 30
0.0
 10
-60.415500000000002
 20
-3.9725000000000001
 30
0.0
 10
-60.131800000000005
 20
-4.2561999999999998
 30
0.0
 10
-60.131800000000005
 20
-4.2561999999999998
 30
0.0
  0
SPLINE
  5
115
100
AcDbEntity
  8
LC-003-005-----0
370
    20
100
AcDbSpline
210
0.0
220
0.0
230
1.0
 70
     0
 71
     3
 72
     8
 73
     4
 74
     0
 42
0.0000000001
 43
0.0000000001
 40
0.0
 40
0.0
 40
0.0
 40
0.0
 40
1.0
 40
1.0
 40
1.0
 40
1.0
 10
-59.2575
 20
-2.9469000000000003
 30
0.0
 10
-59.2575
 20
-2.9469000000000003
 30
0.0
 10
-58.099500000000006
 20
-4.1048999999999998
 30
0.0
 10
-58.099500000000006
 20
-4.1048999999999998
 30
0.0
  0
SPLINE
  5
116
100
AcDbEntity
  8
LC-003-005-----0
370
    20
100
AcDbSpline
210
0.0
220
0.0
230
1.0
 70
     0
 71
     3
 72
     8
 73
     4
 74
     0
 42
0.0000000001
 43
0.0000000001
 40
0.0
 40
0.0
 40
0.0
 40
0.0
 40
1.0
 40
1.0
 40
1.0
 40
1.0
 10
-58.628400000000006
 20
-1.3924000000000001
 30
0.0
 10
-58.628400000000006
 20
-1.3924000000000001
 30
0.0
 10
-57.598200000000006
 20
-2.4227000000000003
 30
0.0
 10
-57.598200000000006
 20
-2.4227000000000003
 30
0.0
  0
SPLINE
  5
117
100
AcDbEntity
  8
LC-003-005-----0
370
    20
100
AcDbSpline
210
0.0
220
0.0
230
1.0
 70
     0
 71
     3
 72
     8
 73
     4
 74
     0
 42
0.0000000001
 43
0.0000000001
 40
0.0
 40
0.0
 40
0.0
 40
0.0
 40
1.0
 40
1.0
 40
1.0
 40
1.0
 10
-56.572600000000001
 20
-1.2647000000000002
 30
0.0
 10
-56.572600000000001
 20
-1.2647000000000002
 30
0.0
 10
-55.4146
 20
-2.4227000000000003
 30
0.0
 10
-55.4146
 20
-2.4227000000000003
 30
0.0
  0
SPLINE
  5
118
100
AcDbEntity
  8
LC-003-005-----0
370
    20
100
AcDbSpline
210
0.0
220
0.0
230
1.0
 70
     0
 71
     3
 72
     8
 73
     4
 74
     0
 42
0.0000000001
 43
0.0000000001
 40
0.0
 40
0.0
 40
0.0
 40
0.0
 40
1.0
 40
1.0
 40
1.0
 40
1.0
 10
-55.011500000000005
 20
-2.8258000000000001
 30
0.0
 10
-55.011500000000005
 20
-2.8258000000000001
 30
0.0
 10
-53.581200000000003
 20
-4.2561999999999998
 30
0.0
 10
-53.581200000000003
 20
-4.2561999999999998
 30
0.0
  0
SPLINE
  5
119
100
AcDbEntity
  8
LC-003-005-----0
370
    20
100
AcDbSpline
210
0.0
220
0.0
230
1.0
 70
     0
 71
     3
 72
     8
 73
     4
 74
     0
 42
0.0000000001
 43
0.0000000001
 40
0.0
 40
0.0
 40
0.0
 40
0.0
 40
1.0
 40
1.0
 40
1.0
 40
1.0
 10
-52.555600000000005
 20
-3.0982000000000003
 30
0.0
 10
-52.555600000000005
 20
-3.0982000000000003
 30
0.0
 10
-51.397600000000004
 20
-4.2561999999999998
 30
0.0
 10
-51.397600000000004
 20
-4.2561999999999998
 30
0.0
  0
SPLINE
  5
11A
100
AcDbEntity
  8
LC-003-005-----0
370
    20
100
AcDbSpline
210
0.0
220
0.0
230
1.0
 70
     0
 71
     3
 72
     8
 73
     4
 74
     0
 42
0.0000000001
 43
0.0000000001
 40
0.0
 40
0.0
 40
0.0
 40
0.0
 40
1.0
 40
1.0
 40
1.0
 40
1.0
 10
-50.372
 20
-3.0982000000000003
 30
0.0
 10
-50.372
 20
-3.0982000000000003
 30
0.0
 10
-49.214000000000006
 20
-4.2561999999999998
 30
0.0
 10
-49.214000000000006
 20
-4.2561999999999998
 30
0.0
  0
SPLINE
  5
11B
100
AcDbEntity
  8
LC-003-005-----0
370
    20
100
AcDbSpline
210
0.0
220
0.0
230
1.0
 70
     0
 71
     3
 72
     8
 73
     4
 74
     0
 42
0.0000000001
 43
0.0000000001
 40
0.0
 40
0.0
 40
0.0
 40
0.0
 40
1.0
 40
1.0
 40
1.0
 40
1.0
 10
-48.188600000000001
 20
-3.0981000000000001
 30
0.0
 10
-48.188600000000001
 20
-3.0981000000000001
 30
0.0
 10
-47.0306
 20
-4.2561
 30
0.0
 10
-47.0306
 20
-4.2561
 30
0.0
  0
SPLINE
  5
11C
100
AcDbEntity
  8
LC-003-005-----0
370
    20
100
AcDbSpline
210
0.0
220
0.0
230
1.0
 70
     0
 71
     3
 72
     8
 73
     4
 74
     0
 42
0.0000000001
 43
0.0000000001
 40
0.0
 40
0.0
 40
0.0
 40
0.0
 40
1.0
 40
1.0
 40
1.0
 40
1.0
 10
-46.005000000000003
 20
-3.0981000000000001
 30
0.0
 10
-46.005000000000003
 20
-3.0981000000000001
 30
0.0
 10
-44.847000000000001
 20
-4.2561
 30
0.0
 10
-44.847000000000001
 20
-4.2561
 30
0.0
  0
SPLINE
  5
11D
100
AcDbEntity
  8
LC-003-005-----0
370
    20
100
AcDbSpline
210
0.0
220
0.0
230
1.0
 70
     0
 71
     3
 72
     8
 73
     4
 74
     0
 42
0.0000000001
 43
0.0000000001
 40
0.0
 40
0.0
 40
0.0
 40
0.0
 40
1.0
 40
1.0
 40
1.0
 40
1.0
 10
-43.821400000000004
 20
-3.0981000000000001
 30
0.0
 10
-43.821400000000004
 20
-3.0981000000000001
 30
0.0
 10
-42.663400000000003
 20
-4.2561
 30
0.0
 10
-42.663400000000003
 20
-4.2561
 30
0.0
  0
SPLINE
  5
11E
100
AcDbEntity
  8
LC-003-005-----0
370
    20
100
AcDbSpline
210
0.0
220
0.0
230
1.0
 70
     0
 71
     3
 72
     8
 73
     4
 74
     0
 42
0.0000000001
 43
0.0000000001
 40
0.0
 40
0.0
 40
0.0
 40
0.0
 40
1.0
 40
1.0
 40
1.0
 40
1.0
 10
-41.637900000000002
 20
-3.0981000000000001
 30
0.0
 10
-41.637900000000002
 20
-3.0981000000000001
 30
0.0
 10
-40.479900000000001
 20
-4.2561
 30
0.0
 10
-40.479900000000001
 20
-4.2561
 30
0.0
  0
SPLINE
  5
11F
100
AcDbEntity
  8
LC-003-005-----0
370
    20
100
AcDbSpline
210
0.0
220
0.0
230
1.0
 70
     0
 71
     3
 72
     8
 73
     4
 74
     0
 42
0.0000000001
 43
0.0000000001
 40
0.0
 40
0.0
 40
0.0
 40
0.0
 40
1.0
 40
1.0
 40
1.0
 40
1.0
 10
-39.4544
 20
-3.0981000000000001
 30
0.0
 10
-39.4544
 20
-3.0981000000000001
 30
0.0
 10
-38.212400000000002
 20
-4.3402000000000003
 30
0.0
 10
-38.212400000000002
 20
-4.3402000000000003
 30
0.0
  0
SPLINE
  5
120
100
AcDbEntity
  8
LC-003-005-----0
370
    20
100
AcDbSpline
210
0.0
220
0.0
230
1.0
 70
     0
 71
     3
 72
     8
 73
     4
 74
     0
 42
0.0000000001
 43
0.0000000001
 40
0.0
 40
0.0
 40
0.0
 40
0.0
 40
1.0
 40
1.0
 40
1.0
 40
1.0
 10
-36.889900000000004
 20
-3.4790000000000001
 30
0.0
 10
-36.889900000000004
 20
-3.4790000000000001
 30
0.0
 10
-35.336300000000001
 20
-5.0326000000000004
 30
0.0
 10
-35.336300000000001
 20
-5.0326000000000004
 30
0.0
  0
SPLINE
  5
121
100
AcDbEntity
  8
LC-003-005-----0
370
    20
100
AcDbSpline
210
0.0
220
0.0
230
1.0
 70
     0
 71
     3
 72
     8
 73
     4
 74
     0
 42
0.0000000001
 43
0.0000000001
 40
0.0
 40
0.0
 40
0.0
 40
0.0
 40
1.0
 40
1.0
 40
1.0
 40
1.0
 10
-34.122300000000003
 20
-4.0631000000000004
 30
0.0
 10
-34.122300000000003
 20
-4.0631000000000004
 30
0.0
 10
-32.964300000000001
 20
-5.2210999999999999
 30
0.0
 10
-32.964300000000001
 20
-5.2210999999999999
 30
0.0
  0
SPLINE
  5
122
100
AcDbEntity
  8
LC-003-005-----0
370
    20
100
AcDbSpline
210
0.0
220
0.0
230
1.0
 70
     0
 71
     3
 72
     8
 73
     4
 74
     0
 42
0.0000000001
 43
0.0000000001
 40
0.0
 40
0.0
 40
0.0
 40
0.0
 40
1.0
 40
1.0
 40
1.0
 40
1.0
 10
-31.938800000000001
 20
-4.0631000000000004
 30
0.0
 10
-31.938800000000001
 20
-4.0631000000000004
 30
0.0
 10
-30.780800000000003
 20
-5.2210999999999999
 30
0.0
 10
-30.780800000000003
 20
-5.2210999999999999
 30
0.0
  0
SPLINE
  5
123
100
AcDbEntity
  8
LC-003-005-----0
370
    20
100
AcDbSpline
210
0.0
220
0.0
230
1.0
 70
     0
 71
     3
 72
     8
 73
     4
 74
     0
 42
0.0000000001
 43
0.0000000001
 40
0.0
 40
0.0
 40
0.0
 40
0.0
 40
1.0
 40
1.0
 40
1.0
 40
1.0
 10
-29.755200000000002
 20
-4.0631000000000004
 30
0.0
 10
-29.755200000000002
 20
-4.0631000000000004
 30
0.0
 10
-28.597300000000001
 20
-5.2210999999999999
 30
0.0
 10
-28.597300000000001
 20
-5.2210999999999999
 30
0.0
  0
SPLINE
  5
124
100
AcDbEntity
  8
LC-003-005-----0
370
    20
100
AcDbSpline
210
0.0
220
0.0
230
1.0
 70
     0
 71
     3
 72
     8
 73
     4
 74
     0
 42
0.0000000001
 43
0.0000000001
 40
0.0
 40
0.0
 40
0.0
 40
0.0
 40
1.0
 40
1.0
 40
1.0
 40
1.0
 10
-28.1846
 20
-3.4502000000000002
 30
0.0
 10
-28.1846
 20
-3.4502000000000002
 30
0.0
 10
-26.846400000000003
 20
-4.7884000000000002
 30
0.0
 10
-26.846400000000003
 20
-4.7884000000000002
 30
0.0
  0
SPLINE
  5
125
100
AcDbEntity
  8
LC-003-005-----0
370
    20
100
AcDbSpline
210
0.0
220
0.0
230
1.0
 70
     0
 71
     3
 72
     8
 73
     4
 74
     0
 42
0.0000000001
 43
0.0000000001
 40
0.0
 40
0.0
 40
0.0
 40
0.0
 40
1.0
 40
1.0
 40
1.0
 40
1.0
 10
-28.1846
 20
-1.2666000000000002
 30
0.0
 10
-28.1846
 20
-1.2666000000000002
 30
0.0
 10
-26.846400000000003
 20
-2.6049000000000002
 30
0.0
 10
-26.846400000000003
 20
-2.6049000000000002
 30
0.0
  0
SPLINE
  5
126
100
AcDbEntity
  8
LC-003-005-----0
370
    20
100
AcDbSpline
210
0.0
220
0.0
230
1.0
 70
     0
 71
     3
 72
     8
 73
     4
 74
     0
 42
0.0000000001
 43
0.0000000001
 40
0.0
 40
0.0
 40
0.0
 40
0.0
 40
1.0
 40
1.0
 40
1.0
 40
1.0
 10
-27.493200000000002
 20
0.2254
 30
0.0
 10
-27.493200000000002
 20
0.2254
 30
0.0
 10
-26.591800000000003
 20
-0.6759000000000001
 30
0.0
 10
-26.591800000000003
 20
-0.6759000000000001
 30
0.0
  0
SPLINE
  5
127
100
AcDbEntity
  8
LC-003-005-----0
370
    20
100
AcDbSpline
210
0.0
220
0.0
230
1.0
 70
     0
 71
     3
 72
     8
 73
     4
 74
     0
 42
0.0000000001
 43
0.0000000001
 40
0.0
 40
0.0
 40
0.0
 40
0.0
 40
1.0
 40
1.0
 40
1.0
 40
1.0
 10
-25.566300000000002
 20
0.4821
 30
0.0
 10
-25.566300000000002
 20
0.4821
 30
0.0
 10
-24.408300000000001
 20
-0.6759000000000001
 30
0.0
 10
-24.408300000000001
 20
-0.6759000000000001
 30
0.0
  0
SPLINE
  5
128
100
AcDbEntity
  8
LC-003-005-----0
370
    20
100
AcDbSpline
210
0.0
220
0.0
230
1.0
 70
     0
 71
     3
 72
     8
 73
     4
 74
     0
 42
0.0000000001
 43
0.0000000001
 40
0.0
 40
0.0
 40
0.0
 40
0.0
 40
1.0
 40
1.0
 40
1.0
 40
1.0
 10
-23.3827
 20
0.4821
 30
0.0
 10
-23.3827
 20
0.4821
 30
0.0
 10
-22.224700000000002
 20
-0.6759000000000001
 30
0.0
 10
-22.224700000000002
 20
-0.6759000000000001
 30
0.0
  0
SPLINE
  5
129
100
AcDbEntity
  8
LC-003-005-----0
370
    20
100
AcDbSpline
210
0.0
220
0.0
230
1.0
 70
     0
 71
     3
 72
     8
 73
     4
 74
     0
 42
0.0000000001
 43
0.0000000001
 40
0.0
 40
0.0
 40
0.0
 40
0.0
 40
1.0
 40
1.0
 40
1.0
 40
1.0
 10
-21.199300000000001
 20
0.4821
 30
0.0
 10
-21.199300000000001
 20
0.4821
 30
0.0
 10
-20.0412
 20
-0.6759000000000001
 30
0.0
 10
-20.0412
 20
-0.6759000000000001
 30
0.0
  0
SPLINE
  5
12A
100
AcDbEntity
  8
LC-003-005-----0
370
    20
100
AcDbSpline
210
0.0
220
0.0
230
1.0
 70
     0
 71
     3
 72
     8
 73
     4
 74
     0
 42
0.0000000001
 43
0.0000000001
 40
0.0
 40
0.0
 40
0.0
 40
0.0
 40
1.0
 40
1.0
 40
1.0
 40
1.0
 10
-19.015700000000002
 20
0.4821
 30
0.0
 10
-19.015700000000002
 20
0.4821
 30
0.0
 10
-17.857700000000001
 20
-0.6759000000000001
 30
0.0
 10
-17.857700000000001
 20
-0.6759000000000001
 30
0.0
  0
SPLINE
  5
12B
100
AcDbEntity
  8
LC-003-005-----0
370
    20
100
AcDbSpline
210
0.0
220
0.0
230
1.0
 70
     0
 71
     3
 72
     8
 73
     4
 74
     0
 42
0.0000000001
 43
0.0000000001
 40
0.0
 40
0.0
 40
0.0
 40
0.0
 40
1.0
 40
1.0
 40
1.0
 40
1.0
 10
-16.832100000000001
 20
0.4821
 30
0.0
 10
-16.832100000000001
 20
0.4821
 30
0.0
 10
-15.674100000000001
 20
-0.6759000000000001
 30
0.0
 10
-15.674100000000001
 20
-0.6759000000000001
 30
0.0
  0
SPLINE
  5
12C
100
AcDbEntity
  8
LC-003-005-----0
370
    20
100
AcDbSpline
210
0.0
220
0.0
230
1.0
 70
     0
 71
     3
 72
     8
 73
     4
 74
     0
 42
0.0000000001
 43
0.0000000001
 40
0.0
 40
0.0
 40
0.0
 40
0.0
 40
1.0
 40
1.0
 40
1.0
 40
1.0
 10
-14.6487
 20
0.4821
 30
0.0
 10
-14.6487
 20
0.4821
 30
0.0
 10
-13.4907
 20
-0.6759000000000001
 30
0.0
 10
-13.4907
 20
-0.6759000000000001
 30
0.0
  0
SPLINE
  5
12D
100
AcDbEntity
  8
LC-003-005-----0
370
    20
100
AcDbSpline
210
0.0
220
0.0
230
1.0
 70
     0
 71
     3
 72
     8
 73
     4
 74
     0
 42
0.0000000001
 43
0.0000000001
 40
0.0
 40
0.0
 40
0.0
 40
0.0
 40
1.0
 40
1.0
 40
1.0
 40
1.0
 10
-12.465100000000001
 20
0.4821
 30
0.0
 10
-12.465100000000001
 20
0.4821
 30
0.0
 10
-11.3071
 20
-0.6759000000000001
 30
0.0
 10
-11.3071
 20
-0.6759000000000001
 30
0.0
  0
SPLINE
  5
12E
100
AcDbEntity
  8
LC-003-005-----0
370
    20
100
AcDbSpline
210
0.0
220
0.0
230
1.0
 70
     0
 71
     3
 72
     8
 73
     4
 74
     0
 42
0.0000000001
 43
0.0000000001
 40
0.0
 40
0.0
 40
0.0
 40
0.0
 40
1.0
 40
1.0
 40
1.0
 40
1.0
 10
-10.281500000000001
 20
0.4821
 30
0.0
 10
-10.281500000000001
 20
0.4821
 30
0.0
 10
-9.6567000000000007
 20
-0.1428
 30
0.0
 10
-9.6567000000000007
 20
-0.1428
 30
0.0
  0
SPLINE
  5
12F
100
AcDbEntity
  8
LC-003-005-----0
370
    20
100
AcDbSpline
210
0.0
220
0.0
230
1.0
 70
     0
 71
     3
 72
     8
 73
     4
 74
     0
 42
0.0000000001
 43
0.0000000001
 40
0.0
 40
0.0
 40
0.0
 40
0.0
 40
1.0
 40
1.0
 40
1.0
 40
1.0
 10
-59.567900000000002
 20
-33.2059
 30
0.0
 10
-59.567900000000002
 20
-33.2059
 30
0.0
 10
-58.099400000000003
 20
-34.674300000000002
 30
0.0
 10
-58.099400000000003
 20
-34.674300000000002
 30
0.0
  0
SPLINE
  5
130
100
AcDbEntity
  8
LC-003-005-----0
370
    20
100
AcDbSpline
210
0.0
220
0.0
230
1.0
 70
     0
 71
     3
 72
     8
 73
     4
 74
     0
 42
0.0000000001
 43
0.0000000001
 40
0.0
 40
0.0
 40
0.0
 40
0.0
 40
1.0
 40
1.0
 40
1.0
 40
1.0
 10
-57.734300000000005
 20
-35.039400000000001
 30
0.0
 10
-57.734300000000005
 20
-35.039400000000001
 30
0.0
 10
-56.576300000000003
 20
-36.197400000000002
 30
0.0
 10
-56.576300000000003
 20
-36.197400000000002
 30
0.0
  0
SPLINE
  5
131
100
AcDbEntity
  8
LC-003-005-----0
370
    20
100
AcDbSpline
210
0.0
220
0.0
230
1.0
 70
     0
 71
     3
 72
     8
 73
     4
 74
     0
 42
0.0000000001
 43
0.0000000001
 40
0.0
 40
0.0
 40
0.0
 40
0.0
 40
1.0
 40
1.0
 40
1.0
 40
1.0
 10
-55.550800000000002
 20
-35.039400000000001
 30
0.0
 10
-55.550800000000002
 20
-35.039400000000001
 30
0.0
 10
-54.508000000000003
 20
-36.082300000000004
 30
0.0
 10
-54.508000000000003
 20
-36.082300000000004
 30
0.0
  0
SPLINE
  5
132
100
AcDbEntity
  8
LC-003-005-----0
370
    20
100
AcDbSpline
210
0.0
220
0.0
230
1.0
 70
     0
 71
     3
 72
     8
 73
     4
 74
     0
 42
0.0000000001
 43
0.0000000001
 40
0.0
 40
0.0
 40
0.0
 40
0.0
 40
1.0
 40
1.0
 40
1.0
 40
1.0
 10
-55.011400000000002
 20
-33.395299999999999
 30
0.0
 10
-55.011400000000002
 20
-33.395299999999999
 30
0.0
 10
-53.853400000000001
 20
-34.5533
 30
0.0
 10
-53.853400000000001
 20
-34.5533
 30
0.0
  0
SPLINE
  5
133
100
AcDbEntity
  8
LC-003-005-----0
370
    20
100
AcDbSpline
210
0.0
220
0.0
230
1.0
 70
     0
 71
     3
 72
     8
 73
     4
 74
     0
 42
0.0000000001
 43
0.0000000001
 40
0.0
 40
0.0
 40
0.0
 40
0.0
 40
1.0
 40
1.0
 40
1.0
 40
1.0
 10
-53.017200000000003
 20
-33.2059
 30
0.0
 10
-53.017200000000003
 20
-33.2059
 30
0.0
 10
-51.859300000000005
 20
-34.363900000000001
 30
0.0
 10
-51.859300000000005
 20
-34.363900000000001
 30
0.0
  0
SPLINE
  5
134
100
AcDbEntity
  8
LC-003-005-----0
370
    20
100
AcDbSpline
210
0.0
220
0.0
230
1.0
 70
     0
 71
     3
 72
     8
 73
     4
 74
     0
 42
0.0000000001
 43
0.0000000001
 40
0.0
 40
0.0
 40
0.0
 40
0.0
 40
1.0
 40
1.0
 40
1.0
 40
1.0
 10
-50.833800000000004
 20
-33.2059
 30
0.0
 10
-50.833800000000004
 20
-33.2059
 30
0.0
 10
-49.675800000000002
 20
-34.363900000000001
 30
0.0
 10
-49.675800000000002
 20
-34.363900000000001
 30
0.0
  0
SPLINE
  5
135
100
AcDbEntity
  8
LC-003-005-----0
370
    20
100
AcDbSpline
210
0.0
220
0.0
230
1.0
 70
     0
 71
     3
 72
     8
 73
     4
 74
     0
 42
0.0000000001
 43
0.0000000001
 40
0.0
 40
0.0
 40
0.0
 40
0.0
 40
1.0
 40
1.0
 40
1.0
 40
1.0
 10
-48.650200000000005
 20
-33.2059
 30
0.0
 10
-48.650200000000005
 20
-33.2059
 30
0.0
 10
-47.492200000000004
 20
-34.363900000000001
 30
0.0
 10
-47.492200000000004
 20
-34.363900000000001
 30
0.0
  0
SPLINE
  5
136
100
AcDbEntity
  8
LC-003-005-----0
370
    20
100
AcDbSpline
210
0.0
220
0.0
230
1.0
 70
     0
 71
     3
 72
     8
 73
     4
 74
     0
 42
0.0000000001
 43
0.0000000001
 40
0.0
 40
0.0
 40
0.0
 40
0.0
 40
1.0
 40
1.0
 40
1.0
 40
1.0
 10
-46.4666
 20
-33.2059
 30
0.0
 10
-46.4666
 20
-33.2059
 30
0.0
 10
-45.308600000000006
 20
-34.363900000000001
 30
0.0
 10
-45.308600000000006
 20
-34.363900000000001
 30
0.0
  0
SPLINE
  5
137
100
AcDbEntity
  8
LC-003-005-----0
370
    20
100
AcDbSpline
210
0.0
220
0.0
230
1.0
 70
     0
 71
     3
 72
     8
 73
     4
 74
     0
 42
0.0000000001
 43
0.0000000001
 40
0.0
 40
0.0
 40
0.0
 40
0.0
 40
1.0
 40
1.0
 40
1.0
 40
1.0
 10
-44.283200000000001
 20
-33.2059
 30
0.0
 10
-44.283200000000001
 20
-33.2059
 30
0.0
 10
-43.1252
 20
-34.363900000000001
 30
0.0
 10
-43.1252
 20
-34.363900000000001
 30
0.0
  0
SPLINE
  5
138
100
AcDbEntity
  8
LC-003-005-----0
370
    20
100
AcDbSpline
210
0.0
220
0.0
230
1.0
 70
     0
 71
     3
 72
     8
 73
     4
 74
     0
 42
0.0000000001
 43
0.0000000001
 40
0.0
 40
0.0
 40
0.0
 40
0.0
 40
1.0
 40
1.0
 40
1.0
 40
1.0
 10
-42.099600000000002
 20
-33.2059
 30
0.0
 10
-42.099600000000002
 20
-33.2059
 30
0.0
 10
-40.941600000000001
 20
-34.363900000000001
 30
0.0
 10
-40.941600000000001
 20
-34.363900000000001
 30
0.0
  0
SPLINE
  5
139
100
AcDbEntity
  8
LC-003-005-----0
370
    20
100
AcDbSpline
210
0.0
220
0.0
230
1.0
 70
     0
 71
     3
 72
     8
 73
     4
 74
     0
 42
0.0000000001
 43
0.0000000001
 40
0.0
 40
0.0
 40
0.0
 40
0.0
 40
1.0
 40
1.0
 40
1.0
 40
1.0
 10
-39.916000000000004
 20
-33.2059
 30
0.0
 10
-39.916000000000004
 20
-33.2059
 30
0.0
 10
-38.758000000000003
 20
-34.363900000000001
 30
0.0
 10
-38.758000000000003
 20
-34.363900000000001
 30
0.0
  0
SPLINE
  5
13A
100
AcDbEntity
  8
LC-003-005-----0
370
    20
100
AcDbSpline
210
0.0
220
0.0
230
1.0
 70
     0
 71
     3
 72
     8
 73
     4
 74
     0
 42
0.0000000001
 43
0.0000000001
 40
0.0
 40
0.0
 40
0.0
 40
0.0
 40
1.0
 40
1.0
 40
1.0
 40
1.0
 10
-37.8934
 20
-33.045000000000002
 30
0.0
 10
-37.8934
 20
-33.045000000000002
 30
0.0
 10
-36.942399999999999
 20
-33.996099999999998
 30
0.0
 10
-36.942399999999999
 20
-33.996099999999998
 30
0.0
  0
SPLINE
  5
13B
100
AcDbEntity
  8
LC-003-005-----0
370
    20
100
AcDbSpline
210
0.0
220
0.0
230
1.0
 70
     0
 71
     3
 72
     8
 73
     4
 74
     0
 42
0.0000000001
 43
0.0000000001
 40
0.0
 40
0.0
 40
0.0
 40
0.0
 40
1.0
 40
1.0
 40
1.0
 40
1.0
 10
-36.133600000000001
 20
-32.621300000000005
 30
0.0
 10
-36.133600000000001
 20
-32.621300000000005
 30
0.0
 10
-35.195500000000003
 20
-33.559400000000004
 30
0.0
 10
-35.195500000000003
 20
-33.559400000000004
 30
0.0
  0
SPLINE
  5
13C
100
AcDbEntity
  8
LC-003-005-----0
370
    20
100
AcDbSpline
210
0.0
220
0.0
230
1.0
 70
     0
 71
     3
 72
     8
 73
     4
 74
     0
 42
0.0000000001
 43
0.0000000001
 40
0.0
 40
0.0
 40
0.0
 40
0.0
 40
1.0
 40
1.0
 40
1.0
 40
1.0
 10
-34.330400000000004
 20
-32.240900000000003
 30
0.0
 10
-34.330400000000004
 20
-32.240900000000003
 30
0.0
 10
-33.172400000000003
 20
-33.398900000000005
 30
0.0
 10
-33.172400000000003
 20
-33.398900000000005
 30
0.0
  0
SPLINE
  5
13D
100
AcDbEntity
  8
LC-003-005-----0
370
    20
100
AcDbSpline
210
0.0
220
0.0
230
1.0
 70
     0
 71
     3
 72
     8
 73
     4
 74
     0
 42
0.0000000001
 43
0.0000000001
 40
0.0
 40
0.0
 40
0.0
 40
0.0
 40
1.0
 40
1.0
 40
1.0
 40
1.0
 10
-32.146999999999998
 20
-32.240900000000003
 30
0.0
 10
-32.146999999999998
 20
-32.240900000000003
 30
0.0
 10
-30.989000000000001
 20
-33.398900000000005
 30
0.0
 10
-30.989000000000001
 20
-33.398900000000005
 30
0.0
  0
SPLINE
  5
13E
100
AcDbEntity
  8
LC-003-005-----0
370
    20
100
AcDbSpline
210
0.0
220
0.0
230
1.0
 70
     0
 71
     3
 72
     8
 73
     4
 74
     0
 42
0.0000000001
 43
0.0000000001
 40
0.0
 40
0.0
 40
0.0
 40
0.0
 40
1.0
 40
1.0
 40
1.0
 40
1.0
 10
-28.1845
 20
-36.203200000000002
 30
0.0
 10
-28.1845
 20
-36.203200000000002
 30
0.0
 10
-26.4438
 20
-37.944000000000003
 30
0.0
 10
-26.4438
 20
-37.944000000000003
 30
0.0
  0
SPLINE
  5
13F
100
AcDbEntity
  8
LC-003-005-----0
370
    20
100
AcDbSpline
210
0.0
220
0.0
230
1.0
 70
     0
 71
     3
 72
     8
 73
     4
 74
     0
 42
0.0000000001
 43
0.0000000001
 40
0.0
 40
0.0
 40
0.0
 40
0.0
 40
1.0
 40
1.0
 40
1.0
 40
1.0
 10
-29.9634
 20
-32.240900000000003
 30
0.0
 10
-29.9634
 20
-32.240900000000003
 30
0.0
 10
-28.805400000000002
 20
-33.398900000000005
 30
0.0
 10
-28.805400000000002
 20
-33.398900000000005
 30
0.0
  0
SPLINE
  5
140
100
AcDbEntity
  8
LC-003-005-----0
370
    20
100
AcDbSpline
210
0.0
220
0.0
230
1.0
 70
     0
 71
     3
 72
     8
 73
     4
 74
     0
 42
0.0000000001
 43
0.0000000001
 40
0.0
 40
0.0
 40
0.0
 40
0.0
 40
1.0
 40
1.0
 40
1.0
 40
1.0
 10
-28.1845
 20
-34.0197
 30
0.0
 10
-28.1845
 20
-34.0197
 30
0.0
 10
-26.846400000000003
 20
-35.357900000000001
 30
0.0
 10
-26.846400000000003
 20
-35.357900000000001
 30
0.0
  0
SPLINE
  5
141
100
AcDbEntity
  8
LC-003-005-----0
370
    20
100
AcDbSpline
210
0.0
220
0.0
230
1.0
 70
     0
 71
     3
 72
     8
 73
     4
 74
     0
 42
0.0000000001
 43
0.0000000001
 40
0.0
 40
0.0
 40
0.0
 40
0.0
 40
1.0
 40
1.0
 40
1.0
 40
1.0
 10
-25.418200000000002
 20
-36.785900000000005
 30
0.0
 10
-25.418200000000002
 20
-36.785900000000005
 30
0.0
 10
-24.260200000000001
 20
-37.943899999999999
 30
0.0
 10
-24.260200000000001
 20
-37.943899999999999
 30
0.0
  0
SPLINE
  5
142
100
AcDbEntity
  8
LC-003-005-----0
370
    20
100
AcDbSpline
210
0.0
220
0.0
230
1.0
 70
     0
 71
     3
 72
     8
 73
     4
 74
     0
 42
0.0000000001
 43
0.0000000001
 40
0.0
 40
0.0
 40
0.0
 40
0.0
 40
1.0
 40
1.0
 40
1.0
 40
1.0
 10
-27.779800000000002
 20
-32.240900000000003
 30
0.0
 10
-27.779800000000002
 20
-32.240900000000003
 30
0.0
 10
-26.846400000000003
 20
-33.174300000000002
 30
0.0
 10
-26.846400000000003
 20
-33.174300000000002
 30
0.0
  0
SPLINE
  5
143
100
AcDbEntity
  8
LC-003-005-----0
370
    20
100
AcDbSpline
210
0.0
220
0.0
230
1.0
 70
     0
 71
     3
 72
     8
 73
     4
 74
     0
 42
0.0000000001
 43
0.0000000001
 40
0.0
 40
0.0
 40
0.0
 40
0.0
 40
1.0
 40
1.0
 40
1.0
 40
1.0
 10
-23.2348
 20
-36.785900000000005
 30
0.0
 10
-23.2348
 20
-36.785900000000005
 30
0.0
 10
-22.076800000000002
 20
-37.943899999999999
 30
0.0
 10
-22.076800000000002
 20
-37.943899999999999
 30
0.0
  0
SPLINE
  5
144
100
AcDbEntity
  8
LC-003-005-----0
370
    20
100
AcDbSpline
210
0.0
220
0.0
230
1.0
 70
     0
 71
     3
 72
     8
 73
     4
 74
     0
 42
0.0000000001
 43
0.0000000001
 40
0.0
 40
0.0
 40
0.0
 40
0.0
 40
1.0
 40
1.0
 40
1.0
 40
1.0
 10
-21.051200000000001
 20
-36.785900000000005
 30
0.0
 10
-21.051200000000001
 20
-36.785900000000005
 30
0.0
 10
-19.8932
 20
-37.943899999999999
 30
0.0
 10
-19.8932
 20
-37.943899999999999
 30
0.0
  0
SPLINE
  5
145
100
AcDbEntity
  8
LC-003-005-----0
370
    20
100
AcDbSpline
210
0.0
220
0.0
230
1.0
 70
     0
 71
     3
 72
     8
 73
     4
 74
     0
 42
0.0000000001
 43
0.0000000001
 40
0.0
 40
0.0
 40
0.0
 40
0.0
 40
1.0
 40
1.0
 40
1.0
 40
1.0
 10
-18.867599999999999
 20
-36.785900000000005
 30
0.0
 10
-18.867599999999999
 20
-36.785900000000005
 30
0.0
 10
-17.709600000000002
 20
-37.943899999999999
 30
0.0
 10
-17.709600000000002
 20
-37.943899999999999
 30
0.0
  0
SPLINE
  5
146
100
AcDbEntity
  8
LC-003-005-----0
370
    20
100
AcDbSpline
210
0.0
220
0.0
230
1.0
 70
     0
 71
     3
 72
     8
 73
     4
 74
     0
 42
0.0000000001
 43
0.0000000001
 40
0.0
 40
0.0
 40
0.0
 40
0.0
 40
1.0
 40
1.0
 40
1.0
 40
1.0
 10
-16.684200000000001
 20
-36.785900000000005
 30
0.0
 10
-16.684200000000001
 20
-36.785900000000005
 30
0.0
 10
-15.526200000000001
 20
-37.943899999999999
 30
0.0
 10
-15.526200000000001
 20
-37.943899999999999
 30
0.0
  0
SPLINE
  5
147
100
AcDbEntity
  8
LC-003-005-----0
370
    20
100
AcDbSpline
210
0.0
220
0.0
230
1.0
 70
     0
 71
     3
 72
     8
 73
     4
 74
     0
 42
0.0000000001
 43
0.0000000001
 40
0.0
 40
0.0
 40
0.0
 40
0.0
 40
1.0
 40
1.0
 40
1.0
 40
1.0
 10
-14.5006
 20
-36.785900000000005
 30
0.0
 10
-14.5006
 20
-36.785900000000005
 30
0.0
 10
-13.342600000000001
 20
-37.943899999999999
 30
0.0
 10
-13.342600000000001
 20
-37.943899999999999
 30
0.0
  0
SPLINE
  5
148
100
AcDbEntity
  8
LC-003-005-----0
370
    20
100
AcDbSpline
210
0.0
220
0.0
230
1.0
 70
     0
 71
     3
 72
     8
 73
     4
 74
     0
 42
0.0000000001
 43
0.0000000001
 40
0.0
 40
0.0
 40
0.0
 40
0.0
 40
1.0
 40
1.0
 40
1.0
 40
1.0
 10
-12.317
 20
-36.785900000000005
 30
0.0
 10
-12.317
 20
-36.785900000000005
 30
0.0
 10
-11.159000000000001
 20
-37.943899999999999
 30
0.0
 10
-11.159000000000001
 20
-37.943899999999999
 30
0.0
  0
SPLINE
  5
149
100
AcDbEntity
  8
LC-003-005-----0
370
    20
100
AcDbSpline
210
0.0
220
0.0
230
1.0
 70
     0
 71
     3
 72
     8
 73
     4
 74
     0
 42
0.0000000001
 43
0.0000000001
 40
0.0
 40
0.0
 40
0.0
 40
0.0
 40
1.0
 40
1.0
 40
1.0
 40
1.0
 10
-10.133600000000001
 20
-36.785900000000005
 30
0.0
 10
-10.133600000000001
 20
-36.785900000000005
 30
0.0
 10
-9.656600000000001
 20
-37.262799999999999
 30
0.0
 10
-9.656600000000001
 20
-37.262799999999999
 30
0.0
  0
SPLINE
  5
14A
100
AcDbEntity
  8
LC-003-005-----0
370
    20
100
AcDbSpline
210
0.0
220
0.0
230
1.0
 70
     0
 71
     3
 72
     8
 73
     4
 74
     0
 42
0.0000000001
 43
0.0000000001
 40
0.0
 40
0.0
 40
0.0
 40
0.0
 40
1.0
 40
1.0
 40
1.0
 40
1.0
 10
-9.656600000000001
 20
-36.968600000000002
 30
0.0
 10
-9.656600000000001
 20
-36.968600000000002
 30
0.0
 10
-8.2097999999999995
 20
-35.521700000000003
 30
0.0
 10
-8.2097999999999995
 20
-35.521700000000003
 30
0.0
  0
SPLINE
  5
14B
100
AcDbEntity
  8
LC-003-005-----0
370
    20
100
AcDbSpline
210
0.0
220
0.0
230
1.0
 70
     0
 71
     3
 72
     8
 73
     4
 74
     0
 42
0.0000000001
 43
0.0000000001
 40
0.0
 40
0.0
 40
0.0
 40
0.0
 40
1.0
 40
1.0
 40
1.0
 40
1.0
 10
-10.4596
 20
-36.679700000000004
 30
0.0
 10
-10.4596
 20
-36.679700000000004
 30
0.0
 10
-9.3016000000000005
 20
-35.521700000000003
 30
0.0
 10
-9.3016000000000005
 20
-35.521700000000003
 30
0.0
  0
SPLINE
  5
14C
100
AcDbEntity
  8
LC-003-005-----0
370
    20
100
AcDbSpline
210
0.0
220
0.0
230
1.0
 70
     0
 71
     3
 72
     8
 73
     4
 74
     0
 42
0.0000000001
 43
0.0000000001
 40
0.0
 40
0.0
 40
0.0
 40
0.0
 40
1.0
 40
1.0
 40
1.0
 40
1.0
 10
-12.6431
 20
-36.679700000000004
 30
0.0
 10
-12.6431
 20
-36.679700000000004
 30
0.0
 10
-11.485100000000001
 20
-35.521700000000003
 30
0.0
 10
-11.485100000000001
 20
-35.521700000000003
 30
0.0
  0
SPLINE
  5
14D
100
AcDbEntity
  8
LC-003-005-----0
370
    20
100
AcDbSpline
210
0.0
220
0.0
230
1.0
 70
     0
 71
     3
 72
     8
 73
     4
 74
     0
 42
0.0000000001
 43
0.0000000001
 40
0.0
 40
0.0
 40
0.0
 40
0.0
 40
1.0
 40
1.0
 40
1.0
 40
1.0
 10
-13.735000000000001
 20
-36.679700000000004
 30
0.0
 10
-13.735000000000001
 20
-36.679700000000004
 30
0.0
 10
-12.027700000000001
 20
-34.9724
 30
0.0
 10
-12.027700000000001
 20
-34.9724
 30
0.0
  0
SPLINE
  5
14E
100
AcDbEntity
  8
LC-003-005-----0
370
    20
100
AcDbSpline
210
0.0
220
0.0
230
1.0
 70
     0
 71
     3
 72
     8
 73
     4
 74
     0
 42
0.0000000001
 43
0.0000000001
 40
0.0
 40
0.0
 40
0.0
 40
0.0
 40
1.0
 40
1.0
 40
1.0
 40
1.0
 10
-15.9184
 20
-36.6798
 30
0.0
 10
-15.9184
 20
-36.6798
 30
0.0
 10
-14.295200000000001
 20
-35.0565
 30
0.0
 10
-14.295200000000001
 20
-35.0565
 30
0.0
  0
SPLINE
  5
14F
100
AcDbEntity
  8
LC-003-005-----0
370
    20
100
AcDbSpline
210
0.0
220
0.0
230
1.0
 70
     0
 71
     3
 72
     8
 73
     4
 74
     0
 42
0.0000000001
 43
0.0000000001
 40
0.0
 40
0.0
 40
0.0
 40
0.0
 40
1.0
 40
1.0
 40
1.0
 40
1.0
 10
-17.010300000000001
 20
-36.6798
 30
0.0
 10
-17.010300000000001
 20
-36.6798
 30
0.0
 10
-15.852300000000001
 20
-35.521799999999999
 30
0.0
 10
-15.852300000000001
 20
-35.521799999999999
 30
0.0
  0
SPLINE
  5
150
100
AcDbEntity
  8
LC-003-005-----0
370
    20
100
AcDbSpline
210
0.0
220
0.0
230
1.0
 70
     0
 71
     3
 72
     8
 73
     4
 74
     0
 42
0.0000000001
 43
0.0000000001
 40
0.0
 40
0.0
 40
0.0
 40
0.0
 40
1.0
 40
1.0
 40
1.0
 40
1.0
 10
-15.060600000000001
 20
-34.7301
 30
0.0
 10
-15.060600000000001
 20
-34.7301
 30
0.0
 10
-14.7209
 20
-34.390300000000003
 30
0.0
 10
-14.7209
 20
-34.390300000000003
 30
0.0
  0
SPLINE
  5
151
100
AcDbEntity
  8
LC-003-005-----0
370
    20
100
AcDbSpline
210
0.0
220
0.0
230
1.0
 70
     0
 71
     3
 72
     8
 73
     4
 74
     0
 42
0.0000000001
 43
0.0000000001
 40
0.0
 40
0.0
 40
0.0
 40
0.0
 40
1.0
 40
1.0
 40
1.0
 40
1.0
 10
-19.1937
 20
-36.6798
 30
0.0
 10
-19.1937
 20
-36.6798
 30
0.0
 10
-18.035700000000002
 20
-35.521799999999999
 30
0.0
 10
-18.035700000000002
 20
-35.521799999999999
 30
0.0
  0
SPLINE
  5
152
100
AcDbEntity
  8
LC-003-005-----0
370
    20
100
AcDbSpline
210
0.0
220
0.0
230
1.0
 70
     0
 71
     3
 72
     8
 73
     4
 74
     0
 42
0.0000000001
 43
0.0000000001
 40
0.0
 40
0.0
 40
0.0
 40
0.0
 40
1.0
 40
1.0
 40
1.0
 40
1.0
 10
-17.3765
 20
-34.862500000000004
 30
0.0
 10
-17.3765
 20
-34.862500000000004
 30
0.0
 10
-16.964200000000002
 20
-34.450299999999999
 30
0.0
 10
-16.964200000000002
 20
-34.450299999999999
 30
0.0
  0
SPLINE
  5
153
100
AcDbEntity
  8
LC-003-005-----0
370
    20
100
AcDbSpline
210
0.0
220
0.0
230
1.0
 70
     0
 71
     3
 72
     8
 73
     4
 74
     0
 42
0.0000000001
 43
0.0000000001
 40
0.0
 40
0.0
 40
0.0
 40
0.0
 40
1.0
 40
1.0
 40
1.0
 40
1.0
 10
-20.285600000000002
 20
-36.6798
 30
0.0
 10
-20.285600000000002
 20
-36.6798
 30
0.0
 10
-18.830100000000002
 20
-35.224400000000003
 30
0.0
 10
-18.830100000000002
 20
-35.224400000000003
 30
0.0
  0
SPLINE
  5
154
100
AcDbEntity
  8
LC-003-005-----0
370
    20
100
AcDbSpline
210
0.0
220
0.0
230
1.0
 70
     0
 71
     3
 72
     8
 73
     4
 74
     0
 42
0.0000000001
 43
0.0000000001
 40
0.0
 40
0.0
 40
0.0
 40
0.0
 40
1.0
 40
1.0
 40
1.0
 40
1.0
 10
-22.469200000000001
 20
-36.6798
 30
0.0
 10
-22.469200000000001
 20
-36.6798
 30
0.0
 10
-21.0977
 20
-35.308399999999999
 30
0.0
 10
-21.0977
 20
-35.308399999999999
 30
0.0
  0
SPLINE
  5
155
100
AcDbEntity
  8
LC-003-005-----0
370
    20
100
AcDbSpline
210
0.0
220
0.0
230
1.0
 70
     0
 71
     3
 72
     8
 73
     4
 74
     0
 42
0.0000000001
 43
0.0000000001
 40
0.0
 40
0.0
 40
0.0
 40
0.0
 40
1.0
 40
1.0
 40
1.0
 40
1.0
 10
-23.5609
 20
-36.6798
 30
0.0
 10
-23.5609
 20
-36.6798
 30
0.0
 10
-22.402900000000002
 20
-35.521799999999999
 30
0.0
 10
-22.402900000000002
 20
-35.521799999999999
 30
0.0
  0
SPLINE
  5
156
100
AcDbEntity
  8
LC-003-005-----0
370
    20
100
AcDbSpline
210
0.0
220
0.0
230
1.0
 70
     0
 71
     3
 72
     8
 73
     4
 74
     0
 42
0.0000000001
 43
0.0000000001
 40
0.0
 40
0.0
 40
0.0
 40
0.0
 40
1.0
 40
1.0
 40
1.0
 40
1.0
 10
-22.008500000000002
 20
-35.127400000000002
 30
0.0
 10
-22.008500000000002
 20
-35.127400000000002
 30
0.0
 10
-21.497300000000003
 20
-34.616300000000003
 30
0.0
 10
-21.497300000000003
 20
-34.616300000000003
 30
0.0
  0
SPLINE
  5
157
100
AcDbEntity
  8
LC-003-005-----0
370
    20
100
AcDbSpline
210
0.0
220
0.0
230
1.0
 70
     0
 71
     3
 72
     8
 73
     4
 74
     0
 42
0.0000000001
 43
0.0000000001
 40
0.0
 40
0.0
 40
0.0
 40
0.0
 40
1.0
 40
1.0
 40
1.0
 40
1.0
 10
-25.5259
 20
-36.461300000000001
 30
0.0
 10
-25.5259
 20
-36.461300000000001
 30
0.0
 10
-24.309699999999999
 20
-35.245100000000001
 30
0.0
 10
-24.309699999999999
 20
-35.245100000000001
 30
0.0
  0
SPLINE
  5
158
100
AcDbEntity
  8
LC-003-005-----0
370
    20
100
AcDbSpline
210
0.0
220
0.0
230
1.0
 70
     0
 71
     3
 72
     8
 73
     4
 74
     0
 42
0.0000000001
 43
0.0000000001
 40
0.0
 40
0.0
 40
0.0
 40
0.0
 40
1.0
 40
1.0
 40
1.0
 40
1.0
 10
-26.386900000000001
 20
-36.230600000000003
 30
0.0
 10
-26.386900000000001
 20
-36.230600000000003
 30
0.0
 10
-24.906200000000002
 20
-34.749900000000004
 30
0.0
 10
-24.906200000000002
 20
-34.749900000000004
 30
0.0
  0
SPLINE
  5
159
100
AcDbEntity
  8
LC-003-005-----0
370
    20
100
AcDbSpline
210
0.0
220
0.0
230
1.0
 70
     0
 71
     3
 72
     8
 73
     4
 74
     0
 42
0.0000000001
 43
0.0000000001
 40
0.0
 40
0.0
 40
0.0
 40
0.0
 40
1.0
 40
1.0
 40
1.0
 40
1.0
 10
-8.4728000000000012
 20
-1.9400000000000002
 30
0.0
 10
-8.4728000000000012
 20
-1.9400000000000002
 30
0.0
 10
-8.1128
 20
-1.5800000000000001
 30
0.0
 10
-8.1128
 20
-1.5800000000000001
 30
0.0
  0
SPLINE
  5
15A
100
AcDbEntity
  8
LC-003-005-----0
370
    20
100
AcDbSpline
210
0.0
220
0.0
230
1.0
 70
     0
 71
     3
 72
     8
 73
     4
 74
     0
 42
0.0000000001
 43
0.0000000001
 40
0.0
 40
0.0
 40
0.0
 40
0.0
 40
1.0
 40
1.0
 40
1.0
 40
1.0
 10
-10.6564
 20
-1.9400000000000002
 30
0.0
 10
-10.6564
 20
-1.9400000000000002
 30
0.0
 10
-8.6302000000000003
 20
0.0861
 30
0.0
 10
-8.6302000000000003
 20
0.0861
 30
0.0
  0
SPLINE
  5
15B
100
AcDbEntity
  8
LC-003-005-----0
370
    20
100
AcDbSpline
210
0.0
220
0.0
230
1.0
 70
     0
 71
     3
 72
     8
 73
     4
 74
     0
 42
0.0000000001
 43
0.0000000001
 40
0.0
 40
0.0
 40
0.0
 40
0.0
 40
1.0
 40
1.0
 40
1.0
 40
1.0
 10
-12.7363
 20
-2.9282000000000004
 30
0.0
 10
-12.7363
 20
-2.9282000000000004
 30
0.0
 10
-10.5901
 20
-0.782
 30
0.0
 10
-10.5901
 20
-0.782
 30
0.0
  0
SPLINE
  5
15C
100
AcDbEntity
  8
LC-003-005-----0
370
    20
100
AcDbSpline
210
0.0
220
0.0
230
1.0
 70
     0
 71
     3
 72
     8
 73
     4
 74
     0
 42
0.0000000001
 43
0.0000000001
 40
0.0
 40
0.0
 40
0.0
 40
0.0
 40
1.0
 40
1.0
 40
1.0
 40
1.0
 10
-9.6567000000000007
 20
0.1513
 30
0.0
 10
-9.6567000000000007
 20
0.1513
 30
0.0
 10
-9.5286000000000008
 20
0.2794
 30
0.0
 10
-9.5286000000000008
 20
0.2794
 30
0.0
  0
SPLINE
  5
15D
100
AcDbEntity
  8
LC-003-005-----0
370
    20
100
AcDbSpline
210
0.0
220
0.0
230
1.0
 70
     0
 71
     3
 72
     8
 73
     4
 74
     0
 42
0.0000000001
 43
0.0000000001
 40
0.0
 40
0.0
 40
0.0
 40
0.0
 40
1.0
 40
1.0
 40
1.0
 40
1.0
 10
-15.0067
 20
-3.0151000000000003
 30
0.0
 10
-15.0067
 20
-3.0151000000000003
 30
0.0
 10
-14.1563
 20
-2.1647000000000003
 30
0.0
 10
-14.1563
 20
-2.1647000000000003
 30
0.0
  0
SPLINE
  5
15E
100
AcDbEntity
  8
LC-003-005-----0
370
    20
100
AcDbSpline
210
0.0
220
0.0
230
1.0
 70
     0
 71
     3
 72
     8
 73
     4
 74
     0
 42
0.0000000001
 43
0.0000000001
 40
0.0
 40
0.0
 40
0.0
 40
0.0
 40
1.0
 40
1.0
 40
1.0
 40
1.0
 10
-13.931700000000001
 20
-1.9400000000000002
 30
0.0
 10
-13.931700000000001
 20
-1.9400000000000002
 30
0.0
 10
-12.7737
 20
-0.782
 30
0.0
 10
-12.7737
 20
-0.782
 30
0.0
  0
SPLINE
  5
15F
100
AcDbEntity
  8
LC-003-005-----0
370
    20
100
AcDbSpline
210
0.0
220
0.0
230
1.0
 70
     0
 71
     3
 72
     8
 73
     4
 74
     0
 42
0.0000000001
 43
0.0000000001
 40
0.0
 40
0.0
 40
0.0
 40
0.0
 40
1.0
 40
1.0
 40
1.0
 40
1.0
 10
-15.060600000000001
 20
-1.9772000000000001
 30
0.0
 10
-15.060600000000001
 20
-1.9772000000000001
 30
0.0
 10
-13.865400000000001
 20
-0.782
 30
0.0
 10
-13.865400000000001
 20
-0.782
 30
0.0
  0
SPLINE
  5
160
100
AcDbEntity
  8
LC-003-005-----0
370
    20
100
AcDbSpline
210
0.0
220
0.0
230
1.0
 70
     0
 71
     3
 72
     8
 73
     4
 74
     0
 42
0.0000000001
 43
0.0000000001
 40
0.0
 40
0.0
 40
0.0
 40
0.0
 40
1.0
 40
1.0
 40
1.0
 40
1.0
 10
-17.3765
 20
-2.1097000000000001
 30
0.0
 10
-17.3765
 20
-2.1097000000000001
 30
0.0
 10
-16.048999999999999
 20
-0.7821
 30
0.0
 10
-16.048999999999999
 20
-0.7821
 30
0.0
  0
SPLINE
  5
161
100
AcDbEntity
  8
LC-003-005-----0
370
    20
100
AcDbSpline
210
0.0
220
0.0
230
1.0
 70
     0
 71
     3
 72
     8
 73
     4
 74
     0
 42
0.0000000001
 43
0.0000000001
 40
0.0
 40
0.0
 40
0.0
 40
0.0
 40
1.0
 40
1.0
 40
1.0
 40
1.0
 10
-19.456900000000001
 20
-3.0982000000000003
 30
0.0
 10
-19.456900000000001
 20
-3.0982000000000003
 30
0.0
 10
-19.150100000000002
 20
-2.7914000000000003
 30
0.0
 10
-19.150100000000002
 20
-2.7914000000000003
 30
0.0
  0
SPLINE
  5
162
100
AcDbEntity
  8
LC-003-005-----0
370
    20
100
AcDbSpline
210
0.0
220
0.0
230
1.0
 70
     0
 71
     3
 72
     8
 73
     4
 74
     0
 42
0.0000000001
 43
0.0000000001
 40
0.0
 40
0.0
 40
0.0
 40
0.0
 40
1.0
 40
1.0
 40
1.0
 40
1.0
 10
-18.2987
 20
-1.9401000000000002
 30
0.0
 10
-18.2987
 20
-1.9401000000000002
 30
0.0
 10
-17.140700000000002
 20
-0.7821
 30
0.0
 10
-17.140700000000002
 20
-0.7821
 30
0.0
  0
SPLINE
  5
163
100
AcDbEntity
  8
LC-003-005-----0
370
    20
100
AcDbSpline
210
0.0
220
0.0
230
1.0
 70
     0
 71
     3
 72
     8
 73
     4
 74
     0
 42
0.0000000001
 43
0.0000000001
 40
0.0
 40
0.0
 40
0.0
 40
0.0
 40
1.0
 40
1.0
 40
1.0
 40
1.0
 10
-20.482300000000002
 20
-1.9401000000000002
 30
0.0
 10
-20.482300000000002
 20
-1.9401000000000002
 30
0.0
 10
-19.324300000000001
 20
-0.7821
 30
0.0
 10
-19.324300000000001
 20
-0.7821
 30
0.0
  0
SPLINE
  5
164
100
AcDbEntity
  8
LC-003-005-----0
370
    20
100
AcDbSpline
210
0.0
220
0.0
230
1.0
 70
     0
 71
     3
 72
     8
 73
     4
 74
     0
 42
0.0000000001
 43
0.0000000001
 40
0.0
 40
0.0
 40
0.0
 40
0.0
 40
1.0
 40
1.0
 40
1.0
 40
1.0
 10
-22.008500000000002
 20
-2.3746
 30
0.0
 10
-22.008500000000002
 20
-2.3746
 30
0.0
 10
-20.416
 20
-0.7821
 30
0.0
 10
-20.416
 20
-0.7821
 30
0.0
  0
SPLINE
  5
165
100
AcDbEntity
  8
LC-003-005-----0
370
    20
100
AcDbSpline
210
0.0
220
0.0
230
1.0
 70
     0
 71
     3
 72
     8
 73
     4
 74
     0
 42
0.0000000001
 43
0.0000000001
 40
0.0
 40
0.0
 40
0.0
 40
0.0
 40
1.0
 40
1.0
 40
1.0
 40
1.0
 10
-23.7576
 20
-1.9401000000000002
 30
0.0
 10
-23.7576
 20
-1.9401000000000002
 30
0.0
 10
-22.599600000000002
 20
-0.7821
 30
0.0
 10
-22.599600000000002
 20
-0.7821
 30
0.0
  0
SPLINE
  5
166
100
AcDbEntity
  8
LC-003-005-----0
370
    20
100
AcDbSpline
210
0.0
220
0.0
230
1.0
 70
     0
 71
     3
 72
     8
 73
     4
 74
     0
 42
0.0000000001
 43
0.0000000001
 40
0.0
 40
0.0
 40
0.0
 40
0.0
 40
1.0
 40
1.0
 40
1.0
 40
1.0
 10
-25.621300000000002
 20
-2.7121
 30
0.0
 10
-25.621300000000002
 20
-2.7121
 30
0.0
 10
-23.691300000000002
 20
-0.7821
 30
0.0
 10
-23.691300000000002
 20
-0.7821
 30
0.0
  0
SPLINE
  5
167
100
AcDbEntity
  8
LC-003-005-----0
370
    20
100
AcDbSpline
210
0.0
220
0.0
230
1.0
 70
     0
 71
     3
 72
     8
 73
     4
 74
     0
 42
0.0000000001
 43
0.0000000001
 40
0.0
 40
0.0
 40
0.0
 40
0.0
 40
1.0
 40
1.0
 40
1.0
 40
1.0
 10
-26.640500000000003
 20
-1.5477000000000001
 30
0.0
 10
-26.640500000000003
 20
-1.5477000000000001
 30
0.0
 10
-26.301200000000001
 20
-1.2083000000000002
 30
0.0
 10
-26.301200000000001
 20
-1.2083000000000002
 30
0.0
  0
SPLINE
  5
169
100
AcDbEntity
  8
LC-004-002-RND-0
370
    35
100
AcDbSpline
210
0.0
220
0.0
230
1.0
 70
     0
 71
     3
 72
    12
 73
     8
 74
     0
 42
0.0000000001
 43
0.0000000001
 40
0.0
 40
0.0
 40
0.0
 40
0.0
 40
0.5
 40
0.5
 40
0.5
 40
0.5
 40
1.0
 40
1.0
 40
1.0
 40
1.0
 10
-56.293400000000005
 20
-4.2048000000000005
 30
0.0
 10
-56.224299999999999
 20
-4.2286999999999999
 30
0.0
 10
-56.147600000000004
 20
-4.2115
 30
0.0
 10
-56.095400000000005
 20
-4.1604000000000001
 30
0.0
 10
-56.095400000000005
 20
-4.1604000000000001
 30
0.0
 10
-56.043100000000003
 20
-4.1093000000000002
 30
0.0
 10
-56.0242
 20
-4.0330000000000004
 30
0.0
 10
-56.046600000000005
 20
-3.9634
 30
0.0
  0
SPLINE
  5
16A
100
AcDbEntity
  8
LC-004-002-RND-0
370
    35
100
AcDbSpline
210
0.0
220
0.0
230
1.0
 70
     0
 71
     3
 72
    12
 73
     8
 74
     0
 42
0.0000000001
 43
0.0000000001
 40
0.0
 40
0.0
 40
0.0
 40
0.0
 40
0.5
 40
0.5
 40
0.5
 40
0.5
 40
1.0
 40
1.0
 40
1.0
 40
1.0
 10
-56.046500000000002
 20
-33.498699999999999
 30
0.0
 10
-56.024100000000004
 20
-33.429000000000002
 30
0.0
 10
-56.042999999999999
 20
-33.352800000000002
 30
0.0
 10
-56.095300000000002
 20
-33.301700000000004
 30
0.0
 10
-56.095300000000002
 20
-33.301700000000004
 30
0.0
 10
-56.147600000000004
 20
-33.250500000000002
 30
0.0
 10
-56.224200000000003
 20
-33.233400000000003
 30
0.0
 10
-56.293200000000006
 20
-33.257300000000001
 30
0.0
  0
SPLINE
  5
16B
100
AcDbEntity
  8
LC-004-002-RND-0
370
    35
100
AcDbSpline
210
0.0
220
0.0
230
1.0
 70
     0
 71
     3
 72
    12
 73
     8
 74
     0
 42
0.0000000001
 43
0.0000000001
 40
0.0
 40
0.0
 40
0.0
 40
0.0
 40
0.5
 40
0.5
 40
0.5
 40
0.5
 40
1.0
 40
1.0
 40
1.0
 40
1.0
 10
-14.628400000000001
 20
-34.479300000000002
 30
0.0
 10
-14.6807
 20
-34.388600000000004
 30
0.0
 10
-14.787600000000001
 20
-34.3444
 30
0.0
 10
-14.888900000000001
 20
-34.371500000000005
 30
0.0
 10
-14.888900000000001
 20
-34.371500000000005
 30
0.0
 10
-14.9901
 20
-34.398600000000002
 30
0.0
 10
-15.060600000000001
 20
-34.490400000000001
 30
0.0
 10
-15.060600000000001
 20
-34.595100000000002
 30
0.0
  0
SPLINE
  5
16C
100
AcDbEntity
  8
LC-004-002-RND-0
370
    35
100
AcDbSpline
210
0.0
220
0.0
230
1.0
 70
     0
 71
     3
 72
    12
 73
     8
 74
     0
 42
0.0000000001
 43
0.0000000001
 40
0.0
 40
0.0
 40
0.0
 40
0.0
 40
0.5
 40
0.5
 40
0.5
 40
0.5
 40
1.0
 40
1.0
 40
1.0
 40
1.0
 10
-16.944400000000002
 20
-34.479300000000002
 30
0.0
 10
-16.996700000000001
 20
-34.388600000000004
 30
0.0
 10
-17.1036
 20
-34.3444
 30
0.0
 10
-17.204900000000002
 20
-34.371500000000005
 30
0.0
 10
-17.204900000000002
 20
-34.371500000000005
 30
0.0
 10
-17.306100000000001
 20
-34.398600000000002
 30
0.0
 10
-17.3765
 20
-34.490400000000001
 30
0.0
 10
-17.3765
 20
-34.595100000000002
 30
0.0
  0
SPLINE
  5
16D
100
AcDbEntity
  8
LC-004-002-RND-0
370
    35
100
AcDbSpline
210
0.0
220
0.0
230
1.0
 70
     0
 71
     3
 72
    12
 73
     8
 74
     0
 42
0.0000000001
 43
0.0000000001
 40
0.0
 40
0.0
 40
0.0
 40
0.0
 40
0.5
 40
0.5
 40
0.5
 40
0.5
 40
1.0
 40
1.0
 40
1.0
 40
1.0
 10
-19.260300000000001
 20
-34.479399999999998
 30
0.0
 10
-19.3127
 20
-34.388600000000004
 30
0.0
 10
-19.419600000000003
 20
-34.3444
 30
0.0
 10
-19.520900000000001
 20
-34.371500000000005
 30
0.0
 10
-19.520900000000001
 20
-34.371500000000005
 30
0.0
 10
-19.6221
 20
-34.398700000000005
 30
0.0
 10
-19.692500000000003
 20
-34.490400000000001
 30
0.0
 10
-19.692500000000003
 20
-34.595100000000002
 30
0.0
  0
SPLINE
  5
16E
100
AcDbEntity
  8
LC-004-002-RND-0
370
    35
100
AcDbSpline
210
0.0
220
0.0
230
1.0
 70
     0
 71
     3
 72
    12
 73
     8
 74
     0
 42
0.0000000001
 43
0.0000000001
 40
0.0
 40
0.0
 40
0.0
 40
0.0
 40
0.5
 40
0.5
 40
0.5
 40
0.5
 40
1.0
 40
1.0
 40
1.0
 40
1.0
 10
-15.060600000000001
 20
-2.8667000000000002
 30
0.0
 10
-15.060600000000001
 20
-2.9715000000000003
 30
0.0
 10
-14.990200000000002
 20
-3.0633000000000004
 30
0.0
 10
-14.888900000000001
 20
-3.0903
 30
0.0
 10
-14.888900000000001
 20
-3.0903
 30
0.0
 10
-14.787700000000001
 20
-3.1175000000000002
 30
0.0
 10
-14.680800000000001
 20
-3.0733000000000001
 30
0.0
 10
-14.628500000000001
 20
-2.9824999999999999
 30
0.0
  0
SPLINE
  5
16F
100
AcDbEntity
  8
LC-004-002-RND-0
370
    35
100
AcDbSpline
210
0.0
220
0.0
230
1.0
 70
     0
 71
     3
 72
    12
 73
     8
 74
     0
 42
0.0000000001
 43
0.0000000001
 40
0.0
 40
0.0
 40
0.0
 40
0.0
 40
0.5
 40
0.5
 40
0.5
 40
0.5
 40
1.0
 40
1.0
 40
1.0
 40
1.0
 10
-17.3765
 20
-2.8667000000000002
 30
0.0
 10
-17.3765
 20
-2.9715000000000003
 30
0.0
 10
-17.3062
 20
-3.0633000000000004
 30
0.0
 10
-17.204900000000002
 20
-3.0903
 30
0.0
 10
-17.204900000000002
 20
-3.0903
 30
0.0
 10
-17.1037
 20
-3.1175000000000002
 30
0.0
 10
-16.9968
 20
-3.0733000000000001
 30
0.0
 10
-16.944500000000001
 20
-2.9824999999999999
 30
0.0
  0
SPLINE
  5
170
100
AcDbEntity
  8
LC-004-002-RND-0
370
    35
100
AcDbSpline
210
0.0
220
0.0
230
1.0
 70
     0
 71
     3
 72
    12
 73
     8
 74
     0
 42
0.0000000001
 43
0.0000000001
 40
0.0
 40
0.0
 40
0.0
 40
0.0
 40
0.5
 40
0.5
 40
0.5
 40
0.5
 40
1.0
 40
1.0
 40
1.0
 40
1.0
 10
-19.692500000000003
 20
-2.8667000000000002
 30
0.0
 10
-19.692500000000003
 20
-2.9715000000000003
 30
0.0
 10
-19.622199999999999
 20
-3.0633000000000004
 30
0.0
 10
-19.520900000000001
 20
-3.0903
 30
0.0
 10
-19.520900000000001
 20
-3.0903
 30
0.0
 10
-19.419700000000002
 20
-3.1175000000000002
 30
0.0
 10
-19.312799999999999
 20
-3.0733000000000001
 30
0.0
 10
-19.2605
 20
-2.9824999999999999
 30
0.0
  0
SPLINE
  5
171
100
AcDbEntity
  8
LC-004-002-RND-0
370
    35
100
AcDbSpline
210
0.0
220
0.0
230
1.0
 70
     0
 71
     3
 72
    12
 73
     8
 74
     0
 42
0.0000000001
 43
0.0000000001
 40
0.0
 40
0.0
 40
0.0
 40
0.0
 40
0.5
 40
0.5
 40
0.5
 40
0.5
 40
1.0
 40
1.0
 40
1.0
 40
1.0
 10
-9.2706
 20
-37.741300000000003
 30
0.0
 10
-8.9634999999999998
 20
-37.741300000000003
 30
0.0
 10
-8.6689000000000007
 20
-37.619300000000003
 30
0.0
 10
-8.4518000000000004
 20
-37.402100000000004
 30
0.0
 10
-8.4518000000000004
 20
-37.402100000000004
 30
0.0
 10
-8.2347000000000001
 20
-37.184899999999999
 30
0.0
 10
-8.1127000000000002
 20
-36.8904
 30
0.0
 10
-8.1127000000000002
 20
-36.583300000000001
 30
0.0
  0
SPLINE
  5
172
100
AcDbEntity
  8
LC-004-002-RND-0
370
    35
100
AcDbSpline
210
0.0
220
0.0
230
1.0
 70
     0
 71
     3
 72
    12
 73
     8
 74
     0
 42
0.0000000001
 43
0.0000000001
 40
0.0
 40
0.0
 40
0.0
 40
0.0
 40
0.5
 40
0.5
 40
0.5
 40
0.5
 40
1.0
 40
1.0
 40
1.0
 40
1.0
 10
-12.3124
 20
-34.479300000000002
 30
0.0
 10
-12.364700000000001
 20
-34.388600000000004
 30
0.0
 10
-12.4716
 20
-34.3444
 30
0.0
 10
-12.572900000000001
 20
-34.371500000000005
 30
0.0
 10
-12.572900000000001
 20
-34.371500000000005
 30
0.0
 10
-12.674100000000001
 20
-34.398600000000002
 30
0.0
 10
-12.7446
 20
-34.490400000000001
 30
0.0
 10
-12.7446
 20
-34.595100000000002
 30
0.0
  0
SPLINE
  5
173
100
AcDbEntity
  8
LC-004-002-RND-0
370
    35
100
AcDbSpline
210
0.0
220
0.0
230
1.0
 70
     0
 71
     3
 72
    12
 73
     8
 74
     0
 42
0.0000000001
 43
0.0000000001
 40
0.0
 40
0.0
 40
0.0
 40
0.0
 40
0.5
 40
0.5
 40
0.5
 40
0.5
 40
1.0
 40
1.0
 40
1.0
 40
1.0
 10
-21.5763
 20
-34.479300000000002
 30
0.0
 10
-21.628700000000002
 20
-34.388600000000004
 30
0.0
 10
-21.735600000000002
 20
-34.3444
 30
0.0
 10
-21.8369
 20
-34.371500000000005
 30
0.0
 10
-21.8369
 20
-34.371500000000005
 30
0.0
 10
-21.938100000000002
 20
-34.398600000000002
 30
0.0
 10
-22.008500000000002
 20
-34.490400000000001
 30
0.0
 10
-22.008500000000002
 20
-34.595100000000002
 30
0.0
  0
SPLINE
  5
174
100
AcDbEntity
  8
LC-004-002-RND-0
370
    35
100
AcDbSpline
210
0.0
220
0.0
230
1.0
 70
     0
 71
     3
 72
    12
 73
     8
 74
     0
 42
0.0000000001
 43
0.0000000001
 40
0.0
 40
0.0
 40
0.0
 40
0.0
 40
0.5
 40
0.5
 40
0.5
 40
0.5
 40
1.0
 40
1.0
 40
1.0
 40
1.0
 10
-12.7446
 20
-2.8667000000000002
 30
0.0
 10
-12.7446
 20
-2.9715000000000003
 30
0.0
 10
-12.674200000000001
 20
-3.0633000000000004
 30
0.0
 10
-12.572900000000001
 20
-3.0903
 30
0.0
 10
-12.572900000000001
 20
-3.0903
 30
0.0
 10
-12.4717
 20
-3.1175000000000002
 30
0.0
 10
-12.364800000000001
 20
-3.0733000000000001
 30
0.0
 10
-12.3124
 20
-2.9824999999999999
 30
0.0
  0
SPLINE
  5
175
100
AcDbEntity
  8
LC-004-002-RND-0
370
    35
100
AcDbSpline
210
0.0
220
0.0
230
1.0
 70
     0
 71
     3
 72
    12
 73
     8
 74
     0
 42
0.0000000001
 43
0.0000000001
 40
0.0
 40
0.0
 40
0.0
 40
0.0
 40
0.5
 40
0.5
 40
0.5
 40
0.5
 40
1.0
 40
1.0
 40
1.0
 40
1.0
 10
-22.008500000000002
 20
-2.8667000000000002
 30
0.0
 10
-22.008500000000002
 20
-2.9715000000000003
 30
0.0
 10
-21.938200000000002
 20
-3.0633000000000004
 30
0.0
 10
-21.8369
 20
-3.0904000000000003
 30
0.0
 10
-21.8369
 20
-3.0904000000000003
 30
0.0
 10
-21.735700000000001
 20
-3.1175000000000002
 30
0.0
 10
-21.628800000000002
 20
-3.0733000000000001
 30
0.0
 10
-21.576499999999999
 20
-2.9824999999999999
 30
0.0
  0
SPLINE
  5
176
100
AcDbEntity
  8
LC-004-002-RND-0
370
    35
100
AcDbSpline
210
0.0
220
0.0
230
1.0
 70
     0
 71
     3
 72
     8
 73
     4
 74
     0
 42
0.0000000001
 43
0.0000000001
 40
0.0
 40
0.0
 40
0.0
 40
0.0
 40
1.0
 40
1.0
 40
1.0
 40
1.0
 10
-8.1128
 20
-0.8786000000000001
 30
0.0
 10
-8.1128
 20
-0.239
 30
0.0
 10
-8.6311999999999998
 20
0.2794
 30
0.0
 10
-9.2706999999999997
 20
0.2794
 30
0.0
  0
SPLINE
  5
178
100
AcDbEntity
  8
LC-005-007-KH--0
370
    35
100
AcDbSpline
210
0.0
220
0.0
230
1.0
 70
     0
 71
     3
 72
     8
 73
     4
 74
     0
 42
0.0000000001
 43
0.0000000001
 40
0.0
 40
0.0
 40
0.0
 40
0.0
 40
1.0
 40
1.0
 40
1.0
 40
1.0
 10
-12.744400000000001
 20
-34.595400000000005
 30
0.0
 10
-12.744400000000001
 20
-34.595400000000005
 30
0.0
 10
-12.7478
 20
-34.595400000000005
 30
0.0
 10
-12.7478
 20
-34.595400000000005
 30
0.0
  0
SPLINE
  5
179
100
AcDbEntity
  8
LC-005-007-KH--0
370
    35
100
AcDbSpline
210
0.0
220
0.0
230
1.0
 70
     0
 71
     3
 72
     8
 73
     4
 74
     0
 42
0.0000000001
 43
0.0000000001
 40
0.0
 40
0.0
 40
0.0
 40
0.0
 40
1.0
 40
1.0
 40
1.0
 40
1.0
 10
-12.744400000000001
 20
-2.8665000000000003
 30
0.0
 10
-12.744400000000001
 20
-2.8665000000000003
 30
0.0
 10
-12.747900000000001
 20
-2.8665000000000003
 30
0.0
 10
-12.747900000000001
 20
-2.8665000000000003
 30
0.0
  0
SPLINE
  5
17A
100
AcDbEntity
  8
LC-005-007-KH--0
370
    35
100
AcDbSpline
210
0.0
220
0.0
230
1.0
 70
     0
 71
     3
 72
     8
 73
     4
 74
     0
 42
0.0000000001
 43
0.0000000001
 40
0.0
 40
0.0
 40
0.0
 40
0.0
 40
1.0
 40
1.0
 40
1.0
 40
1.0
 10
-12.744400000000001
 20
-2.8665000000000003
 30
0.0
 10
-12.744400000000001
 20
-2.8665000000000003
 30
0.0
 10
-12.747900000000001
 20
-2.8665000000000003
 30
0.0
 10
-12.747900000000001
 20
-2.8665000000000003
 30
0.0
  0
SPLINE
  5
17C
100
AcDbEntity
  8
LC-007-003-----0
370
    20
100
AcDbSpline
210
0.0
220
0.0
230
1.0
 70
     0
 71
     3
 72
     8
 73
     4
 74
     0
 42
0.0000000001
 43
0.0000000001
 40
0.0
 40
0.0
 40
0.0
 40
0.0
 40
1.0
 40
1.0
 40
1.0
 40
1.0
 10
-60.415400000000005
 20
-33.2059
 30
0.0
 10
-60.415400000000005
 20
-33.2059
 30
0.0
 10
-82.93950000000001
 20
-33.2059
 30
0.0
 10
-82.93950000000001
 20
-33.2059
 30
0.0
  0
SPLINE
  5
17D
100
AcDbEntity
  8
LC-007-003-----0
370
    20
100
AcDbSpline
210
0.0
220
0.0
230
1.0
 70
     0
 71
     3
 72
     8
 73
     4
 74
     0
 42
0.0000000001
 43
0.0000000001
 40
0.0
 40
0.0
 40
0.0
 40
0.0
 40
1.0
 40
1.0
 40
1.0
 40
1.0
 10
-60.415500000000002
 20
-4.2561999999999998
 30
0.0
 10
-60.415500000000002
 20
-4.2561999999999998
 30
0.0
 10
-82.93950000000001
 20
-4.2561999999999998
 30
0.0
 10
-82.93950000000001
 20
-4.2561999999999998
 30
0.0
  0
SPLINE
  5
17E
100
AcDbEntity
  8
LC-007-003-----0
370
    20
100
AcDbSpline
210
0.0
220
0.0
230
1.0
 70
     0
 71
     3
 72
     8
 73
     4
 74
     0
 42
0.0000000001
 43
0.0000000001
 40
0.0
 40
0.0
 40
0.0
 40
0.0
 40
1.0
 40
1.0
 40
1.0
 40
1.0
 10
-75.043900000000008
 20
-43.921400000000006
 30
0.0
 10
-75.043900000000008
 20
-43.921400000000006
 30
0.0
 10
-76.454700000000003
 20
-33.2059
 30
0.0
 10
-76.454700000000003
 20
-33.2059
 30
0.0
  0
SPLINE
  5
17F
100
AcDbEntity
  8
LC-007-003-----0
370
    20
100
AcDbSpline
210
0.0
220
0.0
230
1.0
 70
     0
 71
     3
 72
     8
 73
     4
 74
     0
 42
0.0000000001
 43
0.0000000001
 40
0.0
 40
0.0
 40
0.0
 40
0.0
 40
1.0
 40
1.0
 40
1.0
 40
1.0
 10
-76.454700000000003
 20
-33.2059
 30
0.0
 10
-76.454700000000003
 20
-33.2059
 30
0.0
 10
-77.865300000000005
 20
-43.921400000000006
 30
0.0
 10
-77.865300000000005
 20
-43.921400000000006
 30
0.0
  0
SPLINE
  5
180
100
AcDbEntity
  8
LC-007-003-----0
370
    20
100
AcDbSpline
210
0.0
220
0.0
230
1.0
 70
     0
 71
     3
 72
     8
 73
     4
 74
     0
 42
0.0000000001
 43
0.0000000001
 40
0.0
 40
0.0
 40
0.0
 40
0.0
 40
1.0
 40
1.0
 40
1.0
 40
1.0
 10
-77.865300000000005
 20
-43.921400000000006
 30
0.0
 10
-77.865300000000005
 20
-43.921400000000006
 30
0.0
 10
-75.043900000000008
 20
-43.921400000000006
 30
0.0
 10
-75.043900000000008
 20
-43.921400000000006
 30
0.0
  0
SPLINE
  5
181
100
AcDbEntity
  8
LC-007-003-----0
370
    20
100
AcDbSpline
210
0.0
220
0.0
230
1.0
 70
     0
 71
     3
 72
     8
 73
     4
 74
     0
 42
0.0000000001
 43
0.0000000001
 40
0.0
 40
0.0
 40
0.0
 40
0.0
 40
1.0
 40
1.0
 40
1.0
 40
1.0
 10
-75.410700000000006
 20
-43.945500000000003
 30
0.0
 10
-75.410700000000006
 20
-43.945500000000003
 30
0.0
 10
-76.454700000000003
 20
-36.015999999999998
 30
0.0
 10
-76.454700000000003
 20
-36.015999999999998
 30
0.0
  0
SPLINE
  5
182
100
AcDbEntity
  8
LC-007-003-----0
370
    20
100
AcDbSpline
210
0.0
220
0.0
230
1.0
 70
     0
 71
     3
 72
     8
 73
     4
 74
     0
 42
0.0000000001
 43
0.0000000001
 40
0.0
 40
0.0
 40
0.0
 40
0.0
 40
1.0
 40
1.0
 40
1.0
 40
1.0
 10
-76.454700000000003
 20
-36.015999999999998
 30
0.0
 10
-76.454700000000003
 20
-36.015999999999998
 30
0.0
 10
-77.49860000000001
 20
-43.945500000000003
 30
0.0
 10
-77.49860000000001
 20
-43.945500000000003
 30
0.0
  0
SPLINE
  5
183
100
AcDbEntity
  8
LC-007-003-----0
370
    20
100
AcDbSpline
210
0.0
220
0.0
230
1.0
 70
     0
 71
     3
 72
     8
 73
     4
 74
     0
 42
0.0000000001
 43
0.0000000001
 40
0.0
 40
0.0
 40
0.0
 40
0.0
 40
1.0
 40
1.0
 40
1.0
 40
1.0
 10
-75.777500000000003
 20
-43.969500000000004
 30
0.0
 10
-75.777500000000003
 20
-43.969500000000004
 30
0.0
 10
-76.454700000000003
 20
-38.826000000000001
 30
0.0
 10
-76.454700000000003
 20
-38.826000000000001
 30
0.0
  0
SPLINE
  5
184
100
AcDbEntity
  8
LC-007-003-----0
370
    20
100
AcDbSpline
210
0.0
220
0.0
230
1.0
 70
     0
 71
     3
 72
     8
 73
     4
 74
     0
 42
0.0000000001
 43
0.0000000001
 40
0.0
 40
0.0
 40
0.0
 40
0.0
 40
1.0
 40
1.0
 40
1.0
 40
1.0
 10
-76.454700000000003
 20
-38.826000000000001
 30
0.0
 10
-76.454700000000003
 20
-38.826000000000001
 30
0.0
 10
-77.131799999999998
 20
-43.969500000000004
 30
0.0
 10
-77.131799999999998
 20
-43.969500000000004
 30
0.0
  0
SPLINE
  5
185
100
AcDbEntity
  8
LC-007-003-----0
370
    20
100
AcDbSpline
210
0.0
220
0.0
230
1.0
 70
     0
 71
     3
 72
     8
 73
     4
 74
     0
 42
0.0000000001
 43
0.0000000001
 40
0.0
 40
0.0
 40
0.0
 40
0.0
 40
1.0
 40
1.0
 40
1.0
 40
1.0
 10
-76.144300000000001
 20
-43.993500000000004
 30
0.0
 10
-76.144300000000001
 20
-43.993500000000004
 30
0.0
 10
-76.454700000000003
 20
-41.636099999999999
 30
0.0
 10
-76.454700000000003
 20
-41.636099999999999
 30
0.0
  0
SPLINE
  5
186
100
AcDbEntity
  8
LC-007-003-----0
370
    20
100
AcDbSpline
210
0.0
220
0.0
230
1.0
 70
     0
 71
     3
 72
     8
 73
     4
 74
     0
 42
0.0000000001
 43
0.0000000001
 40
0.0
 40
0.0
 40
0.0
 40
0.0
 40
1.0
 40
1.0
 40
1.0
 40
1.0
 10
-76.454700000000003
 20
-41.636099999999999
 30
0.0
 10
-76.454700000000003
 20
-41.636099999999999
 30
0.0
 10
-76.765000000000001
 20
-43.993500000000004
 30
0.0
 10
-76.765000000000001
 20
-43.993500000000004
 30
0.0
  0
SPLINE
  5
187
100
AcDbEntity
  8
LC-007-003-----0
370
    20
100
AcDbSpline
210
0.0
220
0.0
230
1.0
 70
     0
 71
     3
 72
     8
 73
     4
 74
     0
 42
0.0000000001
 43
0.0000000001
 40
0.0
 40
0.0
 40
0.0
 40
0.0
 40
1.0
 40
1.0
 40
1.0
 40
1.0
 10
-77.865300000000005
 20
6.4594000000000005
 30
0.0
 10
-77.865300000000005
 20
6.4594000000000005
 30
0.0
 10
-76.454700000000003
 20
-4.2561999999999998
 30
0.0
 10
-76.454700000000003
 20
-4.2561999999999998
 30
0.0
  0
SPLINE
  5
188
100
AcDbEntity
  8
LC-007-003-----0
370
    20
100
AcDbSpline
210
0.0
220
0.0
230
1.0
 70
     0
 71
     3
 72
     8
 73
     4
 74
     0
 42
0.0000000001
 43
0.0000000001
 40
0.0
 40
0.0
 40
0.0
 40
0.0
 40
1.0
 40
1.0
 40
1.0
 40
1.0
 10
-76.454700000000003
 20
-4.2561999999999998
 30
0.0
 10
-76.454700000000003
 20
-4.2561999999999998
 30
0.0
 10
-75.043900000000008
 20
6.4594000000000005
 30
0.0
 10
-75.043900000000008
 20
6.4594000000000005
 30
0.0
  0
SPLINE
  5
189
100
AcDbEntity
  8
LC-007-003-----0
370
    20
100
AcDbSpline
210
0.0
220
0.0
230
1.0
 70
     0
 71
     3
 72
     8
 73
     4
 74
     0
 42
0.0000000001
 43
0.0000000001
 40
0.0
 40
0.0
 40
0.0
 40
0.0
 40
1.0
 40
1.0
 40
1.0
 40
1.0
 10
-75.043900000000008
 20
6.4594000000000005
 30
0.0
 10
-75.043900000000008
 20
6.4594000000000005
 30
0.0
 10
-77.865300000000005
 20
6.4594000000000005
 30
0.0
 10
-77.865300000000005
 20
6.4594000000000005
 30
0.0
  0
SPLINE
  5
18A
100
AcDbEntity
  8
LC-007-003-----0
370
    20
100
AcDbSpline
210
0.0
220
0.0
230
1.0
 70
     0
 71
     3
 72
     8
 73
     4
 74
     0
 42
0.0000000001
 43
0.0000000001
 40
0.0
 40
0.0
 40
0.0
 40
0.0
 40
1.0
 40
1.0
 40
1.0
 40
1.0
 10
-77.49860000000001
 20
6.4834000000000005
 30
0.0
 10
-77.49860000000001
 20
6.4834000000000005
 30
0.0
 10
-76.454700000000003
 20
-1.4461000000000002
 30
0.0
 10
-76.454700000000003
 20
-1.4461000000000002
 30
0.0
  0
SPLINE
  5
18B
100
AcDbEntity
  8
LC-007-003-----0
370
    20
100
AcDbSpline
210
0.0
220
0.0
230
1.0
 70
     0
 71
     3
 72
     8
 73
     4
 74
     0
 42
0.0000000001
 43
0.0000000001
 40
0.0
 40
0.0
 40
0.0
 40
0.0
 40
1.0
 40
1.0
 40
1.0
 40
1.0
 10
-76.454700000000003
 20
-1.4461000000000002
 30
0.0
 10
-76.454700000000003
 20
-1.4461000000000002
 30
0.0
 10
-75.410700000000006
 20
6.4834000000000005
 30
0.0
 10
-75.410700000000006
 20
6.4834000000000005
 30
0.0
  0
SPLINE
  5
18C
100
AcDbEntity
  8
LC-007-003-----0
370
    20
100
AcDbSpline
210
0.0
220
0.0
230
1.0
 70
     0
 71
     3
 72
     8
 73
     4
 74
     0
 42
0.0000000001
 43
0.0000000001
 40
0.0
 40
0.0
 40
0.0
 40
0.0
 40
1.0
 40
1.0
 40
1.0
 40
1.0
 10
-77.131799999999998
 20
6.5074000000000005
 30
0.0
 10
-77.131799999999998
 20
6.5074000000000005
 30
0.0
 10
-76.454700000000003
 20
1.3640000000000001
 30
0.0
 10
-76.454700000000003
 20
1.3640000000000001
 30
0.0
  0
SPLINE
  5
18D
100
AcDbEntity
  8
LC-007-003-----0
370
    20
100
AcDbSpline
210
0.0
220
0.0
230
1.0
 70
     0
 71
     3
 72
     8
 73
     4
 74
     0
 42
0.0000000001
 43
0.0000000001
 40
0.0
 40
0.0
 40
0.0
 40
0.0
 40
1.0
 40
1.0
 40
1.0
 40
1.0
 10
-76.454700000000003
 20
1.3640000000000001
 30
0.0
 10
-76.454700000000003
 20
1.3640000000000001
 30
0.0
 10
-75.777500000000003
 20
6.5074000000000005
 30
0.0
 10
-75.777500000000003
 20
6.5074000000000005
 30
0.0
  0
SPLINE
  5
18E
100
AcDbEntity
  8
LC-007-003-----0
370
    20
100
AcDbSpline
210
0.0
220
0.0
230
1.0
 70
     0
 71
     3
 72
     8
 73
     4
 74
     0
 42
0.0000000001
 43
0.0000000001
 40
0.0
 40
0.0
 40
0.0
 40
0.0
 40
1.0
 40
1.0
 40
1.0
 40
1.0
 10
-76.765000000000001
 20
6.5314000000000005
 30
0.0
 10
-76.765000000000001
 20
6.5314000000000005
 30
0.0
 10
-76.454700000000003
 20
4.1740000000000004
 30
0.0
 10
-76.454700000000003
 20
4.1740000000000004
 30
0.0
  0
SPLINE
  5
18F
100
AcDbEntity
  8
LC-007-003-----0
370
    20
100
AcDbSpline
210
0.0
220
0.0
230
1.0
 70
     0
 71
     3
 72
     8
 73
     4
 74
     0
 42
0.0000000001
 43
0.0000000001
 40
0.0
 40
0.0
 40
0.0
 40
0.0
 40
1.0
 40
1.0
 40
1.0
 40
1.0
 10
-76.454700000000003
 20
4.1740000000000004
 30
0.0
 10
-76.454700000000003
 20
4.1740000000000004
 30
0.0
 10
-76.144300000000001
 20
6.5314000000000005
 30
0.0
 10
-76.144300000000001
 20
6.5314000000000005
 30
0.0
  0
SPLINE
  5
190
100
AcDbEntity
  8
LC-007-003-----0
370
    20
100
AcDbSpline
210
0.0
220
0.0
230
1.0
 70
     0
 71
     3
 72
     8
 73
     4
 74
     0
 42
0.0000000001
 43
0.0000000001
 40
0.0
 40
0.0
 40
0.0
 40
0.0
 40
1.0
 40
1.0
 40
1.0
 40
1.0
 10
-76.454700000000003
 20
-48.3371
 30
0.0
 10
-76.454700000000003
 20
-48.3371
 30
0.0
 10
-76.454700000000003
 20
37.569900000000004
 30
0.0
 10
-76.454700000000003
 20
37.569900000000004
 30
0.0
  0
SPLINE
  5
191
100
AcDbEntity
  8
LC-007-003-----0
370
    20
100
AcDbSpline
210
0.0
220
0.0
230
1.0
 70
     0
 71
     3
 72
     8
 73
     4
 74
     0
 42
0.0000000001
 43
0.0000000001
 40
0.0
 40
0.0
 40
0.0
 40
0.0
 40
1.0
 40
1.0
 40
1.0
 40
1.0
 10
-12.5129
 20
-34.363599999999998
 30
0.0
 10
-12.5129
 20
-34.363599999999998
 30
0.0
 10
11.5761
 20
-34.363599999999998
 30
0.0
 10
11.5761
 20
-34.363599999999998
 30
0.0
  0
SPLINE
  5
192
100
AcDbEntity
  8
LC-007-003-----0
370
    20
100
AcDbSpline
210
0.0
220
0.0
230
1.0
 70
     0
 71
     3
 72
     8
 73
     4
 74
     0
 42
0.0000000001
 43
0.0000000001
 40
0.0
 40
0.0
 40
0.0
 40
0.0
 40
1.0
 40
1.0
 40
1.0
 40
1.0
 10
-12.513
 20
-3.0982000000000003
 30
0.0
 10
-12.513
 20
-3.0982000000000003
 30
0.0
 10
11.5761
 20
-3.0982000000000003
 30
0.0
 10
11.5761
 20
-3.0982000000000003
 30
0.0
  0
SPLINE
  5
193
100
AcDbEntity
  8
LC-007-003-----0
370
    20
100
AcDbSpline
210
0.0
220
0.0
230
1.0
 70
     0
 71
     3
 72
     8
 73
     4
 74
     0
 42
0.0000000001
 43
0.0000000001
 40
0.0
 40
0.0
 40
0.0
 40
0.0
 40
1.0
 40
1.0
 40
1.0
 40
1.0
 10
6.5021000000000004
 20
-45.079100000000004
 30
0.0
 10
6.5021000000000004
 20
-45.079100000000004
 30
0.0
 10
5.0913000000000004
 20
-34.363599999999998
 30
0.0
 10
5.0913000000000004
 20
-34.363599999999998
 30
0.0
  0
SPLINE
  5
194
100
AcDbEntity
  8
LC-007-003-----0
370
    20
100
AcDbSpline
210
0.0
220
0.0
230
1.0
 70
     0
 71
     3
 72
     8
 73
     4
 74
     0
 42
0.0000000001
 43
0.0000000001
 40
0.0
 40
0.0
 40
0.0
 40
0.0
 40
1.0
 40
1.0
 40
1.0
 40
1.0
 10
5.0913000000000004
 20
-34.363599999999998
 30
0.0
 10
5.0913000000000004
 20
-34.363599999999998
 30
0.0
 10
3.6807000000000003
 20
-45.079100000000004
 30
0.0
 10
3.6807000000000003
 20
-45.079100000000004
 30
0.0
  0
SPLINE
  5
195
100
AcDbEntity
  8
LC-007-003-----0
370
    20
100
AcDbSpline
210
0.0
220
0.0
230
1.0
 70
     0
 71
     3
 72
     8
 73
     4
 74
     0
 42
0.0000000001
 43
0.0000000001
 40
0.0
 40
0.0
 40
0.0
 40
0.0
 40
1.0
 40
1.0
 40
1.0
 40
1.0
 10
3.6807000000000003
 20
-45.079100000000004
 30
0.0
 10
3.6807000000000003
 20
-45.079100000000004
 30
0.0
 10
6.5021000000000004
 20
-45.079100000000004
 30
0.0
 10
6.5021000000000004
 20
-45.079100000000004
 30
0.0
  0
SPLINE
  5
196
100
AcDbEntity
  8
LC-007-003-----0
370
    20
100
AcDbSpline
210
0.0
220
0.0
230
1.0
 70
     0
 71
     3
 72
     8
 73
     4
 74
     0
 42
0.0000000001
 43
0.0000000001
 40
0.0
 40
0.0
 40
0.0
 40
0.0
 40
1.0
 40
1.0
 40
1.0
 40
1.0
 10
6.1354000000000006
 20
-45.103100000000005
 30
0.0
 10
6.1354000000000006
 20
-45.103100000000005
 30
0.0
 10
5.0913000000000004
 20
-37.173700000000004
 30
0.0
 10
5.0913000000000004
 20
-37.173700000000004
 30
0.0
  0
SPLINE
  5
197
100
AcDbEntity
  8
LC-007-003-----0
370
    20
100
AcDbSpline
210
0.0
220
0.0
230
1.0
 70
     0
 71
     3
 72
     8
 73
     4
 74
     0
 42
0.0000000001
 43
0.0000000001
 40
0.0
 40
0.0
 40
0.0
 40
0.0
 40
1.0
 40
1.0
 40
1.0
 40
1.0
 10
5.0913000000000004
 20
-37.173700000000004
 30
0.0
 10
5.0913000000000004
 20
-37.173700000000004
 30
0.0
 10
4.0474000000000006
 20
-45.103100000000005
 30
0.0
 10
4.0474000000000006
 20
-45.103100000000005
 30
0.0
  0
SPLINE
  5
198
100
AcDbEntity
  8
LC-007-003-----0
370
    20
100
AcDbSpline
210
0.0
220
0.0
230
1.0
 70
     0
 71
     3
 72
     8
 73
     4
 74
     0
 42
0.0000000001
 43
0.0000000001
 40
0.0
 40
0.0
 40
0.0
 40
0.0
 40
1.0
 40
1.0
 40
1.0
 40
1.0
 10
5.7685000000000004
 20
-45.127099999999999
 30
0.0
 10
5.7685000000000004
 20
-45.127099999999999
 30
0.0
 10
5.0913000000000004
 20
-39.983699999999999
 30
0.0
 10
5.0913000000000004
 20
-39.983699999999999
 30
0.0
  0
SPLINE
  5
199
100
AcDbEntity
  8
LC-007-003-----0
370
    20
100
AcDbSpline
210
0.0
220
0.0
230
1.0
 70
     0
 71
     3
 72
     8
 73
     4
 74
     0
 42
0.0000000001
 43
0.0000000001
 40
0.0
 40
0.0
 40
0.0
 40
0.0
 40
1.0
 40
1.0
 40
1.0
 40
1.0
 10
5.0913000000000004
 20
-39.983699999999999
 30
0.0
 10
5.0913000000000004
 20
-39.983699999999999
 30
0.0
 10
4.4142999999999999
 20
-45.127099999999999
 30
0.0
 10
4.4142999999999999
 20
-45.127099999999999
 30
0.0
  0
SPLINE
  5
19A
100
AcDbEntity
  8
LC-007-003-----0
370
    20
100
AcDbSpline
210
0.0
220
0.0
230
1.0
 70
     0
 71
     3
 72
     8
 73
     4
 74
     0
 42
0.0000000001
 43
0.0000000001
 40
0.0
 40
0.0
 40
0.0
 40
0.0
 40
1.0
 40
1.0
 40
1.0
 40
1.0
 10
5.4018000000000006
 20
-45.1511
 30
0.0
 10
5.4018000000000006
 20
-45.1511
 30
0.0
 10
5.0913000000000004
 20
-42.793700000000001
 30
0.0
 10
5.0913000000000004
 20
-42.793700000000001
 30
0.0
  0
SPLINE
  5
19B
100
AcDbEntity
  8
LC-007-003-----0
370
    20
100
AcDbSpline
210
0.0
220
0.0
230
1.0
 70
     0
 71
     3
 72
     8
 73
     4
 74
     0
 42
0.0000000001
 43
0.0000000001
 40
0.0
 40
0.0
 40
0.0
 40
0.0
 40
1.0
 40
1.0
 40
1.0
 40
1.0
 10
5.0913000000000004
 20
-42.793700000000001
 30
0.0
 10
5.0913000000000004
 20
-42.793700000000001
 30
0.0
 10
4.7810000000000006
 20
-45.1511
 30
0.0
 10
4.7810000000000006
 20
-45.1511
 30
0.0
  0
SPLINE
  5
19C
100
AcDbEntity
  8
LC-007-003-----0
370
    20
100
AcDbSpline
210
0.0
220
0.0
230
1.0
 70
     0
 71
     3
 72
     8
 73
     4
 74
     0
 42
0.0000000001
 43
0.0000000001
 40
0.0
 40
0.0
 40
0.0
 40
0.0
 40
1.0
 40
1.0
 40
1.0
 40
1.0
 10
3.6807000000000003
 20
7.6172000000000004
 30
0.0
 10
3.6807000000000003
 20
7.6172000000000004
 30
0.0
 10
5.0913000000000004
 20
-3.0982000000000003
 30
0.0
 10
5.0913000000000004
 20
-3.0982000000000003
 30
0.0
  0
SPLINE
  5
19D
100
AcDbEntity
  8
LC-007-003-----0
370
    20
100
AcDbSpline
210
0.0
220
0.0
230
1.0
 70
     0
 71
     3
 72
     8
 73
     4
 74
     0
 42
0.0000000001
 43
0.0000000001
 40
0.0
 40
0.0
 40
0.0
 40
0.0
 40
1.0
 40
1.0
 40
1.0
 40
1.0
 10
5.0913000000000004
 20
-3.0982000000000003
 30
0.0
 10
5.0913000000000004
 20
-3.0982000000000003
 30
0.0
 10
6.5021000000000004
 20
7.6172000000000004
 30
0.0
 10
6.5021000000000004
 20
7.6172000000000004
 30
0.0
  0
SPLINE
  5
19E
100
AcDbEntity
  8
LC-007-003-----0
370
    20
100
AcDbSpline
210
0.0
220
0.0
230
1.0
 70
     0
 71
     3
 72
     8
 73
     4
 74
     0
 42
0.0000000001
 43
0.0000000001
 40
0.0
 40
0.0
 40
0.0
 40
0.0
 40
1.0
 40
1.0
 40
1.0
 40
1.0
 10
6.5021000000000004
 20
7.6172000000000004
 30
0.0
 10
6.5021000000000004
 20
7.6172000000000004
 30
0.0
 10
3.6807000000000003
 20
7.6172000000000004
 30
0.0
 10
3.6807000000000003
 20
7.6172000000000004
 30
0.0
  0
SPLINE
  5
19F
100
AcDbEntity
  8
LC-007-003-----0
370
    20
100
AcDbSpline
210
0.0
220
0.0
230
1.0
 70
     0
 71
     3
 72
     8
 73
     4
 74
     0
 42
0.0000000001
 43
0.0000000001
 40
0.0
 40
0.0
 40
0.0
 40
0.0
 40
1.0
 40
1.0
 40
1.0
 40
1.0
 10
4.0474000000000006
 20
7.6413000000000002
 30
0.0
 10
4.0474000000000006
 20
7.6413000000000002
 30
0.0
 10
5.0913000000000004
 20
-0.2882
 30
0.0
 10
5.0913000000000004
 20
-0.2882
 30
0.0
  0
SPLINE
  5
1A0
100
AcDbEntity
  8
LC-007-003-----0
370
    20
100
AcDbSpline
210
0.0
220
0.0
230
1.0
 70
     0
 71
     3
 72
     8
 73
     4
 74
     0
 42
0.0000000001
 43
0.0000000001
 40
0.0
 40
0.0
 40
0.0
 40
0.0
 40
1.0
 40
1.0
 40
1.0
 40
1.0
 10
5.0913000000000004
 20
-0.2882
 30
0.0
 10
5.0913000000000004
 20
-0.2882
 30
0.0
 10
6.1354000000000006
 20
7.6413000000000002
 30
0.0
 10
6.1354000000000006
 20
7.6413000000000002
 30
0.0
  0
SPLINE
  5
1A1
100
AcDbEntity
  8
LC-007-003-----0
370
    20
100
AcDbSpline
210
0.0
220
0.0
230
1.0
 70
     0
 71
     3
 72
     8
 73
     4
 74
     0
 42
0.0000000001
 43
0.0000000001
 40
0.0
 40
0.0
 40
0.0
 40
0.0
 40
1.0
 40
1.0
 40
1.0
 40
1.0
 10
4.4142999999999999
 20
7.6653000000000002
 30
0.0
 10
4.4142999999999999
 20
7.6653000000000002
 30
0.0
 10
5.0913000000000004
 20
2.5219
 30
0.0
 10
5.0913000000000004
 20
2.5219
 30
0.0
  0
SPLINE
  5
1A2
100
AcDbEntity
  8
LC-007-003-----0
370
    20
100
AcDbSpline
210
0.0
220
0.0
230
1.0
 70
     0
 71
     3
 72
     8
 73
     4
 74
     0
 42
0.0000000001
 43
0.0000000001
 40
0.0
 40
0.0
 40
0.0
 40
0.0
 40
1.0
 40
1.0
 40
1.0
 40
1.0
 10
5.0913000000000004
 20
2.5219
 30
0.0
 10
5.0913000000000004
 20
2.5219
 30
0.0
 10
5.7685000000000004
 20
7.6653000000000002
 30
0.0
 10
5.7685000000000004
 20
7.6653000000000002
 30
0.0
  0
SPLINE
  5
1A3
100
AcDbEntity
  8
LC-007-003-----0
370
    20
100
AcDbSpline
210
0.0
220
0.0
230
1.0
 70
     0
 71
     3
 72
     8
 73
     4
 74
     0
 42
0.0000000001
 43
0.0000000001
 40
0.0
 40
0.0
 40
0.0
 40
0.0
 40
1.0
 40
1.0
 40
1.0
 40
1.0
 10
4.7810000000000006
 20
7.6893000000000002
 30
0.0
 10
4.7810000000000006
 20
7.6893000000000002
 30
0.0
 10
5.0913000000000004
 20
5.3319999999999999
 30
0.0
 10
5.0913000000000004
 20
5.3319999999999999
 30
0.0
  0
SPLINE
  5
1A4
100
AcDbEntity
  8
LC-007-003-----0
370
    20
100
AcDbSpline
210
0.0
220
0.0
230
1.0
 70
     0
 71
     3
 72
     8
 73
     4
 74
     0
 42
0.0000000001
 43
0.0000000001
 40
0.0
 40
0.0
 40
0.0
 40
0.0
 40
1.0
 40
1.0
 40
1.0
 40
1.0
 10
5.0913000000000004
 20
5.3319999999999999
 30
0.0
 10
5.0913000000000004
 20
5.3319999999999999
 30
0.0
 10
5.4018000000000006
 20
7.6893000000000002
 30
0.0
 10
5.4018000000000006
 20
7.6893000000000002
 30
0.0
  0
SPLINE
  5
1A5
100
AcDbEntity
  8
LC-007-003-----0
370
    20
100
AcDbSpline
210
0.0
220
0.0
230
1.0
 70
     0
 71
     3
 72
     8
 73
     4
 74
     0
 42
0.0000000001
 43
0.0000000001
 40
0.0
 40
0.0
 40
0.0
 40
0.0
 40
1.0
 40
1.0
 40
1.0
 40
1.0
 10
5.0913000000000004
 20
-49.494800000000005
 30
0.0
 10
5.0913000000000004
 20
-49.494800000000005
 30
0.0
 10
5.0913000000000004
 20
66.171500000000009
 30
0.0
 10
5.0913000000000004
 20
66.171500000000009
 30
0.0
  0
SPLINE
  5
1A6
100
AcDbEntity
  8
LC-007-003-----0
100
AcDbSpline
210
0.0
220
0.0
230
1.0
 70
     1
 71
     3
 72
    40
 73
    36
 74
     0
 42
0.0000000001
 43
0.0000000001
 40
0.0
 40
0.0
 40
0.0
 40
0.0
 40
0.1111111111111111
 40
0.1111111111111111
 40
0.1111111111111111
 40
0.1111111111111111
 40
0.2222222222222222
 40
0.2222222222222222
 40
0.2222222222222222
 40
0.2222222222222222
 40
0.3333333333333333
 40
0.3333333333333333
 40
0.3333333333333333
 40
0.3333333333333333
 40
0.4444444444444444
 40
0.4444444444444444
 40
0.4444444444444444
 40
0.4444444444444444
 40
0.5555555555555556
 40
0.5555555555555556
 40
0.5555555555555556
 40
0.5555555555555556
 40
0.6666666666666667
 40
0.6666666666666667
 40
0.6666666666666667
 40
0.6666666666666667
 40
0.7777777777777779
 40
0.7777777777777779
 40
0.7777777777777779
 40
0.7777777777777779
 40
0.8888888888888891
 40
0.8888888888888891
 40
0.8888888888888891
 40
0.8888888888888891
 40
1.0
 40
1.0
 40
1.0
 40
1.0
 10
-42.850999999999999
 20
-58.939
 30
0.0
 10
-42.850999999999999
 20
-58.939
 30
0.0
 10
-41.613600000000005
 20
-53.038000000000004
 30
0.0
 10
-41.613600000000005
 20
-53.038000000000004
 30
0.0
 10
-41.613600000000005
 20
-53.038000000000004
 30
0.0
 10
-42.146799999999999
 20
-53.456500000000005
 30
0.0
 10
-42.896500000000003
 20
-53.793100000000003
 30
0.0
 10
-43.862700000000004
 20
-54.046100000000003
 30
0.0
 10
-43.862700000000004
 20
-54.046100000000003
 30
0.0
 10
-43.862700000000004
 20
-54.046100000000003
 30
0.0
 10
-43.682500000000005
 20
-53.1708
 30
0.0
 10
-43.682500000000005
 20
-53.1708
 30
0.0
 10
-43.682500000000005
 20
-53.1708
 30
0.0
 10
-43.202200000000005
 20
-52.979800000000004
 30
0.0
 10
-42.729100000000003
 20
-52.7286
 30
0.0
 10
-42.261400000000002
 20
-52.4193
 30
0.0
 10
-42.261400000000002
 20
-52.4193
 30
0.0
 10
-41.793800000000005
 20
-52.109999999999999
 30
0.0
 10
-41.442599999999999
 20
-51.840700000000005
 30
0.0
 10
-41.207900000000002
 20
-51.6096
 30
0.0
 10
-41.207900000000002
 20
-51.6096
 30
0.0
 10
-41.065899999999999
 20
-51.467700000000001
 30
0.0
 10
-40.9313
 20
-51.294800000000002
 30
0.0
 10
-40.803899999999999
 20
-51.091000000000001
 30
0.0
 10
-40.803899999999999
 20
-51.091000000000001
 30
0.0
 10
-40.803899999999999
 20
-51.091000000000001
 30
0.0
 10
-40.243500000000004
 20
-51.091000000000001
 30
0.0
 10
-40.243500000000004
 20
-51.091000000000001
 30
0.0
 10
-40.243500000000004
 20
-51.091000000000001
 30
0.0
 10
-40.243500000000004
 20
-51.091000000000001
 30
0.0
 10
-41.879300000000001
 20
-58.939
 30
0.0
 10
-41.879300000000001
 20
-58.939
 30
0.0
 10
-41.879300000000001
 20
-58.939
 30
0.0
 10
-41.879300000000001
 20
-58.939
 30
0.0
 10
-42.850999999999999
 20
-58.939
 30
0.0
 10
-42.850999999999999
 20
-58.939
 30
0.0
  0
SPLINE
  5
1A7
100
AcDbEntity
  8
LC-007-003-----0
100
AcDbSpline
210
0.0
220
0.0
230
1.0
 70
     1
 71
     3
 72
   120
 73
   116
 74
     0
 42
0.0000000001
 43
0.0000000001
 40
0.0
 40
0.0
 40
0.0
 40
0.0
 40
0.0344827586206897
 40
0.0344827586206897
 40
0.0344827586206897
 40
0.0344827586206897
 40
0.0689655172413793
 40
0.0689655172413793
 40
0.0689655172413793
 40
0.0689655172413793
 40
0.103448275862069
 40
0.103448275862069
 40
0.103448275862069
 40
0.103448275862069
 40
0.1379310344827586
 40
0.1379310344827586
 40
0.1379310344827586
 40
0.1379310344827586
 40
0.1724137931034483
 40
0.1724137931034483
 40
0.1724137931034483
 40
0.1724137931034483
 40
0.206896551724138
 40
0.206896551724138
 40
0.206896551724138
 40
0.206896551724138
 40
0.2413793103448276
 40
0.2413793103448276
 40
0.2413793103448276
 40
0.2413793103448276
 40
0.2758620689655173
 40
0.2758620689655173
 40
0.2758620689655173
 40
0.2758620689655173
 40
0.310344827586207
 40
0.310344827586207
 40
0.310344827586207
 40
0.310344827586207
 40
0.3448275862068966
 40
0.3448275862068966
 40
0.3448275862068966
 40
0.3448275862068966
 40
0.3793103448275863
 40
0.3793103448275863
 40
0.3793103448275863
 40
0.3793103448275863
 40
0.413793103448276
 40
0.413793103448276
 40
0.413793103448276
 40
0.413793103448276
 40
0.4482758620689656
 40
0.4482758620689656
 40
0.4482758620689656
 40
0.4482758620689656
 40
0.4827586206896553
 40
0.4827586206896553
 40
0.4827586206896553
 40
0.4827586206896553
 40
0.517241379310345
 40
0.517241379310345
 40
0.517241379310345
 40
0.517241379310345
 40
0.5517241379310346
 40
0.5517241379310346
 40
0.5517241379310346
 40
0.5517241379310346
 40
0.5862068965517242
 40
0.5862068965517242
 40
0.5862068965517242
 40
0.5862068965517242
 40
0.6206896551724138
 40
0.6206896551724138
 40
0.6206896551724138
 40
0.6206896551724138
 40
0.6551724137931034
 40
0.6551724137931034
 40
0.6551724137931034
 40
0.6551724137931034
 40
0.689655172413793
 40
0.689655172413793
 40
0.689655172413793
 40
0.689655172413793
 40
0.7241379310344827
 40
0.7241379310344827
 40
0.7241379310344827
 40
0.7241379310344827
 40
0.7586206896551723
 40
0.7586206896551723
 40
0.7586206896551723
 40
0.7586206896551723
 40
0.7931034482758619
 40
0.7931034482758619
 40
0.7931034482758619
 40
0.7931034482758619
 40
0.8275862068965515
 40
0.8275862068965515
 40
0.8275862068965515
 40
0.8275862068965515
 40
0.8620689655172411
 40
0.8620689655172411
 40
0.8620689655172411
 40
0.8620689655172411
 40
0.8965517241379307
 40
0.8965517241379307
 40
0.8965517241379307
 40
0.8965517241379307
 40
0.9310344827586203
 40
0.9310344827586203
 40
0.9310344827586203
 40
0.9310344827586203
 40
0.9655172413793099
 40
0.9655172413793099
 40
0.9655172413793099
 40
0.9655172413793099
 40
1.0
 40
1.0
 40
1.0
 40
1.0
 10
-38.809600000000003
 20
-56.8919
 30
0.0
 10
-38.809600000000003
 20
-56.8919
 30
0.0
 10
-37.870600000000003
 20
-56.775500000000001
 30
0.0
 10
-37.870600000000003
 20
-56.775500000000001
 30
0.0
 10
-37.870600000000003
 20
-56.775500000000001
 30
0.0
 10
-37.799700000000001
 20
-57.321400000000004
 30
0.0
 10
-37.6432
 20
-57.714400000000005
 30
0.0
 10
-37.3994
 20
-57.950900000000004
 30
0.0
 10
-37.3994
 20
-57.950900000000004
 30
0.0
 10
-37.155500000000004
 20
-58.185700000000004
 30
0.0
 10
-36.8371
 20
-58.304000000000002
 30
0.0
 10
-36.4422
 20
-58.304000000000002
 30
0.0
 10
-36.4422
 20
-58.304000000000002
 30
0.0
 10
-35.965499999999999
 20
-58.304000000000002
 30
0.0
 10
-35.554300000000005
 20
-58.134700000000002
 30
0.0
 10
-35.208500000000001
 20
-57.7926
 30
0.0
 10
-35.208500000000001
 20
-57.7926
 30
0.0
 10
-34.861000000000004
 20
-57.452400000000004
 30
0.0
 10
-34.688099999999999
 20
-57.061199999999999
 30
0.0
 10
-34.688099999999999
 20
-56.620800000000003
 30
0.0
 10
-34.688099999999999
 20
-56.620800000000003
 30
0.0
 10
-34.688099999999999
 20
-56.236900000000006
 30
0.0
 10
-34.819099999999999
 20
-55.918400000000005
 30
0.0
 10
-35.077500000000001
 20
-55.6691
 30
0.0
 10
-35.077500000000001
 20
-55.6691
 30
0.0
 10
-35.337700000000005
 20
-55.417999999999999
 30
0.0
 10
-35.685300000000005
 20
-55.292500000000004
 30
0.0
 10
-36.122
 20
-55.292500000000004
 30
0.0
 10
-36.122
 20
-55.292500000000004
 30
0.0
 10
-36.172899999999998
 20
-55.292500000000004
 30
0.0
 10
-36.274799999999999
 20
-55.299800000000005
 30
0.0
 10
-36.4313
 20
-55.314300000000003
 30
0.0
 10
-36.4313
 20
-55.314300000000003
 30
0.0
 10
-36.4313
 20
-55.314300000000003
 30
0.0
 10
-36.265700000000002
 20
-54.508200000000002
 30
0.0
 10
-36.265700000000002
 20
-54.508200000000002
 30
0.0
 10
-36.265700000000002
 20
-54.508200000000002
 30
0.0
 10
-36.174800000000005
 20
-54.522800000000004
 30
0.0
 10
-36.085599999999999
 20
-54.530100000000004
 30
0.0
 10
-36.000100000000003
 20
-54.530100000000004
 30
0.0
 10
-36.000100000000003
 20
-54.530100000000004
 30
0.0
 10
-35.448700000000002
 20
-54.530100000000004
 30
0.0
 10
-35.024799999999999
 20
-54.395400000000002
 30
0.0
 10
-34.728200000000001
 20
-54.127900000000004
 30
0.0
 10
-34.728200000000001
 20
-54.127900000000004
 30
0.0
 10
-34.431600000000003
 20
-53.858600000000003
 30
0.0
 10
-34.284199999999998
 20
-53.529299999999999
 30
0.0
 10
-34.284199999999998
 20
-53.138100000000001
 30
0.0
 10
-34.284199999999998
 20
-53.138100000000001
 30
0.0
 10
-34.284199999999998
 20
-52.779600000000002
 30
0.0
 10
-34.404299999999999
 20
-52.477499999999999
 30
0.0
 10
-34.648099999999999
 20
-52.231900000000003
 30
0.0
 10
-34.648099999999999
 20
-52.231900000000003
 30
0.0
 10
-34.8919
 20
-51.988100000000003
 30
0.0
 10
-35.190300000000001
 20
-51.8643
 30
0.0
 10
-35.541499999999999
 20
-51.8643
 30
0.0
 10
-35.541499999999999
 20
-51.8643
 30
0.0
 10
-35.885400000000004
 20
-51.8643
 30
0.0
 10
-36.196600000000004
 20
-51.989900000000006
 30
0.0
 10
-36.471400000000003
 20
-52.241
 30
0.0
 10
-36.471400000000003
 20
-52.241
 30
0.0
 10
-36.747900000000001
 20
-52.492100000000001
 30
0.0
 10
-36.924399999999999
 20
-52.845100000000002
 30
0.0
 10
-37.002700000000004
 20
-53.303600000000003
 30
0.0
 10
-37.002700000000004
 20
-53.303600000000003
 30
0.0
 10
-37.002700000000004
 20
-53.303600000000003
 30
0.0
 10
-37.950700000000005
 20
-53.1126
 30
0.0
 10
-37.950700000000005
 20
-53.1126
 30
0.0
 10
-37.950700000000005
 20
-53.1126
 30
0.0
 10
-37.794200000000004
 20
-52.468400000000003
 30
0.0
 10
-37.494
 20
-51.971700000000006
 30
0.0
 10
-37.050000000000004
 20
-51.6205
 30
0.0
 10
-37.050000000000004
 20
-51.6205
 30
0.0
 10
-36.606000000000002
 20
-51.267500000000005
 30
0.0
 10
-36.080100000000002
 20
-51.091000000000001
 30
0.0
 10
-35.4724
 20
-51.091000000000001
 30
0.0
 10
-35.4724
 20
-51.091000000000001
 30
0.0
 10
-34.831900000000005
 20
-51.091000000000001
 30
0.0
 10
-34.315100000000001
 20
-51.285700000000006
 30
0.0
 10
-33.918399999999998
 20
-51.673300000000005
 30
0.0
 10
-33.918399999999998
 20
-51.673300000000005
 30
0.0
 10
-33.521799999999999
 20
-52.0608
 30
0.0
 10
-33.323399999999999
 20
-52.535800000000002
 30
0.0
 10
-33.323399999999999
 20
-53.101700000000001
 30
0.0
 10
-33.323399999999999
 20
-53.101700000000001
 30
0.0
 10
-33.323399999999999
 20
-53.514700000000005
 30
0.0
 10
-33.430800000000005
 20
-53.873200000000004
 30
0.0
 10
-33.645499999999998
 20
-54.180700000000002
 30
0.0
 10
-33.645499999999998
 20
-54.180700000000002
 30
0.0
 10
-33.862000000000002
 20
-54.488199999999999
 30
0.0
 10
-34.184100000000001
 20
-54.743000000000002
 30
0.0
 10
-34.613500000000002
 20
-54.946800000000003
 30
0.0
 10
-34.613500000000002
 20
-54.946800000000003
 30
0.0
 10
-34.3078
 20
-55.126899999999999
 30
0.0
 10
-34.080400000000004
 20
-55.345300000000002
 30
0.0
 10
-33.929400000000001
 20
-55.601800000000004
 30
0.0
 10
-33.929400000000001
 20
-55.601800000000004
 30
0.0
 10
-33.778300000000002
 20
-55.858400000000003
 30
0.0
 10
-33.701900000000002
 20
-56.151300000000006
 30
0.0
 10
-33.701900000000002
 20
-56.480700000000006
 30
0.0
 10
-33.701900000000002
 20
-56.480700000000006
 30
0.0
 10
-33.701900000000002
 20
-57.1813
 30
0.0
 10
-33.963900000000002
 20
-57.789000000000001
 30
0.0
 10
-34.488
 20
-58.302100000000003
 30
0.0
 10
-34.488
 20
-58.302100000000003
 30
0.0
 10
-35.012
 20
-58.815300000000001
 30
0.0
 10
-35.639800000000001
 20
-59.071800000000003
 30
0.0
 10
-36.367600000000003
 20
-59.071800000000003
 30
0.0
 10
-36.367600000000003
 20
-59.071800000000003
 30
0.0
 10
-37.075500000000005
 20
-59.071800000000003
 30
0.0
 10
-37.646799999999999
 20
-58.8735
 30
0.0
 10
-38.081700000000005
 20
-58.4786
 30
0.0
 10
-38.081700000000005
 20
-58.4786
 30
0.0
 10
-38.516600000000004
 20
-58.082000000000001
 30
0.0
 10
-38.760400000000004
 20
-57.552500000000002
 30
0.0
 10
-38.809600000000003
 20
-56.8919
 30
0.0
  0
SPLINE
  5
1A8
100
AcDbEntity
  8
LC-007-003-----0
100
AcDbSpline
210
0.0
220
0.0
230
1.0
 70
     1
 71
     3
 72
   120
 73
   116
 74
     0
 42
0.0000000001
 43
0.0000000001
 40
0.0
 40
0.0
 40
0.0
 40
0.0
 40
0.0344827586206897
 40
0.0344827586206897
 40
0.0344827586206897
 40
0.0344827586206897
 40
0.0689655172413793
 40
0.0689655172413793
 40
0.0689655172413793
 40
0.0689655172413793
 40
0.103448275862069
 40
0.103448275862069
 40
0.103448275862069
 40
0.103448275862069
 40
0.1379310344827586
 40
0.1379310344827586
 40
0.1379310344827586
 40
0.1379310344827586
 40
0.1724137931034483
 40
0.1724137931034483
 40
0.1724137931034483
 40
0.1724137931034483
 40
0.206896551724138
 40
0.206896551724138
 40
0.206896551724138
 40
0.206896551724138
 40
0.2413793103448276
 40
0.2413793103448276
 40
0.2413793103448276
 40
0.2413793103448276
 40
0.2758620689655173
 40
0.2758620689655173
 40
0.2758620689655173
 40
0.2758620689655173
 40
0.310344827586207
 40
0.310344827586207
 40
0.310344827586207
 40
0.310344827586207
 40
0.3448275862068966
 40
0.3448275862068966
 40
0.3448275862068966
 40
0.3448275862068966
 40
0.3793103448275863
 40
0.3793103448275863
 40
0.3793103448275863
 40
0.3793103448275863
 40
0.413793103448276
 40
0.413793103448276
 40
0.413793103448276
 40
0.413793103448276
 40
0.4482758620689656
 40
0.4482758620689656
 40
0.4482758620689656
 40
0.4482758620689656
 40
0.4827586206896553
 40
0.4827586206896553
 40
0.4827586206896553
 40
0.4827586206896553
 40
0.517241379310345
 40
0.517241379310345
 40
0.517241379310345
 40
0.517241379310345
 40
0.5517241379310346
 40
0.5517241379310346
 40
0.5517241379310346
 40
0.5517241379310346
 40
0.5862068965517242
 40
0.5862068965517242
 40
0.5862068965517242
 40
0.5862068965517242
 40
0.6206896551724138
 40
0.6206896551724138
 40
0.6206896551724138
 40
0.6206896551724138
 40
0.6551724137931034
 40
0.6551724137931034
 40
0.6551724137931034
 40
0.6551724137931034
 40
0.689655172413793
 40
0.689655172413793
 40
0.689655172413793
 40
0.689655172413793
 40
0.7241379310344827
 40
0.7241379310344827
 40
0.7241379310344827
 40
0.7241379310344827
 40
0.7586206896551723
 40
0.7586206896551723
 40
0.7586206896551723
 40
0.7586206896551723
 40
0.7931034482758619
 40
0.7931034482758619
 40
0.7931034482758619
 40
0.7931034482758619
 40
0.8275862068965515
 40
0.8275862068965515
 40
0.8275862068965515
 40
0.8275862068965515
 40
0.8620689655172411
 40
0.8620689655172411
 40
0.8620689655172411
 40
0.8620689655172411
 40
0.8965517241379307
 40
0.8965517241379307
 40
0.8965517241379307
 40
0.8965517241379307
 40
0.9310344827586203
 40
0.9310344827586203
 40
0.9310344827586203
 40
0.9310344827586203
 40
0.9655172413793099
 40
0.9655172413793099
 40
0.9655172413793099
 40
0.9655172413793099
 40
1.0
 40
1.0
 40
1.0
 40
1.0
 10
-32.571899999999999
 20
-56.704500000000003
 30
0.0
 10
-32.571899999999999
 20
-56.704500000000003
 30
0.0
 10
-31.591100000000001
 20
-56.609900000000003
 30
0.0
 10
-31.591100000000001
 20
-56.609900000000003
 30
0.0
 10
-31.591100000000001
 20
-56.609900000000003
 30
0.0
 10
-31.598400000000002
 20
-56.748200000000004
 30
0.0
 10
-31.602
 20
-56.831900000000005
 30
0.0
 10
-31.602
 20
-56.859200000000001
 30
0.0
 10
-31.602
 20
-56.859200000000001
 30
0.0
 10
-31.602
 20
-57.093900000000005
 30
0.0
 10
-31.542000000000002
 20
-57.330500000000001
 30
0.0
 10
-31.4237
 20
-57.568800000000003
 30
0.0
 10
-31.4237
 20
-57.568800000000003
 30
0.0
 10
-31.303600000000003
 20
-57.807200000000002
 30
0.0
 10
-31.1417
 20
-57.989200000000004
 30
0.0
 10
-30.937900000000003
 20
-58.114700000000006
 30
0.0
 10
-30.937900000000003
 20
-58.114700000000006
 30
0.0
 10
-30.734100000000002
 20
-58.242100000000001
 30
0.0
 10
-30.517500000000002
 20
-58.304000000000002
 30
0.0
 10
-30.290100000000002
 20
-58.304000000000002
 30
0.0
 10
-30.290100000000002
 20
-58.304000000000002
 30
0.0
 10
-29.991700000000002
 20
-58.304000000000002
 30
0.0
 10
-29.687800000000003
 20
-58.202100000000002
 30
0.0
 10
-29.378500000000003
 20
-57.994600000000005
 30
0.0
 10
-29.378500000000003
 20
-57.994600000000005
 30
0.0
 10
-29.069100000000002
 20
-57.789000000000001
 30
0.0
 10
-28.819800000000001
 20
-57.488800000000005
 30
0.0
 10
-28.627000000000002
 20
-57.093900000000005
 30
0.0
 10
-28.627000000000002
 20
-57.093900000000005
 30
0.0
 10
-28.4359
 20
-56.700900000000004
 30
0.0
 10
-28.339500000000001
 20
-56.309699999999999
 30
0.0
 10
-28.339500000000001
 20
-55.9221
 30
0.0
 10
-28.339500000000001
 20
-55.9221
 30
0.0
 10
-28.339500000000001
 20
-55.485400000000006
 30
0.0
 10
-28.468600000000002
 20
-55.1342
 30
0.0
 10
-28.725200000000001
 20
-54.872199999999999
 30
0.0
 10
-28.725200000000001
 20
-54.872199999999999
 30
0.0
 10
-28.983600000000003
 20
-54.6083
 30
0.0
 10
-29.322000000000003
 20
-54.4773
 30
0.0
 10
-29.740600000000001
 20
-54.4773
 30
0.0
 10
-29.740600000000001
 20
-54.4773
 30
0.0
 10
-30.022600000000001
 20
-54.4773
 30
0.0
 10
-30.288300000000003
 20
-54.544600000000003
 30
0.0
 10
-30.537500000000001
 20
-54.679300000000005
 30
0.0
 10
-30.537500000000001
 20
-54.679300000000005
 30
0.0
 10
-30.788700000000002
 20
-54.813900000000004
 30
0.0
 10
-31.021600000000003
 20
-55.017700000000005
 30
0.0
 10
-31.239900000000002
 20
-55.287000000000006
 30
0.0
 10
-31.239900000000002
 20
-55.287000000000006
 30
0.0
 10
-31.239900000000002
 20
-55.287000000000006
 30
0.0
 10
-32.0824
 20
-55.2288
 30
0.0
 10
-32.0824
 20
-55.2288
 30
0.0
 10
-32.0824
 20
-55.2288
 30
0.0
 10
-32.0824
 20
-55.2288
 30
0.0
 10
-30.903300000000002
 20
-51.231100000000005
 30
0.0
 10
-30.903300000000002
 20
-51.231100000000005
 30
0.0
 10
-30.903300000000002
 20
-51.231100000000005
 30
0.0
 10
-30.903300000000002
 20
-51.231100000000005
 30
0.0
 10
-27.085700000000003
 20
-51.231100000000005
 30
0.0
 10
-27.085700000000003
 20
-51.231100000000005
 30
0.0
 10
-27.085700000000003
 20
-51.231100000000005
 30
0.0
 10
-27.085700000000003
 20
-51.231100000000005
 30
0.0
 10
-27.273200000000003
 20
-52.115400000000001
 30
0.0
 10
-27.273200000000003
 20
-52.115400000000001
 30
0.0
 10
-27.273200000000003
 20
-52.115400000000001
 30
0.0
 10
-27.273200000000003
 20
-52.115400000000001
 30
0.0
 10
-30.242800000000003
 20
-52.115400000000001
 30
0.0
 10
-30.242800000000003
 20
-52.115400000000001
 30
0.0
 10
-30.242800000000003
 20
-52.115400000000001
 30
0.0
 10
-30.242800000000003
 20
-52.115400000000001
 30
0.0
 10
-30.828700000000001
 20
-54.104300000000002
 30
0.0
 10
-30.828700000000001
 20
-54.104300000000002
 30
0.0
 10
-30.828700000000001
 20
-54.104300000000002
 30
0.0
 10
-30.608500000000003
 20
-53.944200000000002
 30
0.0
 10
-30.3811
 20
-53.824100000000001
 30
0.0
 10
-30.150000000000002
 20
-53.744
 30
0.0
 10
-30.150000000000002
 20
-53.744
 30
0.0
 10
-29.917100000000001
 20
-53.663900000000005
 30
0.0
 10
-29.6769
 20
-53.623900000000006
 30
0.0
 10
-29.4312
 20
-53.623900000000006
 30
0.0
 10
-29.4312
 20
-53.623900000000006
 30
0.0
 10
-28.834400000000002
 20
-53.623900000000006
 30
0.0
 10
-28.344900000000003
 20
-53.820399999999999
 30
0.0
 10
-27.961000000000002
 20
-54.215299999999999
 30
0.0
 10
-27.961000000000002
 20
-54.215299999999999
 30
0.0
 10
-27.577000000000002
 20
-54.610100000000003
 30
0.0
 10
-27.3842
 20
-55.150600000000004
 30
0.0
 10
-27.3842
 20
-55.836600000000004
 30
0.0
 10
-27.3842
 20
-55.836600000000004
 30
0.0
 10
-27.3842
 20
-56.437000000000005
 30
0.0
 10
-27.517000000000003
 20
-56.990200000000002
 30
0.0
 10
-27.779
 20
-57.497900000000001
 30
0.0
 10
-27.779
 20
-57.497900000000001
 30
0.0
 10
-28.042900000000003
 20
-58.003700000000002
 30
0.0
 10
-28.405000000000001
 20
-58.393100000000004
 30
0.0
 10
-28.863500000000002
 20
-58.664200000000001
 30
0.0
 10
-28.863500000000002
 20
-58.664200000000001
 30
0.0
 10
-29.323900000000002
 20
-58.937200000000004
 30
0.0
 10
-29.820600000000002
 20
-59.071800000000003
 30
0.0
 10
-30.353800000000003
 20
-59.071800000000003
 30
0.0
 10
-30.353800000000003
 20
-59.071800000000003
 30
0.0
 10
-30.801400000000001
 20
-59.071800000000003
 30
0.0
 10
-31.1981
 20
-58.971800000000002
 30
0.0
 10
-31.543800000000001
 20
-58.768000000000001
 30
0.0
 10
-31.543800000000001
 20
-58.768000000000001
 30
0.0
 10
-31.887700000000002
 20
-58.566000000000003
 30
0.0
 10
-32.146100000000004
 20
-58.287600000000005
 30
0.0
 10
-32.319000000000003
 20
-57.930900000000001
 30
0.0
 10
-32.319000000000003
 20
-57.930900000000001
 30
0.0
 10
-32.491800000000005
 20
-57.576100000000004
 30
0.0
 10
-32.577300000000001
 20
-57.221299999999999
 30
0.0
 10
-32.577300000000001
 20
-56.864600000000003
 30
0.0
 10
-32.577300000000001
 20
-56.864600000000003
 30
0.0
 10
-32.577300000000001
 20
-56.830100000000002
 30
0.0
 10
-32.575499999999998
 20
-56.777300000000004
 30
0.0
 10
-32.571899999999999
 20
-56.704500000000003
 30
0.0
  0
SPLINE
  5
1A9
100
AcDbEntity
  8
LC-007-003-----0
370
    20
100
AcDbSpline
210
0.0
220
0.0
230
1.0
 70
     0
 71
     3
 72
     8
 73
     4
 74
     0
 42
0.0000000001
 43
0.0000000001
 40
0.0
 40
0.0
 40
0.0
 40
0.0
 40
1.0
 40
1.0
 40
1.0
 40
1.0
 10
-7.9861000000000004
 20
-36.583300000000001
 30
0.0
 10
-7.9861000000000004
 20
-36.583300000000001
 30
0.0
 10
-7.9861000000000004
 20
-66.36930000000001
 30
0.0
 10
-7.9861000000000004
 20
-66.36930000000001
 30
0.0
  0
SPLINE
  5
1AA
100
AcDbEntity
  8
LC-007-003-----0
370
    20
100
AcDbSpline
210
0.0
220
0.0
230
1.0
 70
     0
 71
     3
 72
     8
 73
     4
 74
     0
 42
0.0000000001
 43
0.0000000001
 40
0.0
 40
0.0
 40
0.0
 40
0.0
 40
1.0
 40
1.0
 40
1.0
 40
1.0
 10
-60.460900000000002
 20
-34.623100000000001
 30
0.0
 10
-60.460900000000002
 20
-34.623100000000001
 30
0.0
 10
-60.460900000000002
 20
-66.36930000000001
 30
0.0
 10
-60.460900000000002
 20
-66.36930000000001
 30
0.0
  0
SPLINE
  5
1AB
100
AcDbEntity
  8
LC-007-003-----0
370
    20
100
AcDbSpline
210
0.0
220
0.0
230
1.0
 70
     0
 71
     3
 72
     8
 73
     4
 74
     0
 42
0.0000000001
 43
0.0000000001
 40
0.0
 40
0.0
 40
0.0
 40
0.0
 40
1.0
 40
1.0
 40
1.0
 40
1.0
 10
-18.6676
 20
-58.473700000000001
 30
0.0
 10
-18.6676
 20
-58.473700000000001
 30
0.0
 10
-7.9521000000000006
 20
-59.884500000000003
 30
0.0
 10
-7.9521000000000006
 20
-59.884500000000003
 30
0.0
  0
SPLINE
  5
1AC
100
AcDbEntity
  8
LC-007-003-----0
370
    20
100
AcDbSpline
210
0.0
220
0.0
230
1.0
 70
     0
 71
     3
 72
     8
 73
     4
 74
     0
 42
0.0000000001
 43
0.0000000001
 40
0.0
 40
0.0
 40
0.0
 40
0.0
 40
1.0
 40
1.0
 40
1.0
 40
1.0
 10
-7.9521000000000006
 20
-59.884500000000003
 30
0.0
 10
-7.9521000000000006
 20
-59.884500000000003
 30
0.0
 10
-18.6676
 20
-61.295300000000005
 30
0.0
 10
-18.6676
 20
-61.295300000000005
 30
0.0
  0
SPLINE
  5
1AD
100
AcDbEntity
  8
LC-007-003-----0
370
    20
100
AcDbSpline
210
0.0
220
0.0
230
1.0
 70
     0
 71
     3
 72
     8
 73
     4
 74
     0
 42
0.0000000001
 43
0.0000000001
 40
0.0
 40
0.0
 40
0.0
 40
0.0
 40
1.0
 40
1.0
 40
1.0
 40
1.0
 10
-18.6676
 20
-61.295300000000005
 30
0.0
 10
-18.6676
 20
-61.295300000000005
 30
0.0
 10
-18.6676
 20
-58.473700000000001
 30
0.0
 10
-18.6676
 20
-58.473700000000001
 30
0.0
  0
SPLINE
  5
1AE
100
AcDbEntity
  8
LC-007-003-----0
370
    20
100
AcDbSpline
210
0.0
220
0.0
230
1.0
 70
     0
 71
     3
 72
     8
 73
     4
 74
     0
 42
0.0000000001
 43
0.0000000001
 40
0.0
 40
0.0
 40
0.0
 40
0.0
 40
1.0
 40
1.0
 40
1.0
 40
1.0
 10
-18.691600000000001
 20
-58.840600000000002
 30
0.0
 10
-18.691600000000001
 20
-58.840600000000002
 30
0.0
 10
-10.7621
 20
-59.884500000000003
 30
0.0
 10
-10.7621
 20
-59.884500000000003
 30
0.0
  0
SPLINE
  5
1AF
100
AcDbEntity
  8
LC-007-003-----0
370
    20
100
AcDbSpline
210
0.0
220
0.0
230
1.0
 70
     0
 71
     3
 72
     8
 73
     4
 74
     0
 42
0.0000000001
 43
0.0000000001
 40
0.0
 40
0.0
 40
0.0
 40
0.0
 40
1.0
 40
1.0
 40
1.0
 40
1.0
 10
-10.7621
 20
-59.884500000000003
 30
0.0
 10
-10.7621
 20
-59.884500000000003
 30
0.0
 10
-18.691600000000001
 20
-60.928400000000003
 30
0.0
 10
-18.691600000000001
 20
-60.928400000000003
 30
0.0
  0
SPLINE
  5
1B0
100
AcDbEntity
  8
LC-007-003-----0
370
    20
100
AcDbSpline
210
0.0
220
0.0
230
1.0
 70
     0
 71
     3
 72
     8
 73
     4
 74
     0
 42
0.0000000001
 43
0.0000000001
 40
0.0
 40
0.0
 40
0.0
 40
0.0
 40
1.0
 40
1.0
 40
1.0
 40
1.0
 10
-18.715600000000002
 20
-59.207300000000004
 30
0.0
 10
-18.715600000000002
 20
-59.207300000000004
 30
0.0
 10
-13.5722
 20
-59.884500000000003
 30
0.0
 10
-13.5722
 20
-59.884500000000003
 30
0.0
  0
SPLINE
  5
1B1
100
AcDbEntity
  8
LC-007-003-----0
370
    20
100
AcDbSpline
210
0.0
220
0.0
230
1.0
 70
     0
 71
     3
 72
     8
 73
     4
 74
     0
 42
0.0000000001
 43
0.0000000001
 40
0.0
 40
0.0
 40
0.0
 40
0.0
 40
1.0
 40
1.0
 40
1.0
 40
1.0
 10
-13.5722
 20
-59.884500000000003
 30
0.0
 10
-13.5722
 20
-59.884500000000003
 30
0.0
 10
-18.715600000000002
 20
-60.561700000000002
 30
0.0
 10
-18.715600000000002
 20
-60.561700000000002
 30
0.0
  0
SPLINE
  5
1B2
100
AcDbEntity
  8
LC-007-003-----0
370
    20
100
AcDbSpline
210
0.0
220
0.0
230
1.0
 70
     0
 71
     3
 72
     8
 73
     4
 74
     0
 42
0.0000000001
 43
0.0000000001
 40
0.0
 40
0.0
 40
0.0
 40
0.0
 40
1.0
 40
1.0
 40
1.0
 40
1.0
 10
-18.739599999999999
 20
-59.574200000000005
 30
0.0
 10
-18.739599999999999
 20
-59.574200000000005
 30
0.0
 10
-16.382200000000001
 20
-59.884500000000003
 30
0.0
 10
-16.382200000000001
 20
-59.884500000000003
 30
0.0
  0
SPLINE
  5
1B3
100
AcDbEntity
  8
LC-007-003-----0
370
    20
100
AcDbSpline
210
0.0
220
0.0
230
1.0
 70
     0
 71
     3
 72
     8
 73
     4
 74
     0
 42
0.0000000001
 43
0.0000000001
 40
0.0
 40
0.0
 40
0.0
 40
0.0
 40
1.0
 40
1.0
 40
1.0
 40
1.0
 10
-16.382200000000001
 20
-59.884500000000003
 30
0.0
 10
-16.382200000000001
 20
-59.884500000000003
 30
0.0
 10
-18.739599999999999
 20
-60.194800000000001
 30
0.0
 10
-18.739599999999999
 20
-60.194800000000001
 30
0.0
  0
SPLINE
  5
1B4
100
AcDbEntity
  8
LC-007-003-----0
370
    20
100
AcDbSpline
210
0.0
220
0.0
230
1.0
 70
     0
 71
     3
 72
     8
 73
     4
 74
     0
 42
0.0000000001
 43
0.0000000001
 40
0.0
 40
0.0
 40
0.0
 40
0.0
 40
1.0
 40
1.0
 40
1.0
 40
1.0
 10
-49.797000000000004
 20
-61.2288
 30
0.0
 10
-49.797000000000004
 20
-61.2288
 30
0.0
 10
-60.512500000000003
 20
-59.818000000000005
 30
0.0
 10
-60.512500000000003
 20
-59.818000000000005
 30
0.0
  0
SPLINE
  5
1B5
100
AcDbEntity
  8
LC-007-003-----0
370
    20
100
AcDbSpline
210
0.0
220
0.0
230
1.0
 70
     0
 71
     3
 72
     8
 73
     4
 74
     0
 42
0.0000000001
 43
0.0000000001
 40
0.0
 40
0.0
 40
0.0
 40
0.0
 40
1.0
 40
1.0
 40
1.0
 40
1.0
 10
-60.512500000000003
 20
-59.818000000000005
 30
0.0
 10
-60.512500000000003
 20
-59.818000000000005
 30
0.0
 10
-49.797000000000004
 20
-58.407200000000003
 30
0.0
 10
-49.797000000000004
 20
-58.407200000000003
 30
0.0
  0
SPLINE
  5
1B6
100
AcDbEntity
  8
LC-007-003-----0
370
    20
100
AcDbSpline
210
0.0
220
0.0
230
1.0
 70
     0
 71
     3
 72
     8
 73
     4
 74
     0
 42
0.0000000001
 43
0.0000000001
 40
0.0
 40
0.0
 40
0.0
 40
0.0
 40
1.0
 40
1.0
 40
1.0
 40
1.0
 10
-49.797000000000004
 20
-58.407200000000003
 30
0.0
 10
-49.797000000000004
 20
-58.407200000000003
 30
0.0
 10
-49.797000000000004
 20
-61.2288
 30
0.0
 10
-49.797000000000004
 20
-61.2288
 30
0.0
  0
SPLINE
  5
1B7
100
AcDbEntity
  8
LC-007-003-----0
370
    20
100
AcDbSpline
210
0.0
220
0.0
230
1.0
 70
     0
 71
     3
 72
     8
 73
     4
 74
     0
 42
0.0000000001
 43
0.0000000001
 40
0.0
 40
0.0
 40
0.0
 40
0.0
 40
1.0
 40
1.0
 40
1.0
 40
1.0
 10
-49.7729
 20
-60.861900000000006
 30
0.0
 10
-49.7729
 20
-60.861900000000006
 30
0.0
 10
-57.702400000000004
 20
-59.818000000000005
 30
0.0
 10
-57.702400000000004
 20
-59.818000000000005
 30
0.0
  0
SPLINE
  5
1B8
100
AcDbEntity
  8
LC-007-003-----0
370
    20
100
AcDbSpline
210
0.0
220
0.0
230
1.0
 70
     0
 71
     3
 72
     8
 73
     4
 74
     0
 42
0.0000000001
 43
0.0000000001
 40
0.0
 40
0.0
 40
0.0
 40
0.0
 40
1.0
 40
1.0
 40
1.0
 40
1.0
 10
-57.702400000000004
 20
-59.818000000000005
 30
0.0
 10
-57.702400000000004
 20
-59.818000000000005
 30
0.0
 10
-49.7729
 20
-58.774100000000004
 30
0.0
 10
-49.7729
 20
-58.774100000000004
 30
0.0
  0
SPLINE
  5
1B9
100
AcDbEntity
  8
LC-007-003-----0
370
    20
100
AcDbSpline
210
0.0
220
0.0
230
1.0
 70
     0
 71
     3
 72
     8
 73
     4
 74
     0
 42
0.0000000001
 43
0.0000000001
 40
0.0
 40
0.0
 40
0.0
 40
0.0
 40
1.0
 40
1.0
 40
1.0
 40
1.0
 10
-49.748800000000003
 20
-60.495200000000004
 30
0.0
 10
-49.748800000000003
 20
-60.495200000000004
 30
0.0
 10
-54.892300000000006
 20
-59.818000000000005
 30
0.0
 10
-54.892300000000006
 20
-59.818000000000005
 30
0.0
  0
SPLINE
  5
1BA
100
AcDbEntity
  8
LC-007-003-----0
370
    20
100
AcDbSpline
210
0.0
220
0.0
230
1.0
 70
     0
 71
     3
 72
     8
 73
     4
 74
     0
 42
0.0000000001
 43
0.0000000001
 40
0.0
 40
0.0
 40
0.0
 40
0.0
 40
1.0
 40
1.0
 40
1.0
 40
1.0
 10
-54.892300000000006
 20
-59.818000000000005
 30
0.0
 10
-54.892300000000006
 20
-59.818000000000005
 30
0.0
 10
-49.748800000000003
 20
-59.140800000000006
 30
0.0
 10
-49.748800000000003
 20
-59.140800000000006
 30
0.0
  0
SPLINE
  5
1BB
100
AcDbEntity
  8
LC-007-003-----0
370
    20
100
AcDbSpline
210
0.0
220
0.0
230
1.0
 70
     0
 71
     3
 72
     8
 73
     4
 74
     0
 42
0.0000000001
 43
0.0000000001
 40
0.0
 40
0.0
 40
0.0
 40
0.0
 40
1.0
 40
1.0
 40
1.0
 40
1.0
 10
-49.724800000000002
 20
-60.128300000000003
 30
0.0
 10
-49.724800000000002
 20
-60.128300000000003
 30
0.0
 10
-52.0822
 20
-59.818000000000005
 30
0.0
 10
-52.0822
 20
-59.818000000000005
 30
0.0
  0
SPLINE
  5
1BC
100
AcDbEntity
  8
LC-007-003-----0
370
    20
100
AcDbSpline
210
0.0
220
0.0
230
1.0
 70
     0
 71
     3
 72
     8
 73
     4
 74
     0
 42
0.0000000001
 43
0.0000000001
 40
0.0
 40
0.0
 40
0.0
 40
0.0
 40
1.0
 40
1.0
 40
1.0
 40
1.0
 10
-52.0822
 20
-59.818000000000005
 30
0.0
 10
-52.0822
 20
-59.818000000000005
 30
0.0
 10
-49.724800000000002
 20
-59.5077
 30
0.0
 10
-49.724800000000002
 20
-59.5077
 30
0.0
  0
SPLINE
  5
1BD
100
AcDbEntity
  8
LC-007-003-----0
370
    20
100
AcDbSpline
210
0.0
220
0.0
230
1.0
 70
     0
 71
     3
 72
     8
 73
     4
 74
     0
 42
0.0000000001
 43
0.0000000001
 40
0.0
 40
0.0
 40
0.0
 40
0.0
 40
1.0
 40
1.0
 40
1.0
 40
1.0
 10
-8.6673000000000009
 20
-59.884500000000003
 30
0.0
 10
-8.6673000000000009
 20
-59.884500000000003
 30
0.0
 10
-60.460900000000002
 20
-59.884500000000003
 30
0.0
 10
-60.460900000000002
 20
-59.884500000000003
 30
0.0
  0
ENDSEC
  0
SECTION
  2
OBJECTS
  0
DICTIONARY
  5
19
100
AcDbDictionary
280
     0
281
     1
  3
ACAD_GROUP
350
1A
  3
ACAD_MLINESTYLE
350
1B
  3
ACAD_LAYOUT
350
1E
  3
ACAD_PLOTSETTINGS
350
22
  3
ACAD_PLOTSTYLENAME
350
1F
  3
ACAD_WIPEOUT_VARS
350
23
  0
DICTIONARY
  5
1A
102
{ACAD_REACTORS
330
19
102
}
100
AcDbDictionary
280
     0
281
     1
  0
DICTIONARY
  5
1B
102
{ACAD_REACTORS
330
19
102
}
100
AcDbDictionary
280
     0
281
     1
  3
Standard
350
1C
  0
MLINESTYLE
  5
1C
102
{ACAD_REACTORS
330
1B
102
}
100
AcDbMlineStyle
  2
Standard
 70
     0
  3

 62
     0
 51
90.0
 52
90.0
 71
     2
 49
0.5
 62
   256
  6
BYLAYER
 49
-0.5
 62
   256
  6
BYLAYER
  0
ACDBDICTIONARYWDFLT
  5
1F
102
{ACAD_REACTORS
330
19
102
}
100
AcDbDictionary
281
     1
  3
Normal
350
1D
100
AcDbDictionaryWithDefault
340
1D
  0
ACDBPLACEHOLDER
  5
1D
102
{ACAD_REACTORS
330
1F
102
}
  0
LAYOUT
  5
20
102
{ACAD_REACTORS
330
1E
102
}
100
AcDbPlotSettings
  1

  2

  4

  6

 40
0.0
 41
0.0
 42
0.0
 43
0.0
 44
0.0
 45
0.0
 46
0.0
 47
0.0
 48
0.0
 49
0.0
140
0.0
141
0.0
142
1.0
143
1.0
 70
  1024
 72
     0
 73
     0
 74
     0
  7

 75
     0
147
1.0
148
0.0
149
0.0
100
AcDbLayout
  1
Model
 70
     0
 71
     0
 10
0.0
 20
0.0
 11
0.0
 21
0.0
 12
0.0
 22
0.0
 32
0.0
 14
0.0
 24
0.0
 34
0.0
 15
0.0
 25
0.0
 35
0.0
146
0.0
 13
0.0
 23
0.0
 33
0.0
 16
0.0
 26
0.0
 36
0.0
 17
0.0
 27
0.0
 37
0.0
 76
     0
330
A
331
0
345
0
346
0
  0
LAYOUT
  5
21
102
{ACAD_REACTORS
330
1E
102
}
100
AcDbPlotSettings
  1

  2

  4

  6

 40
0.0
 41
0.0
 42
0.0
 43
0.0
 44
0.0
 45
0.0
 46
0.0
 47
0.0
 48
0.0
 49
0.0
140
0.0
141
0.0
142
1.0
143
1.0
 70
     0
 72
     0
 73
     0
 74
     0
  7

 75
     0
147
1.0
148
0.0
149
0.0
100
AcDbLayout
  1
Layout1
 70
     0
 71
     0
 10
0.0
 20
0.0
 11
0.0
 21
0.0
 12
0.0
 22
0.0
 32
0.0
 14
0.0
 24
0.0
 34
0.0
 15
0.0
 25
0.0
 35
0.0
146
0.0
 13
0.0
 23
0.0
 33
0.0
 16
0.0
 26
0.0
 36
0.0
 17
0.0
 27
0.0
 37
0.0
 76
     0
330
B
331
0
345
0
346
0
  0
DICTIONARY
  5
1E
102
{ACAD_REACTORS
330
19
102
}
100
AcDbDictionary
280
     0
281
     1
  3
Layout1
350
21
  3
Model
350
20
  0
DICTIONARY
  5
22
102
{ACAD_REACTORS
330
19
102
}
100
AcDbDictionary
280
     0
281
     1
  0
WIPEOUTVARIABLES
  5
23
100
AcDbWipeoutVariables
 70
     1
  0
ENDSEC
  0
EOF
