  0
SECTION
  2
HEADER
  9
$ACADVER
  1
AC1018
  9
$ACADMAINTVER
 70
     0
  9
$DWGCODEPAGE
  3
ANSI_1252
  9
$INSBASE
 10
0.0
 20
0.0
 30
0.0
  9
$EXTMIN
 10
-40.9483
 20
-24.8278
 30
0.0
  9
$EXTMAX
 10
6.4753
 20
65.1172
 30
0.0
  9
$LIMMIN
 10
0.0
 20
0.0
  9
$LIMMAX
 10
12.0
 20
9.0
  9
$ORTHOMODE
 70
     0
  9
$REGENMODE
 70
     1
  9
$FILLMODE
 70
     1
  9
$QTEXTMODE
 70
     0
  9
$MIRRTEXT
 70
     1
  9
$LTSCALE
 40
1.0
  9
$ATTMODE
 70
     1
  9
$TEXTSIZE
 40
0.2
  9
$TRACEWID
 40
0.05
  9
$TEXTSTYLE
  7
Standard
  9
$CLAYER
  8
0
  9
$CELTYPE
  6
ByLayer
  9
$CECOLOR
 62
   256
  9
$CELTSCALE
 40
1.0
  9
$DISPSILH
 70
     0
  9
$DIMSCALE
 40
1.0
  9
$DIMASZ
 40
0.18
  9
$DIMEXO
 40
0.0625
  9
$DIMDLI
 40
0.38
  9
$DIMRND
 40
0.0
  9
$DIMDLE
 40
0.0
  9
$DIMEXE
 40
0.18
  9
$DIMTP
 40
0.0
  9
$DIMTM
 40
0.0
  9
$DIMTXT
 40
0.18
  9
$DIMCEN
 40
0.09
  9
$DIMTSZ
 40
0.0
  9
$DIMTOL
 70
     0
  9
$DIMLIM
 70
     0
  9
$DIMTIH
 70
     1
  9
$DIMTOH
 70
     1
  9
$DIMSE1
 70
     0
  9
$DIMSE2
 70
     0
  9
$DIMTAD
 70
     0
  9
$DIMZIN
 70
     0
  9
$DIMBLK
  1

  9
$DIMASO
 70
     1
  9
$DIMSHO
 70
     1
  9
$DIMPOST
  1

  9
$DIMAPOST
  1

  9
$DIMALT
 70
     0
  9
$DIMALTD
 70
     2
  9
$DIMALTF
 40
25.4
  9
$DIMLFAC
 40
1.0
  9
$DIMTOFL
 70
     0
  9
$DIMTVP
 40
0.0
  9
$DIMTIX
 70
     0
  9
$DIMSOXD
 70
     0
  9
$DIMSAH
 70
     0
  9
$DIMBLK1
  1

  9
$DIMBLK2
  1

  9
$DIMSTYLE
  2
Standard
  9
$DIMCLRD
 70
     0
  9
$DIMCLRE
 70
     0
  9
$DIMCLRT
 70
     0
  9
$DIMTFAC
 40
1.0
  9
$DIMGAP
 40
0.09
  9
$DIMJUST
 70
     0
  9
$DIMSD1
 70
     0
  9
$DIMSD2
 70
     0
  9
$DIMTOLJ
 70
     1
  9
$DIMTZIN
 70
     0
  9
$DIMALTZ
 70
     0
  9
$DIMALTTZ
 70
     0
  9
$DIMUPT
 70
     0
  9
$DIMDEC
 70
     4
  9
$DIMTDEC
 70
     4
  9
$DIMALTU
 70
     2
  9
$DIMALTTD
 70
     2
  9
$DIMTXSTY
  7
Standard
  9
$DIMAUNIT
 70
     0
  9
$DIMADEC
 70
     0
  9
$DIMALTRND
 40
0.0
  9
$DIMAZIN
 70
     0
  9
$DIMDSEP
 70
    46
  9
$DIMATFIT
 70
     3
  9
$DIMFRAC
 70
     0
  9
$DIMLDRBLK
  1

  9
$DIMLUNIT
 70
     2
  9
$DIMLWD
 70
    -2
  9
$DIMLWE
 70
    -2
  9
$DIMTMOVE
 70
     0
  9
$LUNITS
 70
     2
  9
$LUPREC
 70
     4
  9
$SKETCHINC
 40
0.1
  9
$FILLETRAD
 40
0.5
  9
$AUNITS
 70
     0
  9
$AUPREC
 70
     0
  9
$MENU
  1
.
  9
$ELEVATION
 40
0.0
  9
$PELEVATION
 40
0.0
  9
$THICKNESS
 40
0.0
  9
$LIMCHECK
 70
     0
  9
$CHAMFERA
 40
0.5
  9
$CHAMFERB
 40
0.5
  9
$CHAMFERC
 40
1.0
  9
$CHAMFERD
 40
0.0
  9
$SKPOLY
 70
     0
  9
$TDCREATE
 40
2454775.269188426
  9
$TDUCREATE
 40
2454775.22752176
  9
$TDUPDATE
 40
2454775.269188438
  9
$TDUUPDATE
 40
2454775.227521771
  9
$TDINDWG
 40
0.0000000116
  9
$TDUSRTIMER
 40
0.0000000116
  9
$USRTIMER
 70
     1
  9
$ANGBASE
 50
0.0
  9
$ANGDIR
 70
     0
  9
$PDMODE
 70
     0
  9
$PDSIZE
 40
0.0
  9
$PLINEWID
 40
0.0
  9
$SPLFRAME
 70
     0
  9
$SPLINETYPE
 70
     6
  9
$SPLINESEGS
 70
     8
  9
$HANDSEED
  5
103
  9
$SURFTAB1
 70
     6
  9
$SURFTAB2
 70
     6
  9
$SURFTYPE
 70
     6
  9
$SURFU
 70
     6
  9
$SURFV
 70
     6
  9
$UCSBASE
  2

  9
$UCSNAME
  2

  9
$UCSORG
 10
0.0
 20
0.0
 30
0.0
  9
$UCSXDIR
 10
1.0
 20
0.0
 30
0.0
  9
$UCSYDIR
 10
0.0
 20
1.0
 30
0.0
  9
$UCSORTHOREF
  2

  9
$UCSORTHOVIEW
 70
     0
  9
$UCSORGTOP
 10
0.0
 20
0.0
 30
0.0
  9
$UCSORGBOTTOM
 10
0.0
 20
0.0
 30
0.0
  9
$UCSORGLEFT
 10
0.0
 20
0.0
 30
0.0
  9
$UCSORGRIGHT
 10
0.0
 20
0.0
 30
0.0
  9
$UCSORGFRONT
 10
0.0
 20
0.0
 30
0.0
  9
$UCSORGBACK
 10
0.0
 20
0.0
 30
0.0
  9
$PUCSBASE
  2

  9
$PUCSNAME
  2

  9
$PUCSORG
 10
0.0
 20
0.0
 30
0.0
  9
$PUCSXDIR
 10
1.0
 20
0.0
 30
0.0
  9
$PUCSYDIR
 10
0.0
 20
1.0
 30
0.0
  9
$PUCSORTHOREF
  2

  9
$PUCSORTHOVIEW
 70
     0
  9
$PUCSORGTOP
 10
0.0
 20
0.0
 30
0.0
  9
$PUCSORGBOTTOM
 10
0.0
 20
0.0
 30
0.0
  9
$PUCSORGLEFT
 10
0.0
 20
0.0
 30
0.0
  9
$PUCSORGRIGHT
 10
0.0
 20
0.0
 30
0.0
  9
$PUCSORGFRONT
 10
0.0
 20
0.0
 30
0.0
  9
$PUCSORGBACK
 10
0.0
 20
0.0
 30
0.0
  9
$USERI1
 70
     0
  9
$USERI2
 70
     0
  9
$USERI3
 70
     0
  9
$USERI4
 70
     0
  9
$USERI5
 70
     0
  9
$USERR1
 40
0.0
  9
$USERR2
 40
0.0
  9
$USERR3
 40
0.0
  9
$USERR4
 40
0.0
  9
$USERR5
 40
0.0
  9
$WORLDVIEW
 70
     1
  9
$SHADEDGE
 70
     3
  9
$SHADEDIF
 70
    70
  9
$TILEMODE
 70
     1
  9
$MAXACTVP
 70
    64
  9
$PINSBASE
 10
0.0
 20
0.0
 30
0.0
  9
$PLIMCHECK
 70
     0
  9
$PEXTMIN
 10
1.000000000000000E+20
 20
1.000000000000000E+20
 30
1.000000000000000E+20
  9
$PEXTMAX
 10
-1.000000000000000E+20
 20
-1.000000000000000E+20
 30
-1.000000000000000E+20
  9
$PLIMMIN
 10
0.0
 20
0.0
  9
$PLIMMAX
 10
12.0
 20
9.0
  9
$UNITMODE
 70
     0
  9
$VISRETAIN
 70
     1
  9
$PLINEGEN
 70
     0
  9
$PSLTSCALE
 70
     1
  9
$TREEDEPTH
 70
  3020
  9
$CMLSTYLE
  2
Standard
  9
$CMLJUST
 70
     0
  9
$CMLSCALE
 40
1.0
  9
$PROXYGRAPHICS
 70
     1
  9
$MEASUREMENT
 70
     0
  9
$CELWEIGHT
370
    -1
  9
$ENDCAPS
280
     0
  9
$JOINSTYLE
280
     0
  9
$LWDISPLAY
290
     0
  9
$INSUNITS
 70
     4
  9
$HYPERLINKBASE
  1

  9
$STYLESHEET
  1

  9
$XEDIT
290
     1
  9
$CEPSNTYPE
380
     0
  9
$PSTYLEMODE
290
     0
  9
$FINGERPRINTGUID
  2
{FAEB1C30-E019-11D5-929B-00C0DF256EC4}
  9
$VERSIONGUID
  2
{FAEB1C32-E019-11D5-929B-00C0DF256EC4}
  9
$EXTNAMES
290
     1
  9
$PSVPSCALE
 40
0.0
  9
$OLESTARTUP
290
     0
  9
$SORTENTS
280
   127
  9
$INDEXCTL
280
     0
  9
$HIDETEXT
280
     1
  9
$XCLIPFRAME
290
     0
  9
$HALOGAP
280
     0
  9
$OBSCOLOR
 70
   257
  9
$OBSLTYPE
280
     0
  9
$INTERSECTIONDISPLAY
280
     0
  9
$INTERSECTIONCOLOR
 70
   257
  9
$DIMASSOC
280
     2
  9
$PROJECTNAME
  1

  0
ENDSEC
  0
SECTION
  2
CLASSES
  0
CLASS
  1
ACDBDICTIONARYWDFLT
  2
AcDbDictionaryWithDefault
  3
ObjectDBX Classes
 90
        0
 91
        1
280
     0
281
     0
  0
ENDSEC
  0
SECTION
  2
TABLES
  0
TABLE
  2
VPORT
  5
8
330
0
100
AcDbSymbolTable
 70
     2
  0
VPORT
  5
29
330
8
100
AcDbSymbolTableRecord
100
AcDbViewportTableRecord
  2
*Active
 70
     0
 10
0.0
 20
0.0
 11
1.0
 21
1.0
 12
10.42990654205607
 22
4.5
 13
0.0
 23
0.0
 14
0.5
 24
0.5
 15
0.5
 25
0.5
 16
0.0
 26
0.0
 36
1.0
 17
0.0
 27
0.0
 37
0.0
 40
9.0
 41
1.972972972850329
 42
50.0
 43
0.0
 44
0.0
 50
0.0
 51
0.0
 71
     0
 72
   100
 73
     1
 74
     3
 75
     0
 76
     0
 77
     0
 78
     0
281
     0
 65
     1
110
0.0
120
0.0
130
0.0
111
1.0
121
0.0
131
0.0
112
0.0
122
1.0
132
0.0
 79
     0
146
0.0
  0
ENDTAB
  0
TABLE
  2
LTYPE
  5
5
330
0
100
AcDbSymbolTable
 70
     2
  0
LTYPE
  5
14
330
5
100
AcDbSymbolTableRecord
100
AcDbLinetypeTableRecord
  2
ByBlock
 70
     0
  3

 72
    65
 73
     0
 40
0.0
  0
LTYPE
  5
15
330
5
100
AcDbSymbolTableRecord
100
AcDbLinetypeTableRecord
  2
ByLayer
 70
     0
  3

 72
    65
 73
     0
 40
0.0
  0
LTYPE
  5
16
330
5
100
AcDbSymbolTableRecord
100
AcDbLinetypeTableRecord
  2
Continuous
 70
     0
  3
Solid line
 72
    65
 73
     0
 40
0.0
  0
LTYPE
  5
102
330
5
100
AcDbSymbolTableRecord
100
AcDbLinetypeTableRecord
  2
New Line1
 70
     0
  3

 72
    65
 73
     4
 40
20.2
 49
12.7
 74
     4
 75
     0
340
0
 46
1.0
 50
0.0
 44
0.0
 45
0.0
 49
-2.5
 74
     4
 75
     0
340
0
 46
1.0
 50
0.0
 44
0.0
 45
0.0
 49
2.5
 74
     4
 75
     0
340
0
 46
1.0
 50
0.0
 44
0.0
 45
0.0
 49
-2.5
 74
     4
 75
     0
340
0
 46
1.0
 50
0.0
 44
0.0
 45
0.0
  0
ENDTAB
  0
TABLE
  2
LAYER
  5
2
330
0
100
AcDbSymbolTable
 70
     2
  0
LAYER
  5
10
330
2
100
AcDbSymbolTableRecord
100
AcDbLayerTableRecord
  2
0
 70
     0
 62
     7
  6
Continuous
370
    -3
390
F
  0
LAYER
  5
2B
330
2
100
AcDbSymbolTableRecord
100
AcDbLayerTableRecord
  2
LC-012-007-KH--0
 70
     0
 62
     7
  6
Continuous
370
    -3
390
F
  0
ENDTAB
  0
TABLE
  2
STYLE
  5
3
330
0
100
AcDbSymbolTable
 70
     1
  0
STYLE
  5
11
330
3
100
AcDbSymbolTableRecord
100
AcDbTextStyleTableRecord
  2
Standard
 70
     0
 40
0.0
 41
1.0
 50
0.0
 71
     0
 42
0.2
  3
txt
  4

  0
ENDTAB
  0
TABLE
  2
VIEW
  5
6
330
0
100
AcDbSymbolTable
 70
     0
  0
ENDTAB
  0
TABLE
  2
UCS
  5
7
330
0
100
AcDbSymbolTable
 70
     0
  0
ENDTAB
  0
TABLE
  2
APPID
  5
9
330
0
100
AcDbSymbolTable
 70
     2
  0
APPID
  5
12
330
9
100
AcDbSymbolTableRecord
100
AcDbRegAppTableRecord
  2
ACAD
 70
     0
  0
APPID
  5
2A
330
9
100
AcDbSymbolTableRecord
100
AcDbRegAppTableRecord
  2
ODA
 70
     0
  0
ENDTAB
  0
TABLE
  2
DIMSTYLE
  5
A
330
0
100
AcDbSymbolTable
 70
     1
100
AcDbDimStyleTable
  0
DIMSTYLE
105
27
330
A
100
AcDbSymbolTableRecord
100
AcDbDimStyleTableRecord
  2
Standard
 70
     0
340
11
  0
ENDTAB
  0
TABLE
  2
BLOCK_RECORD
  5
1
330
0
100
AcDbSymbolTable
 70
     1
  0
BLOCK_RECORD
  5
1F
330
1
100
AcDbSymbolTableRecord
100
AcDbBlockTableRecord
  2
*Model_Space
340
22
  0
BLOCK_RECORD
  5
1B
330
1
100
AcDbSymbolTableRecord
100
AcDbBlockTableRecord
  2
*Paper_Space
340
1E
  0
BLOCK_RECORD
  5
23
330
1
100
AcDbSymbolTableRecord
100
AcDbBlockTableRecord
  2
*Paper_Space0
340
26
  0
ENDTAB
  0
ENDSEC
  0
SECTION
  2
BLOCKS
  0
BLOCK
  5
20
330
1F
100
AcDbEntity
  8
0
100
AcDbBlockBegin
  2
*Model_Space
 70
     0
 71
     0
 10
0.0
 20
0.0
 30
0.0
  3
*Model_Space
  1

  0
ENDBLK
  5
21
330
1F
100
AcDbEntity
  8
0
100
AcDbBlockEnd
  0
BLOCK
  5
1C
330
1B
100
AcDbEntity
 67
     1
  8
0
100
AcDbBlockBegin
  2
*Paper_Space
 70
     0
 71
     0
 10
0.0
 20
0.0
 30
0.0
  3
*Paper_Space
  1

  0
ENDBLK
  5
1D
330
1B
100
AcDbEntity
 67
     1
  8
0
100
AcDbBlockEnd
  0
BLOCK
  5
24
330
23
100
AcDbEntity
  8
0
100
AcDbBlockBegin
  2
*Paper_Space0
 70
     0
 71
     0
 10
0.0
 20
0.0
 30
0.0
  3
*Paper_Space0
  1

  0
ENDBLK
  5
25
330
23
100
AcDbEntity
  8
0
100
AcDbBlockEnd
  0
ENDSEC
  0
SECTION
  2
ENTITIES
  0
SPLINE
  5
2C
330
1F
100
AcDbEntity
  8
LC-012-007-KH--0
 62
   250
100
AcDbSpline
210
0.0
220
0.0
230
1.0
 70
    11
 71
     3
 72
    52
 73
    48
 74
     0
 42
0.0000000001
 43
0.0000000001
 40
0.0
 40
0.0
 40
0.0
 40
0.0
 40
0.0833333333333333
 40
0.0833333333333333
 40
0.0833333333333333
 40
0.0833333333333333
 40
0.1666666666666667
 40
0.1666666666666667
 40
0.1666666666666667
 40
0.1666666666666667
 40
0.25
 40
0.25
 40
0.25
 40
0.25
 40
0.3333333333333333
 40
0.3333333333333333
 40
0.3333333333333333
 40
0.3333333333333333
 40
0.4166666666666666
 40
0.4166666666666666
 40
0.4166666666666666
 40
0.4166666666666666
 40
0.4999999999999999
 40
0.4999999999999999
 40
0.4999999999999999
 40
0.4999999999999999
 40
0.5833333333333333
 40
0.5833333333333333
 40
0.5833333333333333
 40
0.5833333333333333
 40
0.6666666666666666
 40
0.6666666666666666
 40
0.6666666666666666
 40
0.6666666666666666
 40
0.75
 40
0.75
 40
0.75
 40
0.75
 40
0.8333333333333334
 40
0.8333333333333334
 40
0.8333333333333334
 40
0.8333333333333334
 40
0.9166666666666667
 40
0.9166666666666667
 40
0.9166666666666667
 40
0.9166666666666667
 40
1.0
 40
1.0
 40
1.0
 40
1.0
 10
-32.2164
 20
-15.8004
 30
0.0
 10
-32.2164
 20
-15.8004
 30
0.0
 10
-40.8024
 20
-14.0093
 30
0.0
 10
-40.8024
 20
-14.0093
 30
0.0
 10
-40.8024
 20
-14.0093
 30
0.0
 10
-40.8024
 20
-14.0093
 30
0.0
 10
-40.8024
 20
-11.4205
 30
0.0
 10
-40.8024
 20
-11.4205
 30
0.0
 10
-40.8024
 20
-11.4205
 30
0.0
 10
-40.8024
 20
-10.7988
 30
0.0
 10
-40.7564
 20
-10.325
 30
0.0
 10
-40.6685
 20
-9.997200000000001
 30
0.0
 10
-40.6685
 20
-9.997200000000001
 30
0.0
 10
-40.5465
 20
-9.529400000000001
 30
0.0
 10
-40.3306
 20
-9.1296
 30
0.0
 10
-40.0208
 20
-8.7957
 30
0.0
 10
-40.0208
 20
-8.7957
 30
0.0
 10
-39.7109
 20
-8.463900000000001
 30
0.0
 10
-39.3231
 20
-8.214
 30
0.0
 10
-38.8573
 20
-8.046100000000001
 30
0.0
 10
-38.8573
 20
-8.046100000000001
 30
0.0
 10
-38.3935
 20
-7.880100000000001
 30
0.0
 10
-37.8718
 20
-7.796200000000001
 30
0.0
 10
-37.294
 20
-7.796200000000001
 30
0.0
 10
-37.294
 20
-7.796200000000001
 30
0.0
 10
-36.6024
 20
-7.796200000000001
 30
0.0
 10
-35.9726
 20
-7.9001
 30
0.0
 10
-35.40490000000001
 20
-8.108000000000001
 30
0.0
 10
-35.40490000000001
 20
-8.108000000000001
 30
0.0
 10
-34.8372
 20
-8.3179
 30
0.0
 10
-34.3374
 20
-8.5898
 30
0.0
 10
-33.9056
 20
-8.9277
 30
0.0
 10
-33.9056
 20
-8.9277
 30
0.0
 10
-33.4738
 20
-9.265500000000001
 30
0.0
 10
-33.136
 20
-9.619300000000001
 30
0.0
 10
-32.8921
 20
-9.9892
 30
0.0
 10
-32.8921
 20
-9.9892
 30
0.0
 10
-32.6482
 20
-10.357
 30
0.0
 10
-32.4683
 20
-10.7948
 30
0.0
 10
-32.3503
 20
-11.2966
 30
0.0
 10
-32.3503
 20
-11.2966
 30
0.0
 10
-32.2604
 20
-11.6804
 30
0.0
 10
-32.2164
 20
-12.1502
 30
0.0
 10
-32.2164
 20
-12.7099
 30
0.0
 10
-32.2164
 20
-12.7099
 30
0.0
 10
-32.2164
 20
-12.7099
 30
0.0
 10
-32.2164
 20
-15.8004
 30
0.0
 10
-32.2164
 20
-15.8004
 30
0.0
  0
SPLINE
  5
2D
330
1F
100
AcDbEntity
  8
LC-012-007-KH--0
 62
   250
100
AcDbSpline
210
0.0
220
0.0
230
1.0
 70
    11
 71
     3
 72
    48
 73
    44
 74
     0
 42
0.0000000001
 43
0.0000000001
 40
0.0
 40
0.0
 40
0.0
 40
0.0
 40
0.0909090909090909
 40
0.0909090909090909
 40
0.0909090909090909
 40
0.0909090909090909
 40
0.1818181818181818
 40
0.1818181818181818
 40
0.1818181818181818
 40
0.1818181818181818
 40
0.2727272727272727
 40
0.2727272727272727
 40
0.2727272727272727
 40
0.2727272727272727
 40
0.3636363636363637
 40
0.3636363636363637
 40
0.3636363636363637
 40
0.3636363636363637
 40
0.4545454545454546
 40
0.4545454545454546
 40
0.4545454545454546
 40
0.4545454545454546
 40
0.5454545454545455
 40
0.5454545454545455
 40
0.5454545454545455
 40
0.5454545454545455
 40
0.6363636363636365
 40
0.6363636363636365
 40
0.6363636363636365
 40
0.6363636363636365
 40
0.7272727272727274
 40
0.7272727272727274
 40
0.7272727272727274
 40
0.7272727272727274
 40
0.8181818181818183
 40
0.8181818181818183
 40
0.8181818181818183
 40
0.8181818181818183
 40
0.9090909090909093
 40
0.9090909090909093
 40
0.9090909090909093
 40
0.9090909090909093
 40
1.0
 40
1.0
 40
1.0
 40
1.0
 10
-33.1879
 20
-14.4491
 30
0.0
 10
-33.1879
 20
-14.4491
 30
0.0
 10
-33.1879
 20
-13.0897
 30
0.0
 10
-33.1879
 20
-13.0897
 30
0.0
 10
-33.1879
 20
-13.0897
 30
0.0
 10
-33.1879
 20
-12.476
 30
0.0
 10
-33.2459
 20
-11.9323
 30
0.0
 10
-33.3579
 20
-11.4565
 30
0.0
 10
-33.3579
 20
-11.4565
 30
0.0
 10
-33.42780000000001
 20
-11.1586
 30
0.0
 10
-33.5318
 20
-10.9047
 30
0.0
 10
-33.6697
 20
-10.6948
 30
0.0
 10
-33.6697
 20
-10.6948
 30
0.0
 10
-33.8436
 20
-10.417
 30
0.0
 10
-34.0775
 20
-10.1651
 30
0.0
 10
-34.3654
 20
-9.9392
 30
0.0
 10
-34.3654
 20
-9.9392
 30
0.0
 10
-34.7492
 20
-9.641300000000001
 30
0.0
 10
-35.185
 20
-9.4054
 30
0.0
 10
-35.67480000000001
 20
-9.227500000000001
 30
0.0
 10
-35.67480000000001
 20
-9.227500000000001
 30
0.0
 10
-36.1646
 20
-9.0496
 30
0.0
 10
-36.7223
 20
-8.961600000000001
 30
0.0
 10
-37.346
 20
-8.961600000000001
 30
0.0
 10
-37.346
 20
-8.961600000000001
 30
0.0
 10
-38.0417
 20
-8.961600000000001
 30
0.0
 10
-38.5754
 20
-9.0816
 30
0.0
 10
-38.9493
 20
-9.323500000000001
 30
0.0
 10
-38.9493
 20
-9.323500000000001
 30
0.0
 10
-39.3211
 20
-9.5654
 30
0.0
 10
-39.569
 20
-9.875200000000001
 30
0.0
 10
-39.6889
 20
-10.249
 30
0.0
 10
-39.6889
 20
-10.249
 30
0.0
 10
-39.7789
 20
-10.5269
 30
0.0
 10
-39.8248
 20
-10.9587
 30
0.0
 10
-39.8248
 20
-11.5444
 30
0.0
 10
-39.8248
 20
-11.5444
 30
0.0
 10
-39.8248
 20
-11.5444
 30
0.0
 10
-39.8248
 20
-13.0597
 30
0.0
 10
-39.8248
 20
-13.0597
 30
0.0
 10
-39.8248
 20
-13.0597
 30
0.0
 10
-39.8248
 20
-13.0597
 30
0.0
 10
-33.1879
 20
-14.4491
 30
0.0
 10
-33.1879
 20
-14.4491
 30
0.0
  0
SPLINE
  5
2E
330
1F
100
AcDbEntity
  8
LC-012-007-KH--0
 62
   250
100
AcDbSpline
210
0.0
220
0.0
230
1.0
 70
    11
 71
     3
 72
    64
 73
    60
 74
     0
 42
0.0000000001
 43
0.0000000001
 40
0.0
 40
0.0
 40
0.0
 40
0.0
 40
0.0666666666666667
 40
0.0666666666666667
 40
0.0666666666666667
 40
0.0666666666666667
 40
0.1333333333333333
 40
0.1333333333333333
 40
0.1333333333333333
 40
0.1333333333333333
 40
0.2
 40
0.2
 40
0.2
 40
0.2
 40
0.2666666666666667
 40
0.2666666666666667
 40
0.2666666666666667
 40
0.2666666666666667
 40
0.3333333333333333
 40
0.3333333333333333
 40
0.3333333333333333
 40
0.3333333333333333
 40
0.4
 40
0.4
 40
0.4
 40
0.4
 40
0.4666666666666666
 40
0.4666666666666666
 40
0.4666666666666666
 40
0.4666666666666666
 40
0.5333333333333333
 40
0.5333333333333333
 40
0.5333333333333333
 40
0.5333333333333333
 40
0.6
 40
0.6
 40
0.6
 40
0.6
 40
0.6666666666666666
 40
0.6666666666666666
 40
0.6666666666666666
 40
0.6666666666666666
 40
0.7333333333333333
 40
0.7333333333333333
 40
0.7333333333333333
 40
0.7333333333333333
 40
0.7999999999999999
 40
0.7999999999999999
 40
0.7999999999999999
 40
0.7999999999999999
 40
0.8666666666666666
 40
0.8666666666666666
 40
0.8666666666666666
 40
0.8666666666666666
 40
0.9333333333333332
 40
0.9333333333333332
 40
0.9333333333333332
 40
0.9333333333333332
 40
1.0
 40
1.0
 40
1.0
 40
1.0
 10
-32.2164
 20
-7.0865
 30
0.0
 10
-32.2164
 20
-7.0865
 30
0.0
 10
-40.8024
 20
-5.2893
 30
0.0
 10
-40.8024
 20
-5.2893
 30
0.0
 10
-40.8024
 20
-5.2893
 30
0.0
 10
-40.8024
 20
-5.2893
 30
0.0
 10
-40.8024
 20
-4.175800000000001
 30
0.0
 10
-40.8024
 20
-4.175800000000001
 30
0.0
 10
-40.8024
 20
-4.175800000000001
 30
0.0
 10
-40.8024
 20
-4.175800000000001
 30
0.0
 10
-37.58190000000001
 20
-2.7285
 30
0.0
 10
-37.58190000000001
 20
-2.7285
 30
0.0
 10
-37.58190000000001
 20
-2.7285
 30
0.0
 10
-36.5964
 20
-2.2887
 30
0.0
 10
-35.7687
 20
-1.9389
 30
0.0
 10
-35.09710000000001
 20
-1.681
 30
0.0
 10
-35.09710000000001
 20
-1.681
 30
0.0
 10
-34.7072
 20
-1.5331
 30
0.0
 10
-34.1795
 20
-1.3611
 30
0.0
 10
-33.5158
 20
-1.1652
 30
0.0
 10
-33.5158
 20
-1.1652
 30
0.0
 10
-34.2395
 20
-1.0593
 30
0.0
 10
-34.9851
 20
-0.9273
 30
0.0
 10
-35.7547
 20
-0.7674000000000001
 30
0.0
 10
-35.7547
 20
-0.7674000000000001
 30
0.0
 10
-35.7547
 20
-0.7674000000000001
 30
0.0
 10
-40.8024
 20
0.2861
 30
0.0
 10
-40.8024
 20
0.2861
 30
0.0
 10
-40.8024
 20
0.2861
 30
0.0
 10
-40.8024
 20
0.2861
 30
0.0
 10
-40.8024
 20
1.4056
 30
0.0
 10
-40.8024
 20
1.4056
 30
0.0
 10
-40.8024
 20
1.4056
 30
0.0
 10
-40.8024
 20
1.4056
 30
0.0
 10
-32.2164
 20
-0.3856
 30
0.0
 10
-32.2164
 20
-0.3856
 30
0.0
 10
-32.2164
 20
-0.3856
 30
0.0
 10
-32.2164
 20
-0.3856
 30
0.0
 10
-32.2164
 20
-1.5231
 30
0.0
 10
-32.2164
 20
-1.5231
 30
0.0
 10
-32.2164
 20
-1.5231
 30
0.0
 10
-32.2164
 20
-1.5231
 30
0.0
 10
-37.17610000000001
 20
-3.6541
 30
0.0
 10
-37.17610000000001
 20
-3.6541
 30
0.0
 10
-37.17610000000001
 20
-3.6541
 30
0.0
 10
-38.0517
 20
-4.0339
 30
0.0
 10
-38.8233
 20
-4.3278
 30
0.0
 10
-39.491
 20
-4.5397
 30
0.0
 10
-39.491
 20
-4.5397
 30
0.0
 10
-38.9313
 20
-4.5976
 30
0.0
 10
-38.2476
 20
-4.7116
 30
0.0
 10
-37.43400000000001
 20
-4.8795
 30
0.0
 10
-37.43400000000001
 20
-4.8795
 30
0.0
 10
-37.43400000000001
 20
-4.8795
 30
0.0
 10
-32.2164
 20
-5.967000000000001
 30
0.0
 10
-32.2164
 20
-5.967000000000001
 30
0.0
 10
-32.2164
 20
-5.967000000000001
 30
0.0
 10
-32.2164
 20
-5.967000000000001
 30
0.0
 10
-32.2164
 20
-7.0865
 30
0.0
 10
-32.2164
 20
-7.0865
 30
0.0
  0
SPLINE
  5
2F
330
1F
100
AcDbEntity
  8
LC-012-007-KH--0
 62
   250
100
AcDbSpline
210
0.0
220
0.0
230
1.0
 70
    11
 71
     3
 72
    40
 73
    36
 74
     0
 42
0.0000000001
 43
0.0000000001
 40
0.0
 40
0.0
 40
0.0
 40
0.0
 40
0.1111111111111111
 40
0.1111111111111111
 40
0.1111111111111111
 40
0.1111111111111111
 40
0.2222222222222222
 40
0.2222222222222222
 40
0.2222222222222222
 40
0.2222222222222222
 40
0.3333333333333333
 40
0.3333333333333333
 40
0.3333333333333333
 40
0.3333333333333333
 40
0.4444444444444444
 40
0.4444444444444444
 40
0.4444444444444444
 40
0.4444444444444444
 40
0.5555555555555556
 40
0.5555555555555556
 40
0.5555555555555556
 40
0.5555555555555556
 40
0.6666666666666667
 40
0.6666666666666667
 40
0.6666666666666667
 40
0.6666666666666667
 40
0.7777777777777779
 40
0.7777777777777779
 40
0.7777777777777779
 40
0.7777777777777779
 40
0.8888888888888891
 40
0.8888888888888891
 40
0.8888888888888891
 40
0.8888888888888891
 40
1.0
 40
1.0
 40
1.0
 40
1.0
 10
-32.2164
 20
3.8765
 30
0.0
 10
-32.2164
 20
3.8765
 30
0.0
 10
-38.6994
 20
5.2358
 30
0.0
 10
-38.6994
 20
5.2358
 30
0.0
 10
-38.6994
 20
5.2358
 30
0.0
 10
-38.2396
 20
4.6501
 30
0.0
 10
-37.86980000000001
 20
3.8265
 30
0.0
 10
-37.5919
 20
2.765
 30
0.0
 10
-37.5919
 20
2.765
 30
0.0
 10
-37.5919
 20
2.765
 30
0.0
 10
-38.5534
 20
2.9629
 30
0.0
 10
-38.5534
 20
2.9629
 30
0.0
 10
-38.5534
 20
2.9629
 30
0.0
 10
-38.7633
 20
3.4906
 30
0.0
 10
-39.0392
 20
4.010400000000001
 30
0.0
 10
-39.3791
 20
4.5241
 30
0.0
 10
-39.3791
 20
4.5241
 30
0.0
 10
-39.71890000000001
 20
5.037900000000001
 30
0.0
 10
-40.0148
 20
5.4237
 30
0.0
 10
-40.2686
 20
5.6816
 30
0.0
 10
-40.2686
 20
5.6816
 30
0.0
 10
-40.42460000000001
 20
5.8375
 30
0.0
 10
-40.6145
 20
5.9855
 30
0.0
 10
-40.83640000000001
 20
6.1254
 30
0.0
 10
-40.83640000000001
 20
6.1254
 30
0.0
 10
-40.83640000000001
 20
6.1254
 30
0.0
 10
-40.83640000000001
 20
6.7411
 30
0.0
 10
-40.83640000000001
 20
6.7411
 30
0.0
 10
-40.83640000000001
 20
6.7411
 30
0.0
 10
-40.83640000000001
 20
6.7411
 30
0.0
 10
-32.2164
 20
4.944
 30
0.0
 10
-32.2164
 20
4.944
 30
0.0
 10
-32.2164
 20
4.944
 30
0.0
 10
-32.2164
 20
4.944
 30
0.0
 10
-32.2164
 20
3.8765
 30
0.0
 10
-32.2164
 20
3.8765
 30
0.0
  0
SPLINE
  5
30
330
1F
100
AcDbEntity
  8
LC-012-007-KH--0
 62
   250
100
AcDbSpline
210
0.0
220
0.0
230
1.0
 70
    11
 71
     3
 72
    52
 73
    48
 74
     0
 42
0.0000000001
 43
0.0000000001
 40
0.0
 40
0.0
 40
0.0
 40
0.0
 40
0.0833333333333333
 40
0.0833333333333333
 40
0.0833333333333333
 40
0.0833333333333333
 40
0.1666666666666667
 40
0.1666666666666667
 40
0.1666666666666667
 40
0.1666666666666667
 40
0.25
 40
0.25
 40
0.25
 40
0.25
 40
0.3333333333333333
 40
0.3333333333333333
 40
0.3333333333333333
 40
0.3333333333333333
 40
0.4166666666666666
 40
0.4166666666666666
 40
0.4166666666666666
 40
0.4166666666666666
 40
0.4999999999999999
 40
0.4999999999999999
 40
0.4999999999999999
 40
0.4999999999999999
 40
0.5833333333333333
 40
0.5833333333333333
 40
0.5833333333333333
 40
0.5833333333333333
 40
0.6666666666666666
 40
0.6666666666666666
 40
0.6666666666666666
 40
0.6666666666666666
 40
0.75
 40
0.75
 40
0.75
 40
0.75
 40
0.8333333333333334
 40
0.8333333333333334
 40
0.8333333333333334
 40
0.8333333333333334
 40
0.9166666666666667
 40
0.9166666666666667
 40
0.9166666666666667
 40
0.9166666666666667
 40
1.0
 40
1.0
 40
1.0
 40
1.0
 10
-35.03310000000001
 20
8.510300000000001
 30
0.0
 10
-35.75870000000001
 20
8.510300000000001
 30
0.0
 10
-36.4984
 20
8.6183
 30
0.0
 10
-37.2481
 20
8.834200000000001
 30
0.0
 10
-37.2481
 20
8.834200000000001
 30
0.0
 10
-37.9977
 20
9.052100000000001
 30
0.0
 10
-38.59540000000001
 20
9.2919
 30
0.0
 10
-39.0452
 20
9.5578
 30
0.0
 10
-39.0452
 20
9.5578
 30
0.0
 10
-39.49500000000001
 20
9.823700000000001
 30
0.0
 10
-39.8448
 20
10.0996
 30
0.0
 10
-40.0987
 20
10.3834
 30
0.0
 10
-40.0987
 20
10.3834
 30
0.0
 10
-40.3526
 20
10.6693
 30
0.0
 10
-40.5405
 20
10.9492
 30
0.0
 10
-40.6585
 20
11.225
 30
0.0
 10
-40.6585
 20
11.225
 30
0.0
 10
-40.77840000000001
 20
11.4989
 30
0.0
 10
-40.83640000000001
 20
11.8048
 30
0.0
 10
-40.83640000000001
 20
12.1406
 30
0.0
 10
-40.83640000000001
 20
12.1406
 30
0.0
 10
-40.83640000000001
 20
12.7963
 30
0.0
 10
-40.5925
 20
13.344
 30
0.0
 10
-40.1047
 20
13.7838
 30
0.0
 10
-40.1047
 20
13.7838
 30
0.0
 10
-39.6169
 20
14.2236
 30
0.0
 10
-38.9133
 20
14.4435
 30
0.0
 10
-37.9917
 20
14.4435
 30
0.0
 10
-37.9917
 20
14.4435
 30
0.0
 10
-37.04210000000001
 20
14.4435
 30
0.0
 10
-36.1026
 20
14.2896
 30
0.0
 10
-35.173
 20
13.9857
 30
0.0
 10
-35.173
 20
13.9857
 30
0.0
 10
-34.0735
 20
13.6259
 30
0.0
 10
-33.2479
 20
13.1261
 30
0.0
 10
-32.69620000000001
 20
12.4864
 30
0.0
 10
-32.69620000000001
 20
12.4864
 30
0.0
 10
-32.27840000000001
 20
11.9947
 30
0.0
 10
-32.0705
 20
11.4349
 30
0.0
 10
-32.0705
 20
10.8052
 30
0.0
 10
-32.0705
 20
10.8052
 30
0.0
 10
-32.0705
 20
10.1615
 30
0.0
 10
-32.3224
 20
9.617800000000001
 30
0.0
 10
-32.8281
 20
9.174000000000001
 30
0.0
 10
-32.8281
 20
9.174000000000001
 30
0.0
 10
-33.3339
 20
8.732200000000001
 30
0.0
 10
-34.06950000000001
 20
8.510300000000001
 30
0.0
 10
-35.03310000000001
 20
8.510300000000001
 30
0.0
  0
SPLINE
  5
31
330
1F
100
AcDbEntity
  8
LC-012-007-KH--0
 62
   250
100
AcDbSpline
210
0.0
220
0.0
230
1.0
 70
    11
 71
     3
 72
    48
 73
    44
 74
     0
 42
0.0000000001
 43
0.0000000001
 40
0.0
 40
0.0
 40
0.0
 40
0.0
 40
0.0909090909090909
 40
0.0909090909090909
 40
0.0909090909090909
 40
0.0909090909090909
 40
0.1818181818181818
 40
0.1818181818181818
 40
0.1818181818181818
 40
0.1818181818181818
 40
0.2727272727272727
 40
0.2727272727272727
 40
0.2727272727272727
 40
0.2727272727272727
 40
0.3636363636363637
 40
0.3636363636363637
 40
0.3636363636363637
 40
0.3636363636363637
 40
0.4545454545454546
 40
0.4545454545454546
 40
0.4545454545454546
 40
0.4545454545454546
 40
0.5454545454545455
 40
0.5454545454545455
 40
0.5454545454545455
 40
0.5454545454545455
 40
0.6363636363636365
 40
0.6363636363636365
 40
0.6363636363636365
 40
0.6363636363636365
 40
0.7272727272727274
 40
0.7272727272727274
 40
0.7272727272727274
 40
0.7272727272727274
 40
0.8181818181818183
 40
0.8181818181818183
 40
0.8181818181818183
 40
0.8181818181818183
 40
0.9090909090909093
 40
0.9090909090909093
 40
0.9090909090909093
 40
0.9090909090909093
 40
1.0
 40
1.0
 40
1.0
 40
1.0
 10
-34.76320000000001
 20
9.5358
 30
0.0
 10
-34.2375
 20
9.5358
 30
0.0
 10
-33.8256
 20
9.6218
 30
0.0
 10
-33.5278
 20
9.797700000000001
 30
0.0
 10
-33.5278
 20
9.797700000000001
 30
0.0
 10
-33.118
 20
10.0356
 30
0.0
 10
-32.91410000000001
 20
10.3894
 30
0.0
 10
-32.91410000000001
 20
10.8592
 30
0.0
 10
-32.91410000000001
 20
10.8592
 30
0.0
 10
-32.91410000000001
 20
11.269
 30
0.0
 10
-33.098
 20
11.6408
 30
0.0
 10
-33.4698
 20
11.9767
 30
0.0
 10
-33.4698
 20
11.9767
 30
0.0
 10
-33.9936
 20
12.4605
 30
0.0
 10
-34.7592
 20
12.8263
 30
0.0
 10
-35.7687
 20
13.0702
 30
0.0
 10
-35.7687
 20
13.0702
 30
0.0
 10
-36.7783
 20
13.3141
 30
0.0
 10
-37.6019
 20
13.436
 30
0.0
 10
-38.2436
 20
13.436
 30
0.0
 10
-38.2436
 20
13.436
 30
0.0
 10
-38.85930000000001
 20
13.436
 30
0.0
 10
-39.3051
 20
13.3181
 30
0.0
 10
-39.579
 20
13.0802
 30
0.0
 10
-39.579
 20
13.0802
 30
0.0
 10
-39.8508
 20
12.8443
 30
0.0
 10
-39.98880000000001
 20
12.5344
 30
0.0
 10
-39.98880000000001
 20
12.1466
 30
0.0
 10
-39.98880000000001
 20
12.1466
 30
0.0
 10
-39.98880000000001
 20
11.8667
 30
0.0
 10
-39.9168
 20
11.6029
 30
0.0
 10
-39.77090000000001
 20
11.359
 30
0.0
 10
-39.77090000000001
 20
11.359
 30
0.0
 10
-39.6269
 20
11.1151
 30
0.0
 10
-39.3791
 20
10.8812
 30
0.0
 10
-39.0272
 20
10.6593
 30
0.0
 10
-39.0272
 20
10.6593
 30
0.0
 10
-38.5315
 20
10.3434
 30
0.0
 10
-37.7898
 20
10.0676
 30
0.0
 10
-36.8023
 20
9.8337
 30
0.0
 10
-36.8023
 20
9.8337
 30
0.0
 10
-35.9587
 20
9.633800000000001
 30
0.0
 10
-35.279
 20
9.5358
 30
0.0
 10
-34.76320000000001
 20
9.5358
 30
0.0
  0
SPLINE
  5
32
330
1F
100
AcDbEntity
  8
LC-012-007-KH--0
 62
   250
100
AcDbSpline
210
0.0
220
0.0
230
1.0
 70
    11
 71
     3
 72
    52
 73
    48
 74
     0
 42
0.0000000001
 43
0.0000000001
 40
0.0
 40
0.0
 40
0.0
 40
0.0
 40
0.0833333333333333
 40
0.0833333333333333
 40
0.0833333333333333
 40
0.0833333333333333
 40
0.1666666666666667
 40
0.1666666666666667
 40
0.1666666666666667
 40
0.1666666666666667
 40
0.25
 40
0.25
 40
0.25
 40
0.25
 40
0.3333333333333333
 40
0.3333333333333333
 40
0.3333333333333333
 40
0.3333333333333333
 40
0.4166666666666666
 40
0.4166666666666666
 40
0.4166666666666666
 40
0.4166666666666666
 40
0.4999999999999999
 40
0.4999999999999999
 40
0.4999999999999999
 40
0.4999999999999999
 40
0.5833333333333333
 40
0.5833333333333333
 40
0.5833333333333333
 40
0.5833333333333333
 40
0.6666666666666666
 40
0.6666666666666666
 40
0.6666666666666666
 40
0.6666666666666666
 40
0.75
 40
0.75
 40
0.75
 40
0.75
 40
0.8333333333333334
 40
0.8333333333333334
 40
0.8333333333333334
 40
0.8333333333333334
 40
0.9166666666666667
 40
0.9166666666666667
 40
0.9166666666666667
 40
0.9166666666666667
 40
1.0
 40
1.0
 40
1.0
 40
1.0
 10
-35.03310000000001
 20
15.1812
 30
0.0
 10
-35.75870000000001
 20
15.1812
 30
0.0
 10
-36.4984
 20
15.2892
 30
0.0
 10
-37.2481
 20
15.5051
 30
0.0
 10
-37.2481
 20
15.5051
 30
0.0
 10
-37.9977
 20
15.723
 30
0.0
 10
-38.59540000000001
 20
15.9628
 30
0.0
 10
-39.0452
 20
16.2287
 30
0.0
 10
-39.0452
 20
16.2287
 30
0.0
 10
-39.49500000000001
 20
16.4946
 30
0.0
 10
-39.8448
 20
16.7705
 30
0.0
 10
-40.0987
 20
17.0543
 30
0.0
 10
-40.0987
 20
17.0543
 30
0.0
 10
-40.3526
 20
17.3402
 30
0.0
 10
-40.5405
 20
17.6201
 30
0.0
 10
-40.6585
 20
17.8959
 30
0.0
 10
-40.6585
 20
17.8959
 30
0.0
 10
-40.77840000000001
 20
18.1698
 30
0.0
 10
-40.83640000000001
 20
18.4757
 30
0.0
 10
-40.83640000000001
 20
18.8115
 30
0.0
 10
-40.83640000000001
 20
18.8115
 30
0.0
 10
-40.83640000000001
 20
19.4672
 30
0.0
 10
-40.5925
 20
20.0149
 30
0.0
 10
-40.1047
 20
20.4547
 30
0.0
 10
-40.1047
 20
20.4547
 30
0.0
 10
-39.6169
 20
20.8945
 30
0.0
 10
-38.9133
 20
21.1144
 30
0.0
 10
-37.9917
 20
21.1144
 30
0.0
 10
-37.9917
 20
21.1144
 30
0.0
 10
-37.04210000000001
 20
21.1144
 30
0.0
 10
-36.1026
 20
20.9605
 30
0.0
 10
-35.173
 20
20.6566
 30
0.0
 10
-35.173
 20
20.6566
 30
0.0
 10
-34.0735
 20
20.2968
 30
0.0
 10
-33.2479
 20
19.797
 30
0.0
 10
-32.69620000000001
 20
19.1573
 30
0.0
 10
-32.69620000000001
 20
19.1573
 30
0.0
 10
-32.27840000000001
 20
18.6656
 30
0.0
 10
-32.0705
 20
18.1058
 30
0.0
 10
-32.0705
 20
17.4761
 30
0.0
 10
-32.0705
 20
17.4761
 30
0.0
 10
-32.0705
 20
16.8324
 30
0.0
 10
-32.3224
 20
16.2887
 30
0.0
 10
-32.8281
 20
15.8449
 30
0.0
 10
-32.8281
 20
15.8449
 30
0.0
 10
-33.3339
 20
15.4031
 30
0.0
 10
-34.06950000000001
 20
15.1812
 30
0.0
 10
-35.03310000000001
 20
15.1812
 30
0.0
  0
SPLINE
  5
33
330
1F
100
AcDbEntity
  8
LC-012-007-KH--0
 62
   250
100
AcDbSpline
210
0.0
220
0.0
230
1.0
 70
    11
 71
     3
 72
    48
 73
    44
 74
     0
 42
0.0000000001
 43
0.0000000001
 40
0.0
 40
0.0
 40
0.0
 40
0.0
 40
0.0909090909090909
 40
0.0909090909090909
 40
0.0909090909090909
 40
0.0909090909090909
 40
0.1818181818181818
 40
0.1818181818181818
 40
0.1818181818181818
 40
0.1818181818181818
 40
0.2727272727272727
 40
0.2727272727272727
 40
0.2727272727272727
 40
0.2727272727272727
 40
0.3636363636363637
 40
0.3636363636363637
 40
0.3636363636363637
 40
0.3636363636363637
 40
0.4545454545454546
 40
0.4545454545454546
 40
0.4545454545454546
 40
0.4545454545454546
 40
0.5454545454545455
 40
0.5454545454545455
 40
0.5454545454545455
 40
0.5454545454545455
 40
0.6363636363636365
 40
0.6363636363636365
 40
0.6363636363636365
 40
0.6363636363636365
 40
0.7272727272727274
 40
0.7272727272727274
 40
0.7272727272727274
 40
0.7272727272727274
 40
0.8181818181818183
 40
0.8181818181818183
 40
0.8181818181818183
 40
0.8181818181818183
 40
0.9090909090909093
 40
0.9090909090909093
 40
0.9090909090909093
 40
0.9090909090909093
 40
1.0
 40
1.0
 40
1.0
 40
1.0
 10
-34.76320000000001
 20
16.2067
 30
0.0
 10
-34.2375
 20
16.2067
 30
0.0
 10
-33.8256
 20
16.2927
 30
0.0
 10
-33.5278
 20
16.4686
 30
0.0
 10
-33.5278
 20
16.4686
 30
0.0
 10
-33.118
 20
16.7065
 30
0.0
 10
-32.91410000000001
 20
17.0603
 30
0.0
 10
-32.91410000000001
 20
17.5301
 30
0.0
 10
-32.91410000000001
 20
17.5301
 30
0.0
 10
-32.91410000000001
 20
17.9399
 30
0.0
 10
-33.098
 20
18.3117
 30
0.0
 10
-33.4698
 20
18.6476
 30
0.0
 10
-33.4698
 20
18.6476
 30
0.0
 10
-33.9936
 20
19.1314
 30
0.0
 10
-34.7592
 20
19.4972
 30
0.0
 10
-35.7687
 20
19.7411
 30
0.0
 10
-35.7687
 20
19.7411
 30
0.0
 10
-36.7783
 20
19.985
 30
0.0
 10
-37.6019
 20
20.1069
 30
0.0
 10
-38.2436
 20
20.1069
 30
0.0
 10
-38.2436
 20
20.1069
 30
0.0
 10
-38.85930000000001
 20
20.1069
 30
0.0
 10
-39.3051
 20
19.989
 30
0.0
 10
-39.579
 20
19.7511
 30
0.0
 10
-39.579
 20
19.7511
 30
0.0
 10
-39.8508
 20
19.5152
 30
0.0
 10
-39.98880000000001
 20
19.2053
 30
0.0
 10
-39.98880000000001
 20
18.8175
 30
0.0
 10
-39.98880000000001
 20
18.8175
 30
0.0
 10
-39.98880000000001
 20
18.5376
 30
0.0
 10
-39.9168
 20
18.2738
 30
0.0
 10
-39.77090000000001
 20
18.0299
 30
0.0
 10
-39.77090000000001
 20
18.0299
 30
0.0
 10
-39.6269
 20
17.786
 30
0.0
 10
-39.3791
 20
17.5521
 30
0.0
 10
-39.0272
 20
17.3302
 30
0.0
 10
-39.0272
 20
17.3302
 30
0.0
 10
-38.5315
 20
17.0143
 30
0.0
 10
-37.7898
 20
16.7385
 30
0.0
 10
-36.8023
 20
16.5046
 30
0.0
 10
-36.8023
 20
16.5046
 30
0.0
 10
-35.9587
 20
16.3047
 30
0.0
 10
-35.279
 20
16.2067
 30
0.0
 10
-34.76320000000001
 20
16.2067
 30
0.0
  0
SPLINE
  5
34
330
1F
100
AcDbEntity
  8
LC-012-007-KH--0
 62
   250
100
AcDbSpline
210
0.0
220
0.0
230
1.0
 70
    11
 71
     3
 72
    20
 73
    16
 74
     0
 42
0.0000000001
 43
0.0000000001
 40
0.0
 40
0.0
 40
0.0
 40
0.0
 40
0.25
 40
0.25
 40
0.25
 40
0.25
 40
0.5
 40
0.5
 40
0.5
 40
0.5
 40
0.75
 40
0.75
 40
0.75
 40
0.75
 40
1.0
 40
1.0
 40
1.0
 40
1.0
 10
-32.0765
 20
20.3928
 30
0.0
 10
-32.0765
 20
20.3928
 30
0.0
 10
-40.9483
 20
25.0086
 30
0.0
 10
-40.9483
 20
25.0086
 30
0.0
 10
-40.9483
 20
25.0086
 30
0.0
 10
-40.9483
 20
25.0086
 30
0.0
 10
-40.9483
 20
25.9282
 30
0.0
 10
-40.9483
 20
25.9282
 30
0.0
 10
-40.9483
 20
25.9282
 30
0.0
 10
-40.9483
 20
25.9282
 30
0.0
 10
-32.0765
 20
21.3124
 30
0.0
 10
-32.0765
 20
21.3124
 30
0.0
 10
-32.0765
 20
21.3124
 30
0.0
 10
-32.0765
 20
21.3124
 30
0.0
 10
-32.0765
 20
20.3928
 30
0.0
 10
-32.0765
 20
20.3928
 30
0.0
  0
SPLINE
  5
35
330
1F
100
AcDbEntity
  8
LC-012-007-KH--0
 62
   250
100
AcDbSpline
210
0.0
220
0.0
230
1.0
 70
    11
 71
     3
 72
    40
 73
    36
 74
     0
 42
0.0000000001
 43
0.0000000001
 40
0.0
 40
0.0
 40
0.0
 40
0.0
 40
0.1111111111111111
 40
0.1111111111111111
 40
0.1111111111111111
 40
0.1111111111111111
 40
0.2222222222222222
 40
0.2222222222222222
 40
0.2222222222222222
 40
0.2222222222222222
 40
0.3333333333333333
 40
0.3333333333333333
 40
0.3333333333333333
 40
0.3333333333333333
 40
0.4444444444444444
 40
0.4444444444444444
 40
0.4444444444444444
 40
0.4444444444444444
 40
0.5555555555555556
 40
0.5555555555555556
 40
0.5555555555555556
 40
0.5555555555555556
 40
0.6666666666666667
 40
0.6666666666666667
 40
0.6666666666666667
 40
0.6666666666666667
 40
0.7777777777777779
 40
0.7777777777777779
 40
0.7777777777777779
 40
0.7777777777777779
 40
0.8888888888888891
 40
0.8888888888888891
 40
0.8888888888888891
 40
0.8888888888888891
 40
1.0
 40
1.0
 40
1.0
 40
1.0
 10
-32.2164
 20
27.2216
 30
0.0
 10
-32.2164
 20
27.2216
 30
0.0
 10
-38.6994
 20
28.5809
 30
0.0
 10
-38.6994
 20
28.5809
 30
0.0
 10
-38.6994
 20
28.5809
 30
0.0
 10
-38.2396
 20
27.9952
 30
0.0
 10
-37.86980000000001
 20
27.1716
 30
0.0
 10
-37.5919
 20
26.1101
 30
0.0
 10
-37.5919
 20
26.1101
 30
0.0
 10
-37.5919
 20
26.1101
 30
0.0
 10
-38.5534
 20
26.308
 30
0.0
 10
-38.5534
 20
26.308
 30
0.0
 10
-38.5534
 20
26.308
 30
0.0
 10
-38.7633
 20
26.8357
 30
0.0
 10
-39.0392
 20
27.3555
 30
0.0
 10
-39.3791
 20
27.8692
 30
0.0
 10
-39.3791
 20
27.8692
 30
0.0
 10
-39.71890000000001
 20
28.383
 30
0.0
 10
-40.0148
 20
28.7688
 30
0.0
 10
-40.2686
 20
29.0267
 30
0.0
 10
-40.2686
 20
29.0267
 30
0.0
 10
-40.42460000000001
 20
29.1826
 30
0.0
 10
-40.6145
 20
29.3306
 30
0.0
 10
-40.83640000000001
 20
29.4705
 30
0.0
 10
-40.83640000000001
 20
29.4705
 30
0.0
 10
-40.83640000000001
 20
29.4705
 30
0.0
 10
-40.83640000000001
 20
30.0862
 30
0.0
 10
-40.83640000000001
 20
30.0862
 30
0.0
 10
-40.83640000000001
 20
30.0862
 30
0.0
 10
-40.83640000000001
 20
30.0862
 30
0.0
 10
-32.2164
 20
28.2891
 30
0.0
 10
-32.2164
 20
28.2891
 30
0.0
 10
-32.2164
 20
28.2891
 30
0.0
 10
-32.2164
 20
28.2891
 30
0.0
 10
-32.2164
 20
27.2216
 30
0.0
 10
-32.2164
 20
27.2216
 30
0.0
  0
SPLINE
  5
36
330
1F
100
AcDbEntity
  8
LC-012-007-KH--0
 62
   250
100
AcDbSpline
210
0.0
220
0.0
230
1.0
 70
    11
 71
     3
 72
    96
 73
    92
 74
     0
 42
0.0000000001
 43
0.0000000001
 40
0.0
 40
0.0
 40
0.0
 40
0.0
 40
0.0434782608695652
 40
0.0434782608695652
 40
0.0434782608695652
 40
0.0434782608695652
 40
0.0869565217391304
 40
0.0869565217391304
 40
0.0869565217391304
 40
0.0869565217391304
 40
0.1304347826086957
 40
0.1304347826086957
 40
0.1304347826086957
 40
0.1304347826086957
 40
0.1739130434782609
 40
0.1739130434782609
 40
0.1739130434782609
 40
0.1739130434782609
 40
0.2173913043478261
 40
0.2173913043478261
 40
0.2173913043478261
 40
0.2173913043478261
 40
0.2608695652173913
 40
0.2608695652173913
 40
0.2608695652173913
 40
0.2608695652173913
 40
0.3043478260869565
 40
0.3043478260869565
 40
0.3043478260869565
 40
0.3043478260869565
 40
0.3478260869565217
 40
0.3478260869565217
 40
0.3478260869565217
 40
0.3478260869565217
 40
0.3913043478260869
 40
0.3913043478260869
 40
0.3913043478260869
 40
0.3913043478260869
 40
0.4347826086956521
 40
0.4347826086956521
 40
0.4347826086956521
 40
0.4347826086956521
 40
0.4782608695652173
 40
0.4782608695652173
 40
0.4782608695652173
 40
0.4782608695652173
 40
0.5217391304347825
 40
0.5217391304347825
 40
0.5217391304347825
 40
0.5217391304347825
 40
0.5652173913043477
 40
0.5652173913043477
 40
0.5652173913043477
 40
0.5652173913043477
 40
0.6086956521739129
 40
0.6086956521739129
 40
0.6086956521739129
 40
0.6086956521739129
 40
0.6521739130434781
 40
0.6521739130434781
 40
0.6521739130434781
 40
0.6521739130434781
 40
0.6956521739130432
 40
0.6956521739130432
 40
0.6956521739130432
 40
0.6956521739130432
 40
0.7391304347826084
 40
0.7391304347826084
 40
0.7391304347826084
 40
0.7391304347826084
 40
0.7826086956521736
 40
0.7826086956521736
 40
0.7826086956521736
 40
0.7826086956521736
 40
0.8260869565217388
 40
0.8260869565217388
 40
0.8260869565217388
 40
0.8260869565217388
 40
0.869565217391304
 40
0.869565217391304
 40
0.869565217391304
 40
0.869565217391304
 40
0.9130434782608692
 40
0.9130434782608692
 40
0.9130434782608692
 40
0.9130434782608692
 40
0.9565217391304344
 40
0.9565217391304344
 40
0.9565217391304344
 40
0.9565217391304344
 40
1.0
 40
1.0
 40
1.0
 40
1.0
 10
-32.2164
 20
31.7095
 30
0.0
 10
-32.7282
 20
31.8174
 30
0.0
 10
-33.156
 20
31.9694
 30
0.0
 10
-33.5018
 20
32.1633
 30
0.0
 10
-33.5018
 20
32.1633
 30
0.0
 10
-33.8476
 20
32.3552
 30
0.0
 10
-34.1755
 20
32.613
 30
0.0
 10
-34.4853
 20
32.9329
 30
0.0
 10
-34.4853
 20
32.9329
 30
0.0
 10
-34.7972
 20
33.2528
 30
0.0
 10
-35.317
 20
33.8705
 30
0.0
 10
-36.04660000000001
 20
34.784
 30
0.0
 10
-36.04660000000001
 20
34.784
 30
0.0
 10
-36.4884
 20
35.3378
 30
0.0
 10
-36.8143
 20
35.7156
 30
0.0
 10
-37.0242
 20
35.9195
 30
0.0
 10
-37.0242
 20
35.9195
 30
0.0
 10
-37.33
 20
36.21140000000001
 30
0.0
 10
-37.6279
 20
36.4253
 30
0.0
 10
-37.9217
 20
36.5572
 30
0.0
 10
-37.9217
 20
36.5572
 30
0.0
 10
-38.1196
 20
36.64720000000001
 30
0.0
 10
-38.3375
 20
36.6931
 30
0.0
 10
-38.5714
 20
36.6931
 30
0.0
 10
-38.5714
 20
36.6931
 30
0.0
 10
-38.9652
 20
36.6931
 30
0.0
 10
-39.2991
 20
36.5532
 30
0.0
 10
-39.575
 20
36.2733
 30
0.0
 10
-39.575
 20
36.2733
 30
0.0
 10
-39.8508
 20
35.9955
 30
0.0
 10
-39.98880000000001
 20
35.6516
 30
0.0
 10
-39.98880000000001
 20
35.2458
 30
0.0
 10
-39.98880000000001
 20
35.2458
 30
0.0
 10
-39.98880000000001
 20
34.844
 30
0.0
 10
-39.8488
 20
34.4922
 30
0.0
 10
-39.569
 20
34.1923
 30
0.0
 10
-39.569
 20
34.1923
 30
0.0
 10
-39.2911
 20
33.8905
 30
0.0
 10
-38.8413
 20
33.6766
 30
0.0
 10
-38.2256
 20
33.54660000000001
 30
0.0
 10
-38.2256
 20
33.54660000000001
 30
0.0
 10
-38.2256
 20
33.54660000000001
 30
0.0
 10
-38.37750000000001
 20
32.5111
 30
0.0
 10
-38.37750000000001
 20
32.5111
 30
0.0
 10
-38.37750000000001
 20
32.5111
 30
0.0
 10
-39.1392
 20
32.613
 30
0.0
 10
-39.7389
 20
32.9089
 30
0.0
 10
-40.1787
 20
33.3987
 30
0.0
 10
-40.1787
 20
33.3987
 30
0.0
 10
-40.6185
 20
33.8885
 30
0.0
 10
-40.83640000000001
 20
34.4982
 30
0.0
 10
-40.83640000000001
 20
35.2278
 30
0.0
 10
-40.83640000000001
 20
35.2278
 30
0.0
 10
-40.83640000000001
 20
35.7156
 30
0.0
 10
-40.7364
 20
36.15940000000001
 30
0.0
 10
-40.5325
 20
36.5552
 30
0.0
 10
-40.5325
 20
36.5552
 30
0.0
 10
-40.3306
 20
36.951
 30
0.0
 10
-40.0447
 20
37.2489
 30
0.0
 10
-39.6769
 20
37.4488
 30
0.0
 10
-39.6769
 20
37.4488
 30
0.0
 10
-39.3111
 20
37.6467
 30
0.0
 10
-38.9313
 20
37.7467
 30
0.0
 10
-38.5414
 20
37.7467
 30
0.0
 10
-38.5414
 20
37.7467
 30
0.0
 10
-37.9717
 20
37.7467
 30
0.0
 10
-37.422
 20
37.5447
 30
0.0
 10
-36.8962
 20
37.1369
 30
0.0
 10
-36.8962
 20
37.1369
 30
0.0
 10
-36.5684
 20
36.8871
 30
0.0
 10
-35.9227
 20
36.15340000000001
 30
0.0
 10
-34.9571
 20
34.936
 30
0.0
 10
-34.9571
 20
34.936
 30
0.0
 10
-34.5433
 20
34.4122
 30
0.0
 10
-34.2035
 20
34.02240000000001
 30
0.0
 10
-33.9376
 20
33.7665
 30
0.0
 10
-33.9376
 20
33.7665
 30
0.0
 10
-33.6737
 20
33.5106
 30
0.0
 10
-33.4238
 20
33.3187
 30
0.0
 10
-33.1879
 20
33.1908
 30
0.0
 10
-33.1879
 20
33.1908
 30
0.0
 10
-33.1879
 20
33.1908
 30
0.0
 10
-33.1879
 20
37.033
 30
0.0
 10
-33.1879
 20
37.033
 30
0.0
 10
-33.1879
 20
37.033
 30
0.0
 10
-33.1879
 20
37.033
 30
0.0
 10
-32.2164
 20
36.8271
 30
0.0
 10
-32.2164
 20
36.8271
 30
0.0
 10
-32.2164
 20
36.8271
 30
0.0
 10
-32.2164
 20
36.8271
 30
0.0
 10
-32.2164
 20
31.7095
 30
0.0
 10
-32.2164
 20
31.7095
 30
0.0
  0
SPLINE
  5
37
330
1F
100
AcDbEntity
  8
LC-012-007-KH--0
 62
   250
100
AcDbSpline
210
0.0
220
0.0
230
1.0
 70
    11
 71
     3
 72
   120
 73
   116
 74
     0
 42
0.0000000001
 43
0.0000000001
 40
0.0
 40
0.0
 40
0.0
 40
0.0
 40
0.0344827586206897
 40
0.0344827586206897
 40
0.0344827586206897
 40
0.0344827586206897
 40
0.0689655172413793
 40
0.0689655172413793
 40
0.0689655172413793
 40
0.0689655172413793
 40
0.103448275862069
 40
0.103448275862069
 40
0.103448275862069
 40
0.103448275862069
 40
0.1379310344827586
 40
0.1379310344827586
 40
0.1379310344827586
 40
0.1379310344827586
 40
0.1724137931034483
 40
0.1724137931034483
 40
0.1724137931034483
 40
0.1724137931034483
 40
0.206896551724138
 40
0.206896551724138
 40
0.206896551724138
 40
0.206896551724138
 40
0.2413793103448276
 40
0.2413793103448276
 40
0.2413793103448276
 40
0.2413793103448276
 40
0.2758620689655173
 40
0.2758620689655173
 40
0.2758620689655173
 40
0.2758620689655173
 40
0.310344827586207
 40
0.310344827586207
 40
0.310344827586207
 40
0.310344827586207
 40
0.3448275862068966
 40
0.3448275862068966
 40
0.3448275862068966
 40
0.3448275862068966
 40
0.3793103448275863
 40
0.3793103448275863
 40
0.3793103448275863
 40
0.3793103448275863
 40
0.413793103448276
 40
0.413793103448276
 40
0.413793103448276
 40
0.413793103448276
 40
0.4482758620689656
 40
0.4482758620689656
 40
0.4482758620689656
 40
0.4482758620689656
 40
0.4827586206896553
 40
0.4827586206896553
 40
0.4827586206896553
 40
0.4827586206896553
 40
0.517241379310345
 40
0.517241379310345
 40
0.517241379310345
 40
0.517241379310345
 40
0.5517241379310346
 40
0.5517241379310346
 40
0.5517241379310346
 40
0.5517241379310346
 40
0.5862068965517242
 40
0.5862068965517242
 40
0.5862068965517242
 40
0.5862068965517242
 40
0.6206896551724138
 40
0.6206896551724138
 40
0.6206896551724138
 40
0.6206896551724138
 40
0.6551724137931034
 40
0.6551724137931034
 40
0.6551724137931034
 40
0.6551724137931034
 40
0.689655172413793
 40
0.689655172413793
 40
0.689655172413793
 40
0.689655172413793
 40
0.7241379310344827
 40
0.7241379310344827
 40
0.7241379310344827
 40
0.7241379310344827
 40
0.7586206896551723
 40
0.7586206896551723
 40
0.7586206896551723
 40
0.7586206896551723
 40
0.7931034482758619
 40
0.7931034482758619
 40
0.7931034482758619
 40
0.7931034482758619
 40
0.8275862068965515
 40
0.8275862068965515
 40
0.8275862068965515
 40
0.8275862068965515
 40
0.8620689655172411
 40
0.8620689655172411
 40
0.8620689655172411
 40
0.8620689655172411
 40
0.8965517241379307
 40
0.8965517241379307
 40
0.8965517241379307
 40
0.8965517241379307
 40
0.9310344827586203
 40
0.9310344827586203
 40
0.9310344827586203
 40
0.9310344827586203
 40
0.9655172413793099
 40
0.9655172413793099
 40
0.9655172413793099
 40
0.9655172413793099
 40
1.0
 40
1.0
 40
1.0
 40
1.0
 10
-34.6713
 20
38.5143
 30
0.0
 10
-34.6713
 20
38.5143
 30
0.0
 10
-34.77520000000001
 20
39.5918
 30
0.0
 10
-34.77520000000001
 20
39.5918
 30
0.0
 10
-34.77520000000001
 20
39.5918
 30
0.0
 10
-34.6233
 20
39.5838
 30
0.0
 10
-34.5313
 20
39.5798
 30
0.0
 10
-34.5013
 20
39.5798
 30
0.0
 10
-34.5013
 20
39.5798
 30
0.0
 10
-34.2435
 20
39.5798
 30
0.0
 10
-33.9836
 20
39.6458
 30
0.0
 10
-33.7217
 20
39.7757
 30
0.0
 10
-33.7217
 20
39.7757
 30
0.0
 10
-33.4598
 20
39.9077
 30
0.0
 10
-33.2599
 20
40.0856
 30
0.0
 10
-33.122
 20
40.3095
 30
0.0
 10
-33.122
 20
40.3095
 30
0.0
 10
-32.982
 20
40.5334
 30
0.0
 10
-32.91410000000001
 20
40.7713
 30
0.0
 10
-32.91410000000001
 20
41.0211
 30
0.0
 10
-32.91410000000001
 20
41.0211
 30
0.0
 10
-32.91410000000001
 20
41.349
 30
0.0
 10
-33.026
 20
41.6828
 30
0.0
 10
-33.2539
 20
42.0227
 30
0.0
 10
-33.2539
 20
42.0227
 30
0.0
 10
-33.4798
 20
42.3625
 30
0.0
 10
-33.8097
 20
42.6364
 30
0.0
 10
-34.2435
 20
42.8483
 30
0.0
 10
-34.2435
 20
42.8483
 30
0.0
 10
-34.6753
 20
43.0582
 30
0.0
 10
-35.1051
 20
43.16410000000001
 30
0.0
 10
-35.5309
 20
43.16410000000001
 30
0.0
 10
-35.5309
 20
43.16410000000001
 30
0.0
 10
-36.0106
 20
43.16410000000001
 30
0.0
 10
-36.3964
 20
43.02220000000001
 30
0.0
 10
-36.6843
 20
42.74030000000001
 30
0.0
 10
-36.6843
 20
42.74030000000001
 30
0.0
 10
-36.9742
 20
42.45650000000001
 30
0.0
 10
-37.1181
 20
42.0846
 30
0.0
 10
-37.1181
 20
41.6249
 30
0.0
 10
-37.1181
 20
41.6249
 30
0.0
 10
-37.1181
 20
41.31500000000001
 30
0.0
 10
-37.0441
 20
41.0231
 30
0.0
 10
-36.8962
 20
40.74930000000001
 30
0.0
 10
-36.8962
 20
40.74930000000001
 30
0.0
 10
-36.7483
 20
40.47340000000001
 30
0.0
 10
-36.5244
 20
40.2175
 30
0.0
 10
-36.2285
 20
39.9776
 30
0.0
 10
-36.2285
 20
39.9776
 30
0.0
 10
-36.2285
 20
39.9776
 30
0.0
 10
-36.2925
 20
39.0521
 30
0.0
 10
-36.2925
 20
39.0521
 30
0.0
 10
-36.2925
 20
39.0521
 30
0.0
 10
-36.2925
 20
39.0521
 30
0.0
 10
-40.6844
 20
40.3475
 30
0.0
 10
-40.6844
 20
40.3475
 30
0.0
 10
-40.6844
 20
40.3475
 30
0.0
 10
-40.6844
 20
40.3475
 30
0.0
 10
-40.6844
 20
44.5415
 30
0.0
 10
-40.6844
 20
44.5415
 30
0.0
 10
-40.6844
 20
44.5415
 30
0.0
 10
-40.6844
 20
44.5415
 30
0.0
 10
-39.71290000000001
 20
44.3356
 30
0.0
 10
-39.71290000000001
 20
44.3356
 30
0.0
 10
-39.71290000000001
 20
44.3356
 30
0.0
 10
-39.71290000000001
 20
44.3356
 30
0.0
 10
-39.71290000000001
 20
41.0731
 30
0.0
 10
-39.71290000000001
 20
41.0731
 30
0.0
 10
-39.71290000000001
 20
41.0731
 30
0.0
 10
-39.71290000000001
 20
41.0731
 30
0.0
 10
-37.5279
 20
40.4294
 30
0.0
 10
-37.5279
 20
40.4294
 30
0.0
 10
-37.5279
 20
40.4294
 30
0.0
 10
-37.7038
 20
40.6713
 30
0.0
 10
-37.8358
 20
40.9212
 30
0.0
 10
-37.9237
 20
41.1751
 30
0.0
 10
-37.9237
 20
41.1751
 30
0.0
 10
-38.01170000000001
 20
41.4309
 30
0.0
 10
-38.0557
 20
41.6948
 30
0.0
 10
-38.0557
 20
41.9647
 30
0.0
 10
-38.0557
 20
41.9647
 30
0.0
 10
-38.0557
 20
42.6204
 30
0.0
 10
-37.8398
 20
43.15810000000001
 30
0.0
 10
-37.406
 20
43.5799
 30
0.0
 10
-37.406
 20
43.5799
 30
0.0
 10
-36.9722
 20
44.0017
 30
0.0
 10
-36.3785
 20
44.2136
 30
0.0
 10
-35.6248
 20
44.2136
 30
0.0
 10
-35.6248
 20
44.2136
 30
0.0
 10
-34.9651
 20
44.2136
 30
0.0
 10
-34.3574
 20
44.0677
 30
0.0
 10
-33.7997
 20
43.77990000000001
 30
0.0
 10
-33.7997
 20
43.77990000000001
 30
0.0
 10
-33.2439
 20
43.49
 30
0.0
 10
-32.8161
 20
43.09220000000001
 30
0.0
 10
-32.5183
 20
42.5884
 30
0.0
 10
-32.5183
 20
42.5884
 30
0.0
 10
-32.2184
 20
42.0826
 30
0.0
 10
-32.0705
 20
41.5369
 30
0.0
 10
-32.0705
 20
40.9512
 30
0.0
 10
-32.0705
 20
40.9512
 30
0.0
 10
-32.0705
 20
40.4594
 30
0.0
 10
-32.1804
 20
40.0236
 30
0.0
 10
-32.4043
 20
39.6438
 30
0.0
 10
-32.4043
 20
39.6438
 30
0.0
 10
-32.6262
 20
39.26600000000001
 30
0.0
 10
-32.9321
 20
38.9821
 30
0.0
 10
-33.3239
 20
38.7922
 30
0.0
 10
-33.3239
 20
38.7922
 30
0.0
 10
-33.7137
 20
38.6023
 30
0.0
 10
-34.1035
 20
38.5083
 30
0.0
 10
-34.4953
 20
38.5083
 30
0.0
 10
-34.4953
 20
38.5083
 30
0.0
 10
-34.5333
 20
38.5083
 30
0.0
 10
-34.5913
 20
38.5103
 30
0.0
 10
-34.6713
 20
38.5143
 30
0.0
  0
SPLINE
  5
38
330
1F
100
AcDbEntity
  8
LC-012-007-KH--0
370
    13
100
AcDbSpline
210
0.0
220
0.0
230
1.0
 70
    11
 71
     3
 72
    20
 73
    16
 74
     0
 42
0.0000000001
 43
0.0000000001
 40
0.0
 40
0.0
 40
0.0
 40
0.0
 40
0.25
 40
0.25
 40
0.25
 40
0.25
 40
0.5
 40
0.5
 40
0.5
 40
0.5
 40
0.75
 40
0.75
 40
0.75
 40
0.75
 40
1.0
 40
1.0
 40
1.0
 40
1.0
 10
-3.3098
 20
56.1672
 30
0.0
 10
-3.3098
 20
57.2717
 30
0.0
 10
-4.205200000000001
 20
58.1672
 30
0.0
 10
-5.3098
 20
58.1672
 30
0.0
 10
-5.3098
 20
58.1672
 30
0.0
 10
-6.4143
 20
58.1672
 30
0.0
 10
-7.3098
 20
57.2717
 30
0.0
 10
-7.3098
 20
56.1672
 30
0.0
 10
-7.3098
 20
56.1672
 30
0.0
 10
-7.3098
 20
55.0626
 30
0.0
 10
-6.4143
 20
54.1672
 30
0.0
 10
-5.3098
 20
54.1672
 30
0.0
 10
-5.3098
 20
54.1672
 30
0.0
 10
-4.205200000000001
 20
54.1672
 30
0.0
 10
-3.3098
 20
55.0626
 30
0.0
 10
-3.3098
 20
56.1672
 30
0.0
  0
SPLINE
  5
39
330
1F
100
AcDbEntity
  8
LC-012-007-KH--0
370
    13
100
AcDbSpline
210
0.0
220
0.0
230
1.0
 70
    24
 71
     3
 72
     8
 73
     4
 74
     0
 42
0.0000000001
 43
0.0000000001
 40
0.0
 40
0.0
 40
0.0
 40
0.0
 40
1.0
 40
1.0
 40
1.0
 40
1.0
 10
-14.0598
 20
-23.3778
 30
0.0
 10
-14.0598
 20
-23.3778
 30
0.0
 10
-14.5598
 20
-23.0892
 30
0.0
 10
-14.5598
 20
-23.0892
 30
0.0
  0
SPLINE
  5
3A
330
1F
100
AcDbEntity
  8
LC-012-007-KH--0
370
    13
100
AcDbSpline
210
0.0
220
0.0
230
1.0
 70
    24
 71
     3
 72
     8
 73
     4
 74
     0
 42
0.0000000001
 43
0.0000000001
 40
0.0
 40
0.0
 40
0.0
 40
0.0
 40
1.0
 40
1.0
 40
1.0
 40
1.0
 10
-14.5598
 20
49.5835
 30
0.0
 10
-14.5598
 20
49.5835
 30
0.0
 10
-14.0598
 20
49.8722
 30
0.0
 10
-14.0598
 20
49.8722
 30
0.0
  0
SPLINE
  5
3B
330
1F
100
AcDbEntity
  8
LC-012-007-KH--0
370
    13
100
AcDbSpline
210
0.0
220
0.0
230
1.0
 70
    24
 71
     3
 72
     8
 73
     4
 74
     0
 42
0.0000000001
 43
0.0000000001
 40
0.0
 40
0.0
 40
0.0
 40
0.0
 40
1.0
 40
1.0
 40
1.0
 40
1.0
 10
-14.5598
 20
49.5835
 30
0.0
 10
-14.5598
 20
49.5835
 30
0.0
 10
-14.5598
 20
47.9972
 30
0.0
 10
-14.5598
 20
47.9972
 30
0.0
  0
SPLINE
  5
3C
330
1F
100
AcDbEntity
  8
LC-012-007-KH--0
370
    13
100
AcDbSpline
210
0.0
220
0.0
230
1.0
 70
    24
 71
     3
 72
     8
 73
     4
 74
     0
 42
0.0000000001
 43
0.0000000001
 40
0.0
 40
0.0
 40
0.0
 40
0.0
 40
1.0
 40
1.0
 40
1.0
 40
1.0
 10
-14.5598
 20
-21.5028
 30
0.0
 10
-14.5598
 20
-21.5028
 30
0.0
 10
-14.5598
 20
-23.0892
 30
0.0
 10
-14.5598
 20
-23.0892
 30
0.0
  0
SPLINE
  5
3D
330
1F
100
AcDbEntity
  8
LC-012-007-KH--0
370
    13
100
AcDbSpline
210
0.0
220
0.0
230
1.0
 70
    24
 71
     3
 72
     8
 73
     4
 74
     0
 42
0.0000000001
 43
0.0000000001
 40
0.0
 40
0.0
 40
0.0
 40
0.0
 40
1.0
 40
1.0
 40
1.0
 40
1.0
 10
-14.0598
 20
49.8722
 30
0.0
 10
-14.0598
 20
49.8722
 30
0.0
 10
-10.5598
 20
49.8722
 30
0.0
 10
-10.5598
 20
49.8722
 30
0.0
  0
SPLINE
  5
3E
330
1F
100
AcDbEntity
  8
LC-012-007-KH--0
370
    13
100
AcDbSpline
210
0.0
220
0.0
230
1.0
 70
    24
 71
     3
 72
     8
 73
     4
 74
     0
 42
0.0000000001
 43
0.0000000001
 40
0.0
 40
0.0
 40
0.0
 40
0.0
 40
1.0
 40
1.0
 40
1.0
 40
1.0
 10
-10.5598
 20
-23.3778
 30
0.0
 10
-10.5598
 20
-23.3778
 30
0.0
 10
-14.0598
 20
-23.3778
 30
0.0
 10
-14.0598
 20
-23.3778
 30
0.0
  0
SPLINE
  5
3F
330
1F
100
AcDbEntity
  8
LC-012-007-KH--0
370
    13
100
AcDbSpline
210
0.0
220
0.0
230
1.0
 70
    24
 71
     3
 72
     8
 73
     4
 74
     0
 42
0.0000000001
 43
0.0000000001
 40
0.0
 40
0.0
 40
0.0
 40
0.0
 40
1.0
 40
1.0
 40
1.0
 40
1.0
 10
-14.0598
 20
49.2948
 30
0.0
 10
-14.0598
 20
49.2948
 30
0.0
 10
-14.5598
 20
49.5835
 30
0.0
 10
-14.5598
 20
49.5835
 30
0.0
  0
SPLINE
  5
40
330
1F
100
AcDbEntity
  8
LC-012-007-KH--0
370
    13
100
AcDbSpline
210
0.0
220
0.0
230
1.0
 70
    24
 71
     3
 72
     8
 73
     4
 74
     0
 42
0.0000000001
 43
0.0000000001
 40
0.0
 40
0.0
 40
0.0
 40
0.0
 40
1.0
 40
1.0
 40
1.0
 40
1.0
 10
-14.5598
 20
-23.0892
 30
0.0
 10
-14.5598
 20
-23.0892
 30
0.0
 10
-14.0598
 20
-22.8005
 30
0.0
 10
-14.0598
 20
-22.8005
 30
0.0
  0
SPLINE
  5
41
330
1F
100
AcDbEntity
  8
LC-012-007-KH--0
370
    13
100
AcDbSpline
210
0.0
220
0.0
230
1.0
 70
    24
 71
     3
 72
     8
 73
     4
 74
     0
 42
0.0000000001
 43
0.0000000001
 40
0.0
 40
0.0
 40
0.0
 40
0.0
 40
1.0
 40
1.0
 40
1.0
 40
1.0
 10
-4.2896
 20
49.3722
 30
0.0
 10
-4.2896
 20
49.3722
 30
0.0
 10
-2.8098
 20
49.3722
 30
0.0
 10
-2.8098
 20
49.3722
 30
0.0
  0
SPLINE
  5
42
330
1F
100
AcDbEntity
  8
LC-012-007-KH--0
370
    13
100
AcDbSpline
210
0.0
220
0.0
230
1.0
 70
    24
 71
     3
 72
     8
 73
     4
 74
     0
 42
0.0000000001
 43
0.0000000001
 40
0.0
 40
0.0
 40
0.0
 40
0.0
 40
1.0
 40
1.0
 40
1.0
 40
1.0
 10
-2.8098
 20
-22.8778
 30
0.0
 10
-2.8098
 20
-22.8778
 30
0.0
 10
-4.2896
 20
-22.8778
 30
0.0
 10
-4.2896
 20
-22.8778
 30
0.0
  0
SPLINE
  5
43
330
1F
100
AcDbEntity
  8
LC-012-007-KH--0
370
    13
100
AcDbSpline
210
0.0
220
0.0
230
1.0
 70
    24
 71
     3
 72
     8
 73
     4
 74
     0
 42
0.0000000001
 43
0.0000000001
 40
0.0
 40
0.0
 40
0.0
 40
0.0
 40
1.0
 40
1.0
 40
1.0
 40
1.0
 10
-4.2896
 20
-22.8778
 30
0.0
 10
-4.2896
 20
-22.8778
 30
0.0
 10
-8.809800000000001
 20
-20.2681
 30
0.0
 10
-8.809800000000001
 20
-20.2681
 30
0.0
  0
SPLINE
  5
44
330
1F
100
AcDbEntity
  8
LC-012-007-KH--0
370
    13
100
AcDbSpline
210
0.0
220
0.0
230
1.0
 70
    24
 71
     3
 72
     8
 73
     4
 74
     0
 42
0.0000000001
 43
0.0000000001
 40
0.0
 40
0.0
 40
0.0
 40
0.0
 40
1.0
 40
1.0
 40
1.0
 40
1.0
 10
-8.809800000000001
 20
46.7625
 30
0.0
 10
-8.809800000000001
 20
46.7625
 30
0.0
 10
-4.2896
 20
49.3722
 30
0.0
 10
-4.2896
 20
49.3722
 30
0.0
  0
SPLINE
  5
45
330
1F
100
AcDbEntity
  8
LC-012-007-KH--0
370
    13
100
AcDbSpline
210
0.0
220
0.0
230
1.0
 70
    24
 71
     3
 72
     8
 73
     4
 74
     0
 42
0.0000000001
 43
0.0000000001
 40
0.0
 40
0.0
 40
0.0
 40
0.0
 40
1.0
 40
1.0
 40
1.0
 40
1.0
 10
-10.5598
 20
48.48130000000001
 30
0.0
 10
-10.5598
 20
48.48130000000001
 30
0.0
 10
-12.0598
 20
48.48130000000001
 30
0.0
 10
-12.0598
 20
48.48130000000001
 30
0.0
  0
SPLINE
  5
46
330
1F
100
AcDbEntity
  8
LC-012-007-KH--0
370
    13
100
AcDbSpline
210
0.0
220
0.0
230
1.0
 70
    24
 71
     3
 72
     8
 73
     4
 74
     0
 42
0.0000000001
 43
0.0000000001
 40
0.0
 40
0.0
 40
0.0
 40
0.0
 40
1.0
 40
1.0
 40
1.0
 40
1.0
 10
-12.0598
 20
-21.987
 30
0.0
 10
-12.0598
 20
-21.987
 30
0.0
 10
-10.5598
 20
-21.987
 30
0.0
 10
-10.5598
 20
-21.987
 30
0.0
  0
SPLINE
  5
47
330
1F
100
AcDbEntity
  8
LC-012-007-KH--0
370
    13
100
AcDbSpline
210
0.0
220
0.0
230
1.0
 70
    24
 71
     3
 72
     8
 73
     4
 74
     0
 42
0.0000000001
 43
0.0000000001
 40
0.0
 40
0.0
 40
0.0
 40
0.0
 40
1.0
 40
1.0
 40
1.0
 40
1.0
 10
-14.0598
 20
-21.7915
 30
0.0
 10
-14.0598
 20
-21.7915
 30
0.0
 10
-14.5598
 20
-21.5028
 30
0.0
 10
-14.5598
 20
-21.5028
 30
0.0
  0
SPLINE
  5
48
330
1F
100
AcDbEntity
  8
LC-012-007-KH--0
370
    13
100
AcDbSpline
210
0.0
220
0.0
230
1.0
 70
    24
 71
     3
 72
     8
 73
     4
 74
     0
 42
0.0000000001
 43
0.0000000001
 40
0.0
 40
0.0
 40
0.0
 40
0.0
 40
1.0
 40
1.0
 40
1.0
 40
1.0
 10
-14.5598
 20
47.9972
 30
0.0
 10
-14.5598
 20
47.9972
 30
0.0
 10
-14.0598
 20
48.2858
 30
0.0
 10
-14.0598
 20
48.2858
 30
0.0
  0
SPLINE
  5
49
330
1F
100
AcDbEntity
  8
LC-012-007-KH--0
370
    13
100
AcDbSpline
210
0.0
220
0.0
230
1.0
 70
    24
 71
     3
 72
     8
 73
     4
 74
     0
 42
0.0000000001
 43
0.0000000001
 40
0.0
 40
0.0
 40
0.0
 40
0.0
 40
1.0
 40
1.0
 40
1.0
 40
1.0
 10
-14.5598
 20
47.9972
 30
0.0
 10
-14.5598
 20
47.9972
 30
0.0
 10
-14.5598
 20
46.4972
 30
0.0
 10
-14.5598
 20
46.4972
 30
0.0
  0
SPLINE
  5
4A
330
1F
100
AcDbEntity
  8
LC-012-007-KH--0
370
    13
100
AcDbSpline
210
0.0
220
0.0
230
1.0
 70
    24
 71
     3
 72
     8
 73
     4
 74
     0
 42
0.0000000001
 43
0.0000000001
 40
0.0
 40
0.0
 40
0.0
 40
0.0
 40
1.0
 40
1.0
 40
1.0
 40
1.0
 10
-14.5598
 20
-20.0028
 30
0.0
 10
-14.5598
 20
-20.0028
 30
0.0
 10
-14.5598
 20
-21.5028
 30
0.0
 10
-14.5598
 20
-21.5028
 30
0.0
  0
SPLINE
  5
4B
330
1F
100
AcDbEntity
  8
LC-012-007-KH--0
370
    13
100
AcDbSpline
210
0.0
220
0.0
230
1.0
 70
    24
 71
     3
 72
     8
 73
     4
 74
     0
 42
0.0000000001
 43
0.0000000001
 40
0.0
 40
0.0
 40
0.0
 40
0.0
 40
1.0
 40
1.0
 40
1.0
 40
1.0
 10
-14.0598
 20
47.7085
 30
0.0
 10
-14.0598
 20
47.7085
 30
0.0
 10
-14.5598
 20
47.9972
 30
0.0
 10
-14.5598
 20
47.9972
 30
0.0
  0
SPLINE
  5
4C
330
1F
100
AcDbEntity
  8
LC-012-007-KH--0
370
    13
100
AcDbSpline
210
0.0
220
0.0
230
1.0
 70
    24
 71
     3
 72
     8
 73
     4
 74
     0
 42
0.0000000001
 43
0.0000000001
 40
0.0
 40
0.0
 40
0.0
 40
0.0
 40
1.0
 40
1.0
 40
1.0
 40
1.0
 10
-14.5598
 20
-21.5028
 30
0.0
 10
-14.5598
 20
-21.5028
 30
0.0
 10
-14.0598
 20
-21.2142
 30
0.0
 10
-14.0598
 20
-21.2142
 30
0.0
  0
SPLINE
  5
4D
330
1F
100
AcDbEntity
  8
LC-012-007-KH--0
370
    13
100
AcDbSpline
210
0.0
220
0.0
230
1.0
 70
    24
 71
     3
 72
     8
 73
     4
 74
     0
 42
0.0000000001
 43
0.0000000001
 40
0.0
 40
0.0
 40
0.0
 40
0.0
 40
1.0
 40
1.0
 40
1.0
 40
1.0
 10
-7.8098
 20
-18.5361
 30
0.0
 10
-7.8098
 20
-18.5361
 30
0.0
 10
-2.8098
 20
-21.4228
 30
0.0
 10
-2.8098
 20
-21.4228
 30
0.0
  0
SPLINE
  5
4E
330
1F
100
AcDbEntity
  8
LC-012-007-KH--0
370
    13
100
AcDbSpline
210
0.0
220
0.0
230
1.0
 70
    24
 71
     3
 72
     8
 73
     4
 74
     0
 42
0.0000000001
 43
0.0000000001
 40
0.0
 40
0.0
 40
0.0
 40
0.0
 40
1.0
 40
1.0
 40
1.0
 40
1.0
 10
-2.8098
 20
47.9172
 30
0.0
 10
-2.8098
 20
47.9172
 30
0.0
 10
-7.8098
 20
45.0304
 30
0.0
 10
-7.8098
 20
45.0304
 30
0.0
  0
SPLINE
  5
4F
330
1F
100
AcDbEntity
  8
LC-012-007-KH--0
370
    13
100
AcDbSpline
210
0.0
220
0.0
230
1.0
 70
    24
 71
     3
 72
     8
 73
     4
 74
     0
 42
0.0000000001
 43
0.0000000001
 40
0.0
 40
0.0
 40
0.0
 40
0.0
 40
1.0
 40
1.0
 40
1.0
 40
1.0
 10
-2.8098
 20
47.9172
 30
0.0
 10
-2.8098
 20
47.9172
 30
0.0
 10
-2.8098
 20
45.8922
 30
0.0
 10
-2.8098
 20
45.8922
 30
0.0
  0
SPLINE
  5
50
330
1F
100
AcDbEntity
  8
LC-012-007-KH--0
370
    13
100
AcDbSpline
210
0.0
220
0.0
230
1.0
 70
    24
 71
     3
 72
     8
 73
     4
 74
     0
 42
0.0000000001
 43
0.0000000001
 40
0.0
 40
0.0
 40
0.0
 40
0.0
 40
1.0
 40
1.0
 40
1.0
 40
1.0
 10
-2.8098
 20
-16.1572
 30
0.0
 10
-2.8098
 20
-16.1572
 30
0.0
 10
-2.8098
 20
-21.4228
 30
0.0
 10
-2.8098
 20
-21.4228
 30
0.0
  0
SPLINE
  5
51
330
1F
100
AcDbEntity
  8
LC-012-007-KH--0
370
    13
100
AcDbSpline
210
0.0
220
0.0
230
1.0
 70
    24
 71
     3
 72
     8
 73
     4
 74
     0
 42
0.0000000001
 43
0.0000000001
 40
0.0
 40
0.0
 40
0.0
 40
0.0
 40
1.0
 40
1.0
 40
1.0
 40
1.0
 10
-14.0598
 20
-20.2915
 30
0.0
 10
-14.0598
 20
-20.2915
 30
0.0
 10
-14.5598
 20
-20.0028
 30
0.0
 10
-14.5598
 20
-20.0028
 30
0.0
  0
SPLINE
  5
52
330
1F
100
AcDbEntity
  8
LC-012-007-KH--0
370
    13
100
AcDbSpline
210
0.0
220
0.0
230
1.0
 70
    24
 71
     3
 72
     8
 73
     4
 74
     0
 42
0.0000000001
 43
0.0000000001
 40
0.0
 40
0.0
 40
0.0
 40
0.0
 40
1.0
 40
1.0
 40
1.0
 40
1.0
 10
-14.5598
 20
46.4972
 30
0.0
 10
-14.5598
 20
46.4972
 30
0.0
 10
-14.0598
 20
46.7858
 30
0.0
 10
-14.0598
 20
46.7858
 30
0.0
  0
SPLINE
  5
53
330
1F
100
AcDbEntity
  8
LC-012-007-KH--0
370
    13
100
AcDbSpline
210
0.0
220
0.0
230
1.0
 70
    24
 71
     3
 72
     8
 73
     4
 74
     0
 42
0.0000000001
 43
0.0000000001
 40
0.0
 40
0.0
 40
0.0
 40
0.0
 40
1.0
 40
1.0
 40
1.0
 40
1.0
 10
-14.5598
 20
46.4972
 30
0.0
 10
-14.5598
 20
46.4972
 30
0.0
 10
-14.5598
 20
44.9972
 30
0.0
 10
-14.5598
 20
44.9972
 30
0.0
  0
SPLINE
  5
54
330
1F
100
AcDbEntity
  8
LC-012-007-KH--0
370
    13
100
AcDbSpline
210
0.0
220
0.0
230
1.0
 70
    24
 71
     3
 72
     8
 73
     4
 74
     0
 42
0.0000000001
 43
0.0000000001
 40
0.0
 40
0.0
 40
0.0
 40
0.0
 40
1.0
 40
1.0
 40
1.0
 40
1.0
 10
-14.5598
 20
-18.5028
 30
0.0
 10
-14.5598
 20
-18.5028
 30
0.0
 10
-14.5598
 20
-20.0028
 30
0.0
 10
-14.5598
 20
-20.0028
 30
0.0
  0
SPLINE
  5
55
330
1F
100
AcDbEntity
  8
LC-012-007-KH--0
370
    13
100
AcDbSpline
210
0.0
220
0.0
230
1.0
 70
    24
 71
     3
 72
     8
 73
     4
 74
     0
 42
0.0000000001
 43
0.0000000001
 40
0.0
 40
0.0
 40
0.0
 40
0.0
 40
1.0
 40
1.0
 40
1.0
 40
1.0
 10
-12.0598
 20
46.7625
 30
0.0
 10
-12.0598
 20
46.7625
 30
0.0
 10
-8.809800000000001
 20
46.7625
 30
0.0
 10
-8.809800000000001
 20
46.7625
 30
0.0
  0
SPLINE
  5
56
330
1F
100
AcDbEntity
  8
LC-012-007-KH--0
370
    13
100
AcDbSpline
210
0.0
220
0.0
230
1.0
 70
    24
 71
     3
 72
     8
 73
     4
 74
     0
 42
0.0000000001
 43
0.0000000001
 40
0.0
 40
0.0
 40
0.0
 40
0.0
 40
1.0
 40
1.0
 40
1.0
 40
1.0
 10
-8.809800000000001
 20
-20.2681
 30
0.0
 10
-8.809800000000001
 20
-20.2681
 30
0.0
 10
-12.0598
 20
-20.2681
 30
0.0
 10
-12.0598
 20
-20.2681
 30
0.0
  0
SPLINE
  5
57
330
1F
100
AcDbEntity
  8
LC-012-007-KH--0
370
    13
100
AcDbSpline
210
0.0
220
0.0
230
1.0
 70
    24
 71
     3
 72
     8
 73
     4
 74
     0
 42
0.0000000001
 43
0.0000000001
 40
0.0
 40
0.0
 40
0.0
 40
0.0
 40
1.0
 40
1.0
 40
1.0
 40
1.0
 10
-14.0598
 20
46.2085
 30
0.0
 10
-14.0598
 20
46.2085
 30
0.0
 10
-14.5598
 20
46.4972
 30
0.0
 10
-14.5598
 20
46.4972
 30
0.0
  0
SPLINE
  5
58
330
1F
100
AcDbEntity
  8
LC-012-007-KH--0
370
    13
100
AcDbSpline
210
0.0
220
0.0
230
1.0
 70
    24
 71
     3
 72
     8
 73
     4
 74
     0
 42
0.0000000001
 43
0.0000000001
 40
0.0
 40
0.0
 40
0.0
 40
0.0
 40
1.0
 40
1.0
 40
1.0
 40
1.0
 10
-14.5598
 20
-20.0028
 30
0.0
 10
-14.5598
 20
-20.0028
 30
0.0
 10
-14.0598
 20
-19.7142
 30
0.0
 10
-14.0598
 20
-19.7142
 30
0.0
  0
SPLINE
  5
59
330
1F
100
AcDbEntity
  8
LC-012-007-KH--0
370
    13
100
AcDbSpline
210
0.0
220
0.0
230
1.0
 70
    24
 71
     3
 72
     8
 73
     4
 74
     0
 42
0.0000000001
 43
0.0000000001
 40
0.0
 40
0.0
 40
0.0
 40
0.0
 40
1.0
 40
1.0
 40
1.0
 40
1.0
 10
-4.8098
 20
-18.9028
 30
0.0
 10
-4.8098
 20
-18.9028
 30
0.0
 10
-7.8098
 20
-17.2333
 30
0.0
 10
-7.8098
 20
-17.2333
 30
0.0
  0
SPLINE
  5
5A
330
1F
100
AcDbEntity
  8
LC-012-007-KH--0
370
    13
100
AcDbSpline
210
0.0
220
0.0
230
1.0
 70
    24
 71
     3
 72
     8
 73
     4
 74
     0
 42
0.0000000001
 43
0.0000000001
 40
0.0
 40
0.0
 40
0.0
 40
0.0
 40
1.0
 40
1.0
 40
1.0
 40
1.0
 10
-4.8098
 20
45.39720000000001
 30
0.0
 10
-4.8098
 20
45.39720000000001
 30
0.0
 10
-4.8098
 20
42.2265
 30
0.0
 10
-4.8098
 20
42.2265
 30
0.0
  0
SPLINE
  5
5B
330
1F
100
AcDbEntity
  8
LC-012-007-KH--0
370
    13
100
AcDbSpline
210
0.0
220
0.0
230
1.0
 70
    24
 71
     3
 72
     8
 73
     4
 74
     0
 42
0.0000000001
 43
0.0000000001
 40
0.0
 40
0.0
 40
0.0
 40
0.0
 40
1.0
 40
1.0
 40
1.0
 40
1.0
 10
-4.8098
 20
-16.1922
 30
0.0
 10
-4.8098
 20
-16.1922
 30
0.0
 10
-4.8098
 20
-18.9028
 30
0.0
 10
-4.8098
 20
-18.9028
 30
0.0
  0
SPLINE
  5
5C
330
1F
100
AcDbEntity
  8
LC-012-007-KH--0
370
    13
100
AcDbSpline
210
0.0
220
0.0
230
1.0
 70
    24
 71
     3
 72
     8
 73
     4
 74
     0
 42
0.0000000001
 43
0.0000000001
 40
0.0
 40
0.0
 40
0.0
 40
0.0
 40
1.0
 40
1.0
 40
1.0
 40
1.0
 10
-7.8098
 20
43.7277
 30
0.0
 10
-7.8098
 20
43.7277
 30
0.0
 10
-4.8098
 20
45.39720000000001
 30
0.0
 10
-4.8098
 20
45.39720000000001
 30
0.0
  0
SPLINE
  5
5D
330
1F
100
AcDbEntity
  8
LC-012-007-KH--0
370
    13
100
AcDbSpline
210
0.0
220
0.0
230
1.0
 70
    24
 71
     3
 72
     8
 73
     4
 74
     0
 42
0.0000000001
 43
0.0000000001
 40
0.0
 40
0.0
 40
0.0
 40
0.0
 40
1.0
 40
1.0
 40
1.0
 40
1.0
 10
-8.2249
 20
-16.1278
 30
0.0
 10
-8.2249
 20
-16.1278
 30
0.0
 10
-4.8098
 20
-18.9028
 30
0.0
 10
-4.8098
 20
-18.9028
 30
0.0
  0
SPLINE
  5
5E
330
1F
100
AcDbEntity
  8
LC-012-007-KH--0
370
    13
100
AcDbSpline
210
0.0
220
0.0
230
1.0
 70
    24
 71
     3
 72
     8
 73
     4
 74
     0
 42
0.0000000001
 43
0.0000000001
 40
0.0
 40
0.0
 40
0.0
 40
0.0
 40
1.0
 40
1.0
 40
1.0
 40
1.0
 10
-8.2249
 20
42.6222
 30
0.0
 10
-8.2249
 20
42.6222
 30
0.0
 10
-8.2249
 20
-16.1278
 30
0.0
 10
-8.2249
 20
-16.1278
 30
0.0
  0
SPLINE
  5
5F
330
1F
100
AcDbEntity
  8
LC-012-007-KH--0
370
    13
100
AcDbSpline
210
0.0
220
0.0
230
1.0
 70
    24
 71
     3
 72
     8
 73
     4
 74
     0
 42
0.0000000001
 43
0.0000000001
 40
0.0
 40
0.0
 40
0.0
 40
0.0
 40
1.0
 40
1.0
 40
1.0
 40
1.0
 10
-4.8098
 20
45.39720000000001
 30
0.0
 10
-4.8098
 20
45.39720000000001
 30
0.0
 10
-8.2249
 20
42.6222
 30
0.0
 10
-8.2249
 20
42.6222
 30
0.0
  0
SPLINE
  5
60
330
1F
100
AcDbEntity
  8
LC-012-007-KH--0
370
    13
100
AcDbSpline
210
0.0
220
0.0
230
1.0
 70
    24
 71
     3
 72
     8
 73
     4
 74
     0
 42
0.0000000001
 43
0.0000000001
 40
0.0
 40
0.0
 40
0.0
 40
0.0
 40
1.0
 40
1.0
 40
1.0
 40
1.0
 10
-14.0598
 20
-18.7915
 30
0.0
 10
-14.0598
 20
-18.7915
 30
0.0
 10
-14.5598
 20
-18.5028
 30
0.0
 10
-14.5598
 20
-18.5028
 30
0.0
  0
SPLINE
  5
61
330
1F
100
AcDbEntity
  8
LC-012-007-KH--0
370
    13
100
AcDbSpline
210
0.0
220
0.0
230
1.0
 70
    24
 71
     3
 72
     8
 73
     4
 74
     0
 42
0.0000000001
 43
0.0000000001
 40
0.0
 40
0.0
 40
0.0
 40
0.0
 40
1.0
 40
1.0
 40
1.0
 40
1.0
 10
-14.5598
 20
44.9972
 30
0.0
 10
-14.5598
 20
44.9972
 30
0.0
 10
-14.0598
 20
45.2858
 30
0.0
 10
-14.0598
 20
45.2858
 30
0.0
  0
SPLINE
  5
62
330
1F
100
AcDbEntity
  8
LC-012-007-KH--0
370
    13
100
AcDbSpline
210
0.0
220
0.0
230
1.0
 70
    24
 71
     3
 72
     8
 73
     4
 74
     0
 42
0.0000000001
 43
0.0000000001
 40
0.0
 40
0.0
 40
0.0
 40
0.0
 40
1.0
 40
1.0
 40
1.0
 40
1.0
 10
-14.5598
 20
44.9972
 30
0.0
 10
-14.5598
 20
44.9972
 30
0.0
 10
-14.5598
 20
-18.5028
 30
0.0
 10
-14.5598
 20
-18.5028
 30
0.0
  0
SPLINE
  5
63
330
1F
100
AcDbEntity
  8
LC-012-007-KH--0
370
    13
100
AcDbSpline
210
0.0
220
0.0
230
1.0
 70
    24
 71
     3
 72
     8
 73
     4
 74
     0
 42
0.0000000001
 43
0.0000000001
 40
0.0
 40
0.0
 40
0.0
 40
0.0
 40
1.0
 40
1.0
 40
1.0
 40
1.0
 10
-14.0598
 20
44.7085
 30
0.0
 10
-14.0598
 20
44.7085
 30
0.0
 10
-14.5598
 20
44.9972
 30
0.0
 10
-14.5598
 20
44.9972
 30
0.0
  0
SPLINE
  5
64
330
1F
100
AcDbEntity
  8
LC-012-007-KH--0
370
    13
100
AcDbSpline
210
0.0
220
0.0
230
1.0
 70
    24
 71
     3
 72
     8
 73
     4
 74
     0
 42
0.0000000001
 43
0.0000000001
 40
0.0
 40
0.0
 40
0.0
 40
0.0
 40
1.0
 40
1.0
 40
1.0
 40
1.0
 10
-14.5598
 20
-18.5028
 30
0.0
 10
-14.5598
 20
-18.5028
 30
0.0
 10
-14.0598
 20
-18.2142
 30
0.0
 10
-14.0598
 20
-18.2142
 30
0.0
  0
SPLINE
  5
65
330
1F
100
AcDbEntity
  8
LC-012-007-KH--0
370
    13
100
AcDbSpline
210
0.0
220
0.0
230
1.0
 70
    24
 71
     3
 72
     8
 73
     4
 74
     0
 42
0.0000000001
 43
0.0000000001
 40
0.0
 40
0.0
 40
0.0
 40
0.0
 40
1.0
 40
1.0
 40
1.0
 40
1.0
 10
-8.2249
 20
42.6222
 30
0.0
 10
-8.2249
 20
42.6222
 30
0.0
 10
-14.0598
 20
42.6222
 30
0.0
 10
-14.0598
 20
42.6222
 30
0.0
  0
SPLINE
  5
66
330
1F
100
AcDbEntity
  8
LC-012-007-KH--0
370
    13
100
AcDbSpline
210
0.0
220
0.0
230
1.0
 70
    24
 71
     3
 72
     8
 73
     4
 74
     0
 42
0.0000000001
 43
0.0000000001
 40
0.0
 40
0.0
 40
0.0
 40
0.0
 40
1.0
 40
1.0
 40
1.0
 40
1.0
 10
-14.0598
 20
-16.1278
 30
0.0
 10
-14.0598
 20
-16.1278
 30
0.0
 10
-8.2249
 20
-16.1278
 30
0.0
 10
-8.2249
 20
-16.1278
 30
0.0
  0
SPLINE
  5
67
330
1F
100
AcDbEntity
  8
LC-012-007-KH--0
370
    13
100
AcDbSpline
210
0.0
220
0.0
230
1.0
 70
    24
 71
     3
 72
     8
 73
     4
 74
     0
 42
0.0000000001
 43
0.0000000001
 40
0.0
 40
0.0
 40
0.0
 40
0.0
 40
1.0
 40
1.0
 40
1.0
 40
1.0
 10
-14.0598
 20
42.6222
 30
0.0
 10
-14.0598
 20
42.6222
 30
0.0
 10
-14.0598
 20
-16.1278
 30
0.0
 10
-14.0598
 20
-16.1278
 30
0.0
  0
SPLINE
  5
68
330
1F
100
AcDbEntity
  8
LC-012-007-KH--0
370
    13
100
AcDbSpline
210
0.0
220
0.0
230
1.0
 70
    24
 71
     3
 72
     8
 73
     4
 74
     0
 42
0.0000000001
 43
0.0000000001
 40
0.0
 40
0.0
 40
0.0
 40
0.0
 40
1.0
 40
1.0
 40
1.0
 40
1.0
 10
-14.0598
 20
-18.2142
 30
0.0
 10
-14.0598
 20
-18.2142
 30
0.0
 10
-14.0598
 20
-16.1278
 30
0.0
 10
-14.0598
 20
-16.1278
 30
0.0
  0
SPLINE
  5
69
330
1F
100
AcDbEntity
  8
LC-012-007-KH--0
370
    13
100
AcDbSpline
210
0.0
220
0.0
230
1.0
 70
    24
 71
     3
 72
     8
 73
     4
 74
     0
 42
0.0000000001
 43
0.0000000001
 40
0.0
 40
0.0
 40
0.0
 40
0.0
 40
1.0
 40
1.0
 40
1.0
 40
1.0
 10
-7.8098
 20
-17.2333
 30
0.0
 10
-7.8098
 20
-17.2333
 30
0.0
 10
-7.8098
 20
-18.5361
 30
0.0
 10
-7.8098
 20
-18.5361
 30
0.0
  0
SPLINE
  5
6A
330
1F
100
AcDbEntity
  8
LC-012-007-KH--0
370
    13
100
AcDbSpline
210
0.0
220
0.0
230
1.0
 70
    24
 71
     3
 72
     8
 73
     4
 74
     0
 42
0.0000000001
 43
0.0000000001
 40
0.0
 40
0.0
 40
0.0
 40
0.0
 40
1.0
 40
1.0
 40
1.0
 40
1.0
 10
-14.0598
 20
-19.7142
 30
0.0
 10
-14.0598
 20
-19.7142
 30
0.0
 10
-14.0598
 20
-18.7915
 30
0.0
 10
-14.0598
 20
-18.7915
 30
0.0
  0
SPLINE
  5
6B
330
1F
100
AcDbEntity
  8
LC-012-007-KH--0
370
    13
100
AcDbSpline
210
0.0
220
0.0
230
1.0
 70
    24
 71
     3
 72
     8
 73
     4
 74
     0
 42
0.0000000001
 43
0.0000000001
 40
0.0
 40
0.0
 40
0.0
 40
0.0
 40
1.0
 40
1.0
 40
1.0
 40
1.0
 10
-14.0598
 20
-21.2142
 30
0.0
 10
-14.0598
 20
-21.2142
 30
0.0
 10
-14.0598
 20
-20.2915
 30
0.0
 10
-14.0598
 20
-20.2915
 30
0.0
  0
SPLINE
  5
6C
330
1F
100
AcDbEntity
  8
LC-012-007-KH--0
370
    13
100
AcDbSpline
210
0.0
220
0.0
230
1.0
 70
    24
 71
     3
 72
     8
 73
     4
 74
     0
 42
0.0000000001
 43
0.0000000001
 40
0.0
 40
0.0
 40
0.0
 40
0.0
 40
1.0
 40
1.0
 40
1.0
 40
1.0
 10
-12.0598
 20
-20.2681
 30
0.0
 10
-12.0598
 20
-20.2681
 30
0.0
 10
-12.0598
 20
-21.987
 30
0.0
 10
-12.0598
 20
-21.987
 30
0.0
  0
SPLINE
  5
6D
330
1F
100
AcDbEntity
  8
LC-012-007-KH--0
370
    13
100
AcDbSpline
210
0.0
220
0.0
230
1.0
 70
    24
 71
     3
 72
     8
 73
     4
 74
     0
 42
0.0000000001
 43
0.0000000001
 40
0.0
 40
0.0
 40
0.0
 40
0.0
 40
1.0
 40
1.0
 40
1.0
 40
1.0
 10
-14.0598
 20
-22.8005
 30
0.0
 10
-14.0598
 20
-22.8005
 30
0.0
 10
-14.0598
 20
-21.7915
 30
0.0
 10
-14.0598
 20
-21.7915
 30
0.0
  0
SPLINE
  5
6E
330
1F
100
AcDbEntity
  8
LC-012-007-KH--0
370
    13
100
AcDbSpline
210
0.0
220
0.0
230
1.0
 70
    24
 71
     3
 72
     8
 73
     4
 74
     0
 42
0.0000000001
 43
0.0000000001
 40
0.0
 40
0.0
 40
0.0
 40
0.0
 40
1.0
 40
1.0
 40
1.0
 40
1.0
 10
-2.8098
 20
-21.4228
 30
0.0
 10
-2.8098
 20
-21.4228
 30
0.0
 10
-2.8098
 20
-22.8778
 30
0.0
 10
-2.8098
 20
-22.8778
 30
0.0
  0
SPLINE
  5
6F
330
1F
100
AcDbEntity
  8
LC-012-007-KH--0
370
    13
100
AcDbSpline
210
0.0
220
0.0
230
1.0
 70
    24
 71
     3
 72
     8
 73
     4
 74
     0
 42
0.0000000001
 43
0.0000000001
 40
0.0
 40
0.0
 40
0.0
 40
0.0
 40
1.0
 40
1.0
 40
1.0
 40
1.0
 10
-10.5598
 20
-21.987
 30
0.0
 10
-10.5598
 20
-21.987
 30
0.0
 10
-10.5598
 20
-23.3778
 30
0.0
 10
-10.5598
 20
-23.3778
 30
0.0
  0
SPLINE
  5
70
330
1F
100
AcDbEntity
  8
LC-012-007-KH--0
370
    13
100
AcDbSpline
210
0.0
220
0.0
230
1.0
 70
    24
 71
     3
 72
     8
 73
     4
 74
     0
 42
0.0000000001
 43
0.0000000001
 40
0.0
 40
0.0
 40
0.0
 40
0.0
 40
1.0
 40
1.0
 40
1.0
 40
1.0
 10
-14.0598
 20
42.6222
 30
0.0
 10
-14.0598
 20
42.6222
 30
0.0
 10
-14.0598
 20
44.7085
 30
0.0
 10
-14.0598
 20
44.7085
 30
0.0
  0
SPLINE
  5
71
330
1F
100
AcDbEntity
  8
LC-012-007-KH--0
370
    13
100
AcDbSpline
210
0.0
220
0.0
230
1.0
 70
    24
 71
     3
 72
     8
 73
     4
 74
     0
 42
0.0000000001
 43
0.0000000001
 40
0.0
 40
0.0
 40
0.0
 40
0.0
 40
1.0
 40
1.0
 40
1.0
 40
1.0
 10
-7.8098
 20
45.0304
 30
0.0
 10
-7.8098
 20
45.0304
 30
0.0
 10
-7.8098
 20
43.7277
 30
0.0
 10
-7.8098
 20
43.7277
 30
0.0
  0
SPLINE
  5
72
330
1F
100
AcDbEntity
  8
LC-012-007-KH--0
370
    13
100
AcDbSpline
210
0.0
220
0.0
230
1.0
 70
    24
 71
     3
 72
     8
 73
     4
 74
     0
 42
0.0000000001
 43
0.0000000001
 40
0.0
 40
0.0
 40
0.0
 40
0.0
 40
1.0
 40
1.0
 40
1.0
 40
1.0
 10
-14.0598
 20
45.2858
 30
0.0
 10
-14.0598
 20
45.2858
 30
0.0
 10
-14.0598
 20
46.2085
 30
0.0
 10
-14.0598
 20
46.2085
 30
0.0
  0
SPLINE
  5
73
330
1F
100
AcDbEntity
  8
LC-012-007-KH--0
370
    13
100
AcDbSpline
210
0.0
220
0.0
230
1.0
 70
    24
 71
     3
 72
     8
 73
     4
 74
     0
 42
0.0000000001
 43
0.0000000001
 40
0.0
 40
0.0
 40
0.0
 40
0.0
 40
1.0
 40
1.0
 40
1.0
 40
1.0
 10
-14.0598
 20
46.7858
 30
0.0
 10
-14.0598
 20
46.7858
 30
0.0
 10
-14.0598
 20
47.7085
 30
0.0
 10
-14.0598
 20
47.7085
 30
0.0
  0
SPLINE
  5
74
330
1F
100
AcDbEntity
  8
LC-012-007-KH--0
370
    13
100
AcDbSpline
210
0.0
220
0.0
230
1.0
 70
    24
 71
     3
 72
     8
 73
     4
 74
     0
 42
0.0000000001
 43
0.0000000001
 40
0.0
 40
0.0
 40
0.0
 40
0.0
 40
1.0
 40
1.0
 40
1.0
 40
1.0
 10
-12.0598
 20
48.48130000000001
 30
0.0
 10
-12.0598
 20
48.48130000000001
 30
0.0
 10
-12.0598
 20
46.7625
 30
0.0
 10
-12.0598
 20
46.7625
 30
0.0
  0
SPLINE
  5
75
330
1F
100
AcDbEntity
  8
LC-012-007-KH--0
370
    13
100
AcDbSpline
210
0.0
220
0.0
230
1.0
 70
    24
 71
     3
 72
     8
 73
     4
 74
     0
 42
0.0000000001
 43
0.0000000001
 40
0.0
 40
0.0
 40
0.0
 40
0.0
 40
1.0
 40
1.0
 40
1.0
 40
1.0
 10
-14.0598
 20
48.2858
 30
0.0
 10
-14.0598
 20
48.2858
 30
0.0
 10
-14.0598
 20
49.2948
 30
0.0
 10
-14.0598
 20
49.2948
 30
0.0
  0
SPLINE
  5
76
330
1F
100
AcDbEntity
  8
LC-012-007-KH--0
370
    13
100
AcDbSpline
210
0.0
220
0.0
230
1.0
 70
    24
 71
     3
 72
     8
 73
     4
 74
     0
 42
0.0000000001
 43
0.0000000001
 40
0.0
 40
0.0
 40
0.0
 40
0.0
 40
1.0
 40
1.0
 40
1.0
 40
1.0
 10
-2.8098
 20
49.3722
 30
0.0
 10
-2.8098
 20
49.3722
 30
0.0
 10
-2.8098
 20
47.9172
 30
0.0
 10
-2.8098
 20
47.9172
 30
0.0
  0
SPLINE
  5
77
330
1F
100
AcDbEntity
  8
LC-012-007-KH--0
370
    13
100
AcDbSpline
210
0.0
220
0.0
230
1.0
 70
    24
 71
     3
 72
     8
 73
     4
 74
     0
 42
0.0000000001
 43
0.0000000001
 40
0.0
 40
0.0
 40
0.0
 40
0.0
 40
1.0
 40
1.0
 40
1.0
 40
1.0
 10
-10.5598
 20
49.8722
 30
0.0
 10
-10.5598
 20
49.8722
 30
0.0
 10
-10.5598
 20
48.48130000000001
 30
0.0
 10
-10.5598
 20
48.48130000000001
 30
0.0
  0
SPLINE
  5
78
330
1F
100
AcDbEntity
  8
LC-012-007-KH--0
370
    13
100
AcDbSpline
210
0.0
220
0.0
230
1.0
 70
    24
 71
     3
 72
     8
 73
     4
 74
     0
 42
0.0000000001
 43
0.0000000001
 40
0.0
 40
0.0
 40
0.0
 40
0.0
 40
1.0
 40
1.0
 40
1.0
 40
1.0
 10
-5.489800000000001
 20
45.8922
 30
0.0
 10
-5.489800000000001
 20
45.8922
 30
0.0
 10
-1.3398
 20
45.8922
 30
0.0
 10
-1.3398
 20
45.8922
 30
0.0
  0
SPLINE
  5
79
330
1F
100
AcDbEntity
  8
LC-012-007-KH--0
370
    13
100
AcDbSpline
210
0.0
220
0.0
230
1.0
 70
     8
 71
     3
 72
     8
 73
     4
 74
     0
 42
0.0000000001
 43
0.0000000001
 40
0.0
 40
0.0
 40
0.0
 40
0.0
 40
1.0
 40
1.0
 40
1.0
 40
1.0
 10
-1.3398
 20
45.8922
 30
0.0
 10
-1.0636
 20
45.8922
 30
0.0
 10
-0.8398
 20
46.116
 30
0.0
 10
-0.8398
 20
46.3922
 30
0.0
  0
SPLINE
  5
7A
330
1F
100
AcDbEntity
  8
LC-012-007-KH--0
370
    13
100
AcDbSpline
210
0.0
220
0.0
230
1.0
 70
    24
 71
     3
 72
     8
 73
     4
 74
     0
 42
0.0000000001
 43
0.0000000001
 40
0.0
 40
0.0
 40
0.0
 40
0.0
 40
1.0
 40
1.0
 40
1.0
 40
1.0
 10
-0.8398
 20
46.3922
 30
0.0
 10
-0.8398
 20
46.3922
 30
0.0
 10
-0.8398
 20
51.5522
 30
0.0
 10
-0.8398
 20
51.5522
 30
0.0
  0
SPLINE
  5
7B
330
1F
100
AcDbEntity
  8
LC-012-007-KH--0
370
    13
100
AcDbSpline
210
0.0
220
0.0
230
1.0
 70
    24
 71
     3
 72
     8
 73
     4
 74
     0
 42
0.0000000001
 43
0.0000000001
 40
0.0
 40
0.0
 40
0.0
 40
0.0
 40
1.0
 40
1.0
 40
1.0
 40
1.0
 10
-0.8398
 20
51.5522
 30
0.0
 10
-0.8398
 20
51.5522
 30
0.0
 10
-1.5352
 20
53.6172
 30
0.0
 10
-1.5352
 20
53.6172
 30
0.0
  0
SPLINE
  5
7C
330
1F
100
AcDbEntity
  8
LC-012-007-KH--0
370
    13
100
AcDbSpline
210
0.0
220
0.0
230
1.0
 70
    24
 71
     3
 72
     8
 73
     4
 74
     0
 42
0.0000000001
 43
0.0000000001
 40
0.0
 40
0.0
 40
0.0
 40
0.0
 40
1.0
 40
1.0
 40
1.0
 40
1.0
 10
-1.5352
 20
53.6172
 30
0.0
 10
-1.5352
 20
53.6172
 30
0.0
 10
-1.1666
 20
53.6172
 30
0.0
 10
-1.1666
 20
53.6172
 30
0.0
  0
SPLINE
  5
7D
330
1F
100
AcDbEntity
  8
LC-012-007-KH--0
370
    13
100
AcDbSpline
210
0.0
220
0.0
230
1.0
 70
    24
 71
     3
 72
     8
 73
     4
 74
     0
 42
0.0000000001
 43
0.0000000001
 40
0.0
 40
0.0
 40
0.0
 40
0.0
 40
1.0
 40
1.0
 40
1.0
 40
1.0
 10
-1.1666
 20
53.6172
 30
0.0
 10
-1.1666
 20
53.6172
 30
0.0
 10
-0.4898
 20
51.60610000000001
 30
0.0
 10
-0.4898
 20
51.60610000000001
 30
0.0
  0
SPLINE
  5
7E
330
1F
100
AcDbEntity
  8
LC-012-007-KH--0
370
    13
100
AcDbSpline
210
0.0
220
0.0
230
1.0
 70
    24
 71
     3
 72
     8
 73
     4
 74
     0
 42
0.0000000001
 43
0.0000000001
 40
0.0
 40
0.0
 40
0.0
 40
0.0
 40
1.0
 40
1.0
 40
1.0
 40
1.0
 10
-0.4898
 20
46.3922
 30
0.0
 10
-0.4898
 20
46.3922
 30
0.0
 10
-0.4898
 20
51.60610000000001
 30
0.0
 10
-0.4898
 20
51.60610000000001
 30
0.0
  0
SPLINE
  5
7F
330
1F
100
AcDbEntity
  8
LC-012-007-KH--0
370
    13
100
AcDbSpline
210
0.0
220
0.0
230
1.0
 70
     8
 71
     3
 72
     8
 73
     4
 74
     0
 42
0.0000000001
 43
0.0000000001
 40
0.0
 40
0.0
 40
0.0
 40
0.0
 40
1.0
 40
1.0
 40
1.0
 40
1.0
 10
-1.3398
 20
45.5422
 30
0.0
 10
-0.8703000000000001
 20
45.5422
 30
0.0
 10
-0.4898
 20
45.9227
 30
0.0
 10
-0.4898
 20
46.3922
 30
0.0
  0
SPLINE
  5
80
330
1F
100
AcDbEntity
  8
LC-012-007-KH--0
370
    13
100
AcDbSpline
210
0.0
220
0.0
230
1.0
 70
    24
 71
     3
 72
     8
 73
     4
 74
     0
 42
0.0000000001
 43
0.0000000001
 40
0.0
 40
0.0
 40
0.0
 40
0.0
 40
1.0
 40
1.0
 40
1.0
 40
1.0
 10
-1.3398
 20
45.5422
 30
0.0
 10
-1.3398
 20
45.5422
 30
0.0
 10
-5.489800000000001
 20
45.5422
 30
0.0
 10
-5.489800000000001
 20
45.5422
 30
0.0
  0
SPLINE
  5
81
330
1F
100
AcDbEntity
  8
LC-012-007-KH--0
370
    13
100
AcDbSpline
210
0.0
220
0.0
230
1.0
 70
    24
 71
     3
 72
     8
 73
     4
 74
     0
 42
0.0000000001
 43
0.0000000001
 40
0.0
 40
0.0
 40
0.0
 40
0.0
 40
1.0
 40
1.0
 40
1.0
 40
1.0
 10
-5.489800000000001
 20
45.5422
 30
0.0
 10
-5.489800000000001
 20
45.5422
 30
0.0
 10
-6.989800000000001
 20
45.5424
 30
0.0
 10
-6.989800000000001
 20
45.5424
 30
0.0
  0
SPLINE
  5
82
330
1F
100
AcDbEntity
  8
LC-012-007-KH--0
370
    13
100
AcDbSpline
210
0.0
220
0.0
230
1.0
 70
     8
 71
     3
 72
    12
 73
     8
 74
     0
 42
0.0000000001
 43
0.0000000001
 40
0.0
 40
0.0
 40
0.0
 40
0.0
 40
0.5
 40
0.5
 40
0.5
 40
0.5
 40
1.0
 40
1.0
 40
1.0
 40
1.0
 10
-6.989800000000001
 20
45.5424
 30
0.0
 10
-7.029500000000001
 20
45.5424
 30
0.0
 10
-7.0677
 20
45.5266
 30
0.0
 10
-7.095800000000001
 20
45.4985
 30
0.0
 10
-7.095800000000001
 20
45.4985
 30
0.0
 10
-7.124000000000001
 20
45.4703
 30
0.0
 10
-7.1398
 20
45.4322
 30
0.0
 10
-7.1398
 20
45.3924
 30
0.0
  0
SPLINE
  5
83
330
1F
100
AcDbEntity
  8
LC-012-007-KH--0
370
    13
100
AcDbSpline
210
0.0
220
0.0
230
1.0
 70
    24
 71
     3
 72
     8
 73
     4
 74
     0
 42
0.0000000001
 43
0.0000000001
 40
0.0
 40
0.0
 40
0.0
 40
0.0
 40
1.0
 40
1.0
 40
1.0
 40
1.0
 10
-7.1398
 20
45.3924
 30
0.0
 10
-7.1398
 20
45.3924
 30
0.0
 10
-7.1398
 20
42.4146
 30
0.0
 10
-7.1398
 20
42.4146
 30
0.0
  0
SPLINE
  5
84
330
1F
100
AcDbEntity
  8
LC-012-007-KH--0
370
    13
100
AcDbSpline
210
0.0
220
0.0
230
1.0
 70
     8
 71
     3
 72
     8
 73
     4
 74
     0
 42
0.0000000001
 43
0.0000000001
 40
0.0
 40
0.0
 40
0.0
 40
0.0
 40
1.0
 40
1.0
 40
1.0
 40
1.0
 10
-7.1398
 20
42.4146
 30
0.0
 10
-7.1398
 20
42.3328
 30
0.0
 10
-7.0742
 20
42.26600000000001
 30
0.0
 10
-6.9924
 20
42.2646
 30
0.0
  0
SPLINE
  5
85
330
1F
100
AcDbEntity
  8
LC-012-007-KH--0
370
    13
100
AcDbSpline
210
0.0
220
0.0
230
1.0
 70
    24
 71
     3
 72
     8
 73
     4
 74
     0
 42
0.0000000001
 43
0.0000000001
 40
0.0
 40
0.0
 40
0.0
 40
0.0
 40
1.0
 40
1.0
 40
1.0
 40
1.0
 10
-6.9924
 20
42.2646
 30
0.0
 10
-6.9924
 20
42.2646
 30
0.0
 10
-2.9195
 20
42.1935
 30
0.0
 10
-2.9195
 20
42.1935
 30
0.0
  0
SPLINE
  5
86
330
1F
100
AcDbEntity
  8
LC-012-007-KH--0
370
    13
100
AcDbSpline
210
0.0
220
0.0
230
1.0
 70
     8
 71
     3
 72
     8
 73
     4
 74
     0
 42
0.0000000001
 43
0.0000000001
 40
0.0
 40
0.0
 40
0.0
 40
0.0
 40
1.0
 40
1.0
 40
1.0
 40
1.0
 10
-1.5336
 20
41.1996
 30
0.0
 10
-1.744
 20
41.7869
 30
0.0
 10
-2.2958
 20
42.1826
 30
0.0
 10
-2.9195
 20
42.1935
 30
0.0
  0
SPLINE
  5
87
330
1F
100
AcDbEntity
  8
LC-012-007-KH--0
370
    13
100
AcDbSpline
210
0.0
220
0.0
230
1.0
 70
    24
 71
     3
 72
     8
 73
     4
 74
     0
 42
0.0000000001
 43
0.0000000001
 40
0.0
 40
0.0
 40
0.0
 40
0.0
 40
1.0
 40
1.0
 40
1.0
 40
1.0
 10
6.3508
 20
19.1915
 30
0.0
 10
6.3508
 20
19.1915
 30
0.0
 10
-1.5336
 20
41.1996
 30
0.0
 10
-1.5336
 20
41.1996
 30
0.0
  0
SPLINE
  5
88
330
1F
100
AcDbEntity
  8
LC-012-007-KH--0
370
    13
100
AcDbSpline
210
0.0
220
0.0
230
1.0
 70
     8
 71
     3
 72
     8
 73
     4
 74
     0
 42
0.0000000001
 43
0.0000000001
 40
0.0
 40
0.0
 40
0.0
 40
0.0
 40
1.0
 40
1.0
 40
1.0
 40
1.0
 10
6.082100000000001
 20
18.2416
 30
0.0
 10
6.365200000000001
 20
18.4685
 30
0.0
 10
6.473100000000001
 20
18.85
 30
0.0
 10
6.3508
 20
19.1915
 30
0.0
  0
SPLINE
  5
89
330
1F
100
AcDbEntity
  8
LC-012-007-KH--0
370
    13
100
AcDbSpline
210
0.0
220
0.0
230
1.0
 70
    24
 71
     3
 72
     8
 73
     4
 74
     0
 42
0.0000000001
 43
0.0000000001
 40
0.0
 40
0.0
 40
0.0
 40
0.0
 40
1.0
 40
1.0
 40
1.0
 40
1.0
 10
5.403300000000001
 20
17.6975
 30
0.0
 10
5.403300000000001
 20
17.6975
 30
0.0
 10
6.082100000000001
 20
18.2416
 30
0.0
 10
6.082100000000001
 20
18.2416
 30
0.0
  0
SPLINE
  5
8A
330
1F
100
AcDbEntity
  8
LC-012-007-KH--0
370
    13
100
AcDbSpline
210
0.0
220
0.0
230
1.0
 70
     8
 71
     3
 72
     8
 73
     4
 74
     0
 42
0.0000000001
 43
0.0000000001
 40
0.0
 40
0.0
 40
0.0
 40
0.0
 40
1.0
 40
1.0
 40
1.0
 40
1.0
 10
-0.3207
 20
-15.0361
 30
0.0
 10
4.1927
 20
-4.7443
 30
0.0
 10
6.1562
 20
6.484500000000001
 30
0.0
 10
5.403300000000001
 20
17.6972
 30
0.0
  0
SPLINE
  5
8B
330
1F
100
AcDbEntity
  8
LC-012-007-KH--0
370
    13
100
AcDbSpline
210
0.0
220
0.0
230
1.0
 70
     8
 71
     3
 72
     8
 73
     4
 74
     0
 42
0.0000000001
 43
0.0000000001
 40
0.0
 40
0.0
 40
0.0
 40
0.0
 40
1.0
 40
1.0
 40
1.0
 40
1.0
 10
-1.9827
 20
-16.1428
 30
0.0
 10
-1.2601
 20
-16.1302
 30
0.0
 10
-0.611
 20
-15.698
 30
0.0
 10
-0.3207
 20
-15.0361
 30
0.0
  0
SPLINE
  5
8C
330
1F
100
AcDbEntity
  8
LC-012-007-KH--0
370
    13
100
AcDbSpline
210
0.0
220
0.0
230
1.0
 70
    24
 71
     3
 72
     8
 73
     4
 74
     0
 42
0.0000000001
 43
0.0000000001
 40
0.0
 40
0.0
 40
0.0
 40
0.0
 40
1.0
 40
1.0
 40
1.0
 40
1.0
 10
-1.9827
 20
-16.1428
 30
0.0
 10
-1.9827
 20
-16.1428
 30
0.0
 10
-6.9924
 20
-16.2303
 30
0.0
 10
-6.9924
 20
-16.2303
 30
0.0
  0
SPLINE
  5
8D
330
1F
100
AcDbEntity
  8
LC-012-007-KH--0
370
    13
100
AcDbSpline
210
0.0
220
0.0
230
1.0
 70
     8
 71
     3
 72
     8
 73
     4
 74
     0
 42
0.0000000001
 43
0.0000000001
 40
0.0
 40
0.0
 40
0.0
 40
0.0
 40
1.0
 40
1.0
 40
1.0
 40
1.0
 10
-6.9924
 20
-16.2303
 30
0.0
 10
-7.0742
 20
-16.2317
 30
0.0
 10
-7.1398
 20
-16.2984
 30
0.0
 10
-7.1398
 20
-16.3802
 30
0.0
  0
SPLINE
  5
8E
330
1F
100
AcDbEntity
  8
LC-012-007-KH--0
370
    13
100
AcDbSpline
210
0.0
220
0.0
230
1.0
 70
    24
 71
     3
 72
     8
 73
     4
 74
     0
 42
0.0000000001
 43
0.0000000001
 40
0.0
 40
0.0
 40
0.0
 40
0.0
 40
1.0
 40
1.0
 40
1.0
 40
1.0
 10
-7.1398
 20
-16.3802
 30
0.0
 10
-7.1398
 20
-16.3802
 30
0.0
 10
-7.1398
 20
-19.3581
 30
0.0
 10
-7.1398
 20
-19.3581
 30
0.0
  0
SPLINE
  5
8F
330
1F
100
AcDbEntity
  8
LC-012-007-KH--0
370
    13
100
AcDbSpline
210
0.0
220
0.0
230
1.0
 70
     8
 71
     3
 72
    12
 73
     8
 74
     0
 42
0.0000000001
 43
0.0000000001
 40
0.0
 40
0.0
 40
0.0
 40
0.0
 40
0.5
 40
0.5
 40
0.5
 40
0.5
 40
1.0
 40
1.0
 40
1.0
 40
1.0
 10
-7.1398
 20
-19.3581
 30
0.0
 10
-7.1398
 20
-19.3978
 30
0.0
 10
-7.124000000000001
 20
-19.436
 30
0.0
 10
-7.095800000000001
 20
-19.4641
 30
0.0
 10
-7.095800000000001
 20
-19.4641
 30
0.0
 10
-7.0677
 20
-19.4923
 30
0.0
 10
-7.029500000000001
 20
-19.5081
 30
0.0
 10
-6.989800000000001
 20
-19.5081
 30
0.0
  0
SPLINE
  5
90
330
1F
100
AcDbEntity
  8
LC-012-007-KH--0
370
    13
100
AcDbSpline
210
0.0
220
0.0
230
1.0
 70
    24
 71
     3
 72
     8
 73
     4
 74
     0
 42
0.0000000001
 43
0.0000000001
 40
0.0
 40
0.0
 40
0.0
 40
0.0
 40
1.0
 40
1.0
 40
1.0
 40
1.0
 10
-6.989800000000001
 20
-19.5081
 30
0.0
 10
-6.989800000000001
 20
-19.5081
 30
0.0
 10
-5.489800000000001
 20
-19.5081
 30
0.0
 10
-5.489800000000001
 20
-19.5081
 30
0.0
  0
SPLINE
  5
91
330
1F
100
AcDbEntity
  8
LC-012-007-KH--0
370
    13
100
AcDbSpline
210
0.0
220
0.0
230
1.0
 70
    24
 71
     3
 72
     8
 73
     4
 74
     0
 42
0.0000000001
 43
0.0000000001
 40
0.0
 40
0.0
 40
0.0
 40
0.0
 40
1.0
 40
1.0
 40
1.0
 40
1.0
 10
-5.489800000000001
 20
-19.5081
 30
0.0
 10
-5.489800000000001
 20
-19.5081
 30
0.0
 10
-5.489800000000001
 20
-19.8581
 30
0.0
 10
-5.489800000000001
 20
-19.8581
 30
0.0
  0
SPLINE
  5
92
330
1F
100
AcDbEntity
  8
LC-012-007-KH--0
370
    13
100
AcDbSpline
210
0.0
220
0.0
230
1.0
 70
    24
 71
     3
 72
     8
 73
     4
 74
     0
 42
0.0000000001
 43
0.0000000001
 40
0.0
 40
0.0
 40
0.0
 40
0.0
 40
1.0
 40
1.0
 40
1.0
 40
1.0
 10
-5.489800000000001
 20
-19.8581
 30
0.0
 10
-5.489800000000001
 20
-19.8581
 30
0.0
 10
-6.989800000000001
 20
-19.8581
 30
0.0
 10
-6.989800000000001
 20
-19.8581
 30
0.0
  0
SPLINE
  5
93
330
1F
100
AcDbEntity
  8
LC-012-007-KH--0
370
    13
100
AcDbSpline
210
0.0
220
0.0
230
1.0
 70
     8
 71
     3
 72
    12
 73
     8
 74
     0
 42
0.0000000001
 43
0.0000000001
 40
0.0
 40
0.0
 40
0.0
 40
0.0
 40
0.5
 40
0.5
 40
0.5
 40
0.5
 40
1.0
 40
1.0
 40
1.0
 40
1.0
 10
-7.489800000000001
 20
-19.3581
 30
0.0
 10
-7.489800000000001
 20
-19.4907
 30
0.0
 10
-7.4371
 20
-19.6178
 30
0.0
 10
-7.3433
 20
-19.7116
 30
0.0
 10
-7.3433
 20
-19.7116
 30
0.0
 10
-7.2495
 20
-19.8054
 30
0.0
 10
-7.122400000000001
 20
-19.8581
 30
0.0
 10
-6.989800000000001
 20
-19.8581
 30
0.0
  0
SPLINE
  5
94
330
1F
100
AcDbEntity
  8
LC-012-007-KH--0
370
    13
100
AcDbSpline
210
0.0
220
0.0
230
1.0
 70
    24
 71
     3
 72
     8
 73
     4
 74
     0
 42
0.0000000001
 43
0.0000000001
 40
0.0
 40
0.0
 40
0.0
 40
0.0
 40
1.0
 40
1.0
 40
1.0
 40
1.0
 10
-7.489800000000001
 20
-19.3581
 30
0.0
 10
-7.489800000000001
 20
-19.3581
 30
0.0
 10
-7.489800000000001
 20
-16.3802
 30
0.0
 10
-7.489800000000001
 20
-16.3802
 30
0.0
  0
SPLINE
  5
95
330
1F
100
AcDbEntity
  8
LC-012-007-KH--0
370
    13
100
AcDbSpline
210
0.0
220
0.0
230
1.0
 70
     8
 71
     3
 72
     8
 73
     4
 74
     0
 42
0.0000000001
 43
0.0000000001
 40
0.0
 40
0.0
 40
0.0
 40
0.0
 40
1.0
 40
1.0
 40
1.0
 40
1.0
 10
-6.9985
 20
-15.8803
 30
0.0
 10
-7.2712
 20
-15.8851
 30
0.0
 10
-7.489800000000001
 20
-16.1075
 30
0.0
 10
-7.489800000000001
 20
-16.3802
 30
0.0
  0
SPLINE
  5
96
330
1F
100
AcDbEntity
  8
LC-012-007-KH--0
370
    13
100
AcDbSpline
210
0.0
220
0.0
230
1.0
 70
    24
 71
     3
 72
     8
 73
     4
 74
     0
 42
0.0000000001
 43
0.0000000001
 40
0.0
 40
0.0
 40
0.0
 40
0.0
 40
1.0
 40
1.0
 40
1.0
 40
1.0
 10
-6.9985
 20
-15.8803
 30
0.0
 10
-6.9985
 20
-15.8803
 30
0.0
 10
-1.9888
 20
-15.7929
 30
0.0
 10
-1.9888
 20
-15.7929
 30
0.0
  0
SPLINE
  5
97
330
1F
100
AcDbEntity
  8
LC-012-007-KH--0
370
    13
100
AcDbSpline
210
0.0
220
0.0
230
1.0
 70
     8
 71
     3
 72
     8
 73
     4
 74
     0
 42
0.0000000001
 43
0.0000000001
 40
0.0
 40
0.0
 40
0.0
 40
0.0
 40
1.0
 40
1.0
 40
1.0
 40
1.0
 10
-1.9888
 20
-15.7929
 30
0.0
 10
-1.4029
 20
-15.7826
 30
0.0
 10
-0.8766000000000001
 20
-15.4322
 30
0.0
 10
-0.6413
 20
-14.8955
 30
0.0
  0
SPLINE
  5
98
330
1F
100
AcDbEntity
  8
LC-012-007-KH--0
370
    13
100
AcDbSpline
210
0.0
220
0.0
230
1.0
 70
     8
 71
     3
 72
     8
 73
     4
 74
     0
 42
0.0000000001
 43
0.0000000001
 40
0.0
 40
0.0
 40
0.0
 40
0.0
 40
1.0
 40
1.0
 40
1.0
 40
1.0
 10
-0.6413
 20
-14.8955
 30
0.0
 10
7.1607
 20
2.895
 30
0.0
 10
7.1607
 20
23.1389
 30
0.0
 10
-0.6411
 20
40.9295
 30
0.0
  0
SPLINE
  5
99
330
1F
100
AcDbEntity
  8
LC-012-007-KH--0
370
    13
100
AcDbSpline
210
0.0
220
0.0
230
1.0
 70
     8
 71
     3
 72
     8
 73
     4
 74
     0
 42
0.0000000001
 43
0.0000000001
 40
0.0
 40
0.0
 40
0.0
 40
0.0
 40
1.0
 40
1.0
 40
1.0
 40
1.0
 10
-0.6413
 20
40.9299
 30
0.0
 10
-0.8766000000000001
 20
41.4665
 30
0.0
 10
-1.4029
 20
41.817
 30
0.0
 10
-1.9888
 20
41.82720000000001
 30
0.0
  0
SPLINE
  5
9A
330
1F
100
AcDbEntity
  8
LC-012-007-KH--0
370
    13
100
AcDbSpline
210
0.0
220
0.0
230
1.0
 70
    24
 71
     3
 72
     8
 73
     4
 74
     0
 42
0.0000000001
 43
0.0000000001
 40
0.0
 40
0.0
 40
0.0
 40
0.0
 40
1.0
 40
1.0
 40
1.0
 40
1.0
 10
-1.9888
 20
41.82720000000001
 30
0.0
 10
-1.9888
 20
41.82720000000001
 30
0.0
 10
-6.9985
 20
41.9147
 30
0.0
 10
-6.9985
 20
41.9147
 30
0.0
  0
SPLINE
  5
9B
330
1F
100
AcDbEntity
  8
LC-012-007-KH--0
370
    13
100
AcDbSpline
210
0.0
220
0.0
230
1.0
 70
     8
 71
     3
 72
     8
 73
     4
 74
     0
 42
0.0000000001
 43
0.0000000001
 40
0.0
 40
0.0
 40
0.0
 40
0.0
 40
1.0
 40
1.0
 40
1.0
 40
1.0
 10
-7.489800000000001
 20
42.4146
 30
0.0
 10
-7.489800000000001
 20
42.1418
 30
0.0
 10
-7.2712
 20
41.9194
 30
0.0
 10
-6.9985
 20
41.9147
 30
0.0
  0
SPLINE
  5
9C
330
1F
100
AcDbEntity
  8
LC-012-007-KH--0
370
    13
100
AcDbSpline
210
0.0
220
0.0
230
1.0
 70
    24
 71
     3
 72
     8
 73
     4
 74
     0
 42
0.0000000001
 43
0.0000000001
 40
0.0
 40
0.0
 40
0.0
 40
0.0
 40
1.0
 40
1.0
 40
1.0
 40
1.0
 10
-7.489800000000001
 20
42.4146
 30
0.0
 10
-7.489800000000001
 20
42.4146
 30
0.0
 10
-7.489800000000001
 20
45.3924
 30
0.0
 10
-7.489800000000001
 20
45.3924
 30
0.0
  0
SPLINE
  5
9D
330
1F
100
AcDbEntity
  8
LC-012-007-KH--0
370
    13
100
AcDbSpline
210
0.0
220
0.0
230
1.0
 70
     8
 71
     3
 72
    12
 73
     8
 74
     0
 42
0.0000000001
 43
0.0000000001
 40
0.0
 40
0.0
 40
0.0
 40
0.0
 40
0.5
 40
0.5
 40
0.5
 40
0.5
 40
1.0
 40
1.0
 40
1.0
 40
1.0
 10
-6.989800000000001
 20
45.8924
 30
0.0
 10
-7.122400000000001
 20
45.8924
 30
0.0
 10
-7.2495
 20
45.8397
 30
0.0
 10
-7.3433
 20
45.746
 30
0.0
 10
-7.3433
 20
45.746
 30
0.0
 10
-7.4371
 20
45.6522
 30
0.0
 10
-7.489800000000001
 20
45.52500000000001
 30
0.0
 10
-7.489800000000001
 20
45.3924
 30
0.0
  0
SPLINE
  5
9E
330
1F
100
AcDbEntity
  8
LC-012-007-KH--0
370
    13
100
AcDbSpline
210
0.0
220
0.0
230
1.0
 70
    24
 71
     3
 72
     8
 73
     4
 74
     0
 42
0.0000000001
 43
0.0000000001
 40
0.0
 40
0.0
 40
0.0
 40
0.0
 40
1.0
 40
1.0
 40
1.0
 40
1.0
 10
-6.989800000000001
 20
45.8924
 30
0.0
 10
-6.989800000000001
 20
45.8924
 30
0.0
 10
-5.489800000000001
 20
45.8924
 30
0.0
 10
-5.489800000000001
 20
45.8924
 30
0.0
  0
SPLINE
  5
9F
330
1F
100
AcDbEntity
  8
LC-012-007-KH--0
370
    13
100
AcDbSpline
210
0.0
220
0.0
230
1.0
 70
    24
 71
     3
 72
     8
 73
     4
 74
     0
 42
0.0000000001
 43
0.0000000001
 40
0.0
 40
0.0
 40
0.0
 40
0.0
 40
1.0
 40
1.0
 40
1.0
 40
1.0
 10
-1.9888
 20
41.82720000000001
 30
0.0
 10
-1.9888
 20
41.82720000000001
 30
0.0
 10
-1.9888
 20
-15.7929
 30
0.0
 10
-1.9888
 20
-15.7929
 30
0.0
  0
SPLINE
  5
A0
330
1F
100
AcDbEntity
  8
LC-012-007-KH--0
370
    13
100
AcDbSpline
210
0.0
220
0.0
230
1.0
 70
    24
 71
     3
 72
     8
 73
     4
 74
     0
 42
0.0000000001
 43
0.0000000001
 40
0.0
 40
0.0
 40
0.0
 40
0.0
 40
1.0
 40
1.0
 40
1.0
 40
1.0
 10
-6.9985
 20
41.9147
 30
0.0
 10
-6.9985
 20
41.9147
 30
0.0
 10
-6.9985
 20
-15.8803
 30
0.0
 10
-6.9985
 20
-15.8803
 30
0.0
  0
SPLINE
  5
A1
330
1F
100
AcDbEntity
  8
LC-012-007-KH--0
370
    13
100
AcDbSpline
210
0.0
220
0.0
230
1.0
 70
    24
 71
     3
 72
     8
 73
     4
 74
     0
 42
0.0000000001
 43
0.0000000001
 40
0.0
 40
0.0
 40
0.0
 40
0.0
 40
1.0
 40
1.0
 40
1.0
 40
1.0
 10
-5.489800000000001
 20
45.5422
 30
0.0
 10
-5.489800000000001
 20
45.5422
 30
0.0
 10
-5.489800000000001
 20
45.0188
 30
0.0
 10
-5.489800000000001
 20
45.0188
 30
0.0
  0
SPLINE
  5
A2
330
1F
100
AcDbEntity
  8
LC-012-007-KH--0
370
    13
100
AcDbSpline
210
0.0
220
0.0
230
1.0
 70
    24
 71
     3
 72
     8
 73
     4
 74
     0
 42
0.0000000001
 43
0.0000000001
 40
0.0
 40
0.0
 40
0.0
 40
0.0
 40
1.0
 40
1.0
 40
1.0
 40
1.0
 10
-1.3398
 20
41.3346
 30
0.0
 10
-1.3398
 20
41.3346
 30
0.0
 10
-1.3398
 20
45.5422
 30
0.0
 10
-1.3398
 20
45.5422
 30
0.0
  0
SPLINE
  5
A3
330
1F
100
AcDbEntity
  8
LC-012-007-KH--0
370
    13
100
AcDbSpline
210
0.0
220
0.0
230
1.0
 70
    24
 71
     3
 72
     8
 73
     4
 74
     0
 42
0.0000000001
 43
0.0000000001
 40
0.0
 40
0.0
 40
0.0
 40
0.0
 40
1.0
 40
1.0
 40
1.0
 40
1.0
 10
-5.489800000000001
 20
-18.5244
 30
0.0
 10
-5.489800000000001
 20
-18.5244
 30
0.0
 10
-5.489800000000001
 20
-19.5081
 30
0.0
 10
-5.489800000000001
 20
-19.5081
 30
0.0
  0
SPLINE
  5
A4
330
1F
100
AcDbEntity
  8
LC-012-007-KH--0
370
    13
100
AcDbSpline
210
0.0
220
0.0
230
1.0
 70
    24
 71
     3
 72
     8
 73
     4
 74
     0
 42
0.0000000001
 43
0.0000000001
 40
0.0
 40
0.0
 40
0.0
 40
0.0
 40
1.0
 40
1.0
 40
1.0
 40
1.0
 10
-7.489800000000001
 20
42.4146
 30
0.0
 10
-7.489800000000001
 20
42.4146
 30
0.0
 10
-7.489800000000001
 20
-16.3802
 30
0.0
 10
-7.489800000000001
 20
-16.3802
 30
0.0
  0
SPLINE
  5
A5
330
1F
100
AcDbEntity
  8
LC-012-007-KH--0
370
    13
100
AcDbSpline
210
0.0
220
0.0
230
1.0
 70
    24
 71
     3
 72
     8
 73
     4
 74
     0
 42
0.0000000001
 43
0.0000000001
 40
0.0
 40
0.0
 40
0.0
 40
0.0
 40
1.0
 40
1.0
 40
1.0
 40
1.0
 10
-0.4898
 20
46.3922
 30
0.0
 10
-0.4898
 20
46.3922
 30
0.0
 10
-0.4898
 20
42.3069
 30
0.0
 10
-0.4898
 20
42.3069
 30
0.0
  0
SPLINE
  5
A6
330
1F
100
AcDbEntity
  8
LC-012-007-KH--0
370
    13
100
AcDbSpline
210
0.0
220
0.0
230
1.0
 70
    24
 71
     3
 72
     8
 73
     4
 74
     0
 42
0.0000000001
 43
0.0000000001
 40
0.0
 40
0.0
 40
0.0
 40
0.0
 40
1.0
 40
1.0
 40
1.0
 40
1.0
 10
-2.0403
 20
55.1172
 30
0.0
 10
-2.0403
 20
55.1172
 30
0.0
 10
-1.6714
 20
55.1172
 30
0.0
 10
-1.6714
 20
55.1172
 30
0.0
  0
SPLINE
  5
A7
330
1F
100
AcDbEntity
  8
LC-012-007-KH--0
370
    13
100
AcDbSpline
210
0.0
220
0.0
230
1.0
 70
    24
 71
     3
 72
     8
 73
     4
 74
     0
 42
0.0000000001
 43
0.0000000001
 40
0.0
 40
0.0
 40
0.0
 40
0.0
 40
1.0
 40
1.0
 40
1.0
 40
1.0
 10
-1.5352
 20
53.6172
 30
0.0
 10
-1.5352
 20
53.6172
 30
0.0
 10
-2.0403
 20
55.1172
 30
0.0
 10
-2.0403
 20
55.1172
 30
0.0
  0
SPLINE
  5
A8
330
1F
100
AcDbEntity
  8
LC-012-007-KH--0
370
    13
100
AcDbSpline
210
0.0
220
0.0
230
1.0
 70
    24
 71
     3
 72
     8
 73
     4
 74
     0
 42
0.0000000001
 43
0.0000000001
 40
0.0
 40
0.0
 40
0.0
 40
0.0
 40
1.0
 40
1.0
 40
1.0
 40
1.0
 10
-1.6714
 20
55.1172
 30
0.0
 10
-1.6714
 20
55.1172
 30
0.0
 10
-1.1666
 20
53.6172
 30
0.0
 10
-1.1666
 20
53.6172
 30
0.0
  0
SPLINE
  5
A9
330
1F
100
AcDbEntity
  8
LC-012-007-KH--0
370
    13
100
AcDbSpline
210
0.0
220
0.0
230
1.0
 70
     8
 71
     3
 72
     8
 73
     4
 74
     0
 42
0.0000000001
 43
0.0000000001
 40
0.0
 40
0.0
 40
0.0
 40
0.0
 40
1.0
 40
1.0
 40
1.0
 40
1.0
 10
-2.6196
 20
56.8374
 30
0.0
 10
-2.9073
 20
57.6918
 30
0.0
 10
-3.7082
 20
58.2672
 30
0.0
 10
-4.6098
 20
58.2672
 30
0.0
  0
SPLINE
  5
AA
330
1F
100
AcDbEntity
  8
LC-012-007-KH--0
370
    13
100
AcDbSpline
210
0.0
220
0.0
230
1.0
 70
    24
 71
     3
 72
     8
 73
     4
 74
     0
 42
0.0000000001
 43
0.0000000001
 40
0.0
 40
0.0
 40
0.0
 40
0.0
 40
1.0
 40
1.0
 40
1.0
 40
1.0
 10
-4.6098
 20
58.2672
 30
0.0
 10
-4.6098
 20
58.2672
 30
0.0
 10
-5.3098
 20
58.2672
 30
0.0
 10
-5.3098
 20
58.2672
 30
0.0
  0
SPLINE
  5
AB
330
1F
100
AcDbEntity
  8
LC-012-007-KH--0
370
    13
100
AcDbSpline
210
0.0
220
0.0
230
1.0
 70
     8
 71
     3
 72
    12
 73
     8
 74
     0
 42
0.0000000001
 43
0.0000000001
 40
0.0
 40
0.0
 40
0.0
 40
0.0
 40
0.5
 40
0.5
 40
0.5
 40
0.5
 40
1.0
 40
1.0
 40
1.0
 40
1.0
 10
-5.3098
 20
58.2672
 30
0.0
 10
-6.420900000000001
 20
58.2672
 30
0.0
 10
-7.3398
 20
57.4016
 30
0.0
 10
-7.406000000000001
 20
56.2924
 30
0.0
 10
-7.406000000000001
 20
56.2924
 30
0.0
 10
-7.472300000000001
 20
55.1832
 30
0.0
 10
-6.663
 20
54.21440000000001
 30
0.0
 10
-5.5598
 20
54.0821
 30
0.0
  0
SPLINE
  5
AC
330
1F
100
AcDbEntity
  8
LC-012-007-KH--0
370
    13
100
AcDbSpline
210
0.0
220
0.0
230
1.0
 70
     8
 71
     3
 72
    12
 73
     8
 74
     0
 42
0.0000000001
 43
0.0000000001
 40
0.0
 40
0.0
 40
0.0
 40
0.0
 40
0.5
 40
0.5
 40
0.5
 40
0.5
 40
1.0
 40
1.0
 40
1.0
 40
1.0
 10
-5.3098
 20
58.6172
 30
0.0
 10
-6.606500000000001
 20
58.6172
 30
0.0
 10
-7.6787
 20
57.6067
 30
0.0
 10
-7.755500000000001
 20
56.3122
 30
0.0
 10
-7.755500000000001
 20
56.3122
 30
0.0
 10
-7.8322
 20
55.0178
 30
0.0
 10
-6.887000000000001
 20
53.8876
 30
0.0
 10
-5.5994
 20
53.7344
 30
0.0
  0
SPLINE
  5
AD
330
1F
100
AcDbEntity
  8
LC-012-007-KH--0
370
    13
100
AcDbSpline
210
0.0
220
0.0
230
1.0
 70
    24
 71
     3
 72
     8
 73
     4
 74
     0
 42
0.0000000001
 43
0.0000000001
 40
0.0
 40
0.0
 40
0.0
 40
0.0
 40
1.0
 40
1.0
 40
1.0
 40
1.0
 10
-5.5598
 20
54.0821
 30
0.0
 10
-5.5598
 20
54.0821
 30
0.0
 10
-5.5994
 20
53.7344
 30
0.0
 10
-5.5994
 20
53.7344
 30
0.0
  0
SPLINE
  5
AE
330
1F
100
AcDbEntity
  8
LC-012-007-KH--0
370
    13
100
AcDbSpline
210
0.0
220
0.0
230
1.0
 70
     8
 71
     3
 72
     8
 73
     4
 74
     0
 42
0.0000000001
 43
0.0000000001
 40
0.0
 40
0.0
 40
0.0
 40
0.0
 40
1.0
 40
1.0
 40
1.0
 40
1.0
 10
-2.2877
 20
56.94860000000001
 30
0.0
 10
-2.6233
 20
57.94560000000001
 30
0.0
 10
-3.5578
 20
58.6172
 30
0.0
 10
-4.6098
 20
58.6172
 30
0.0
  0
SPLINE
  5
AF
330
1F
100
AcDbEntity
  8
LC-012-007-KH--0
370
    13
100
AcDbSpline
210
0.0
220
0.0
230
1.0
 70
    24
 71
     3
 72
     8
 73
     4
 74
     0
 42
0.0000000001
 43
0.0000000001
 40
0.0
 40
0.0
 40
0.0
 40
0.0
 40
1.0
 40
1.0
 40
1.0
 40
1.0
 10
-4.6098
 20
58.6172
 30
0.0
 10
-4.6098
 20
58.6172
 30
0.0
 10
-5.3098
 20
58.6172
 30
0.0
 10
-5.3098
 20
58.6172
 30
0.0
  0
SPLINE
  5
B0
330
1F
100
AcDbEntity
  8
LC-012-007-KH--0
370
    13
100
AcDbSpline
210
0.0
220
0.0
230
1.0
 70
    24
 71
     3
 72
     8
 73
     4
 74
     0
 42
0.0000000001
 43
0.0000000001
 40
0.0
 40
0.0
 40
0.0
 40
0.0
 40
1.0
 40
1.0
 40
1.0
 40
1.0
 10
-2.0403
 20
55.1172
 30
0.0
 10
-2.0403
 20
55.1172
 30
0.0
 10
-2.6196
 20
56.8374
 30
0.0
 10
-2.6196
 20
56.8374
 30
0.0
  0
SPLINE
  5
B1
330
1F
100
AcDbEntity
  8
LC-012-007-KH--0
370
    13
100
AcDbSpline
210
0.0
220
0.0
230
1.0
 70
    24
 71
     3
 72
     8
 73
     4
 74
     0
 42
0.0000000001
 43
0.0000000001
 40
0.0
 40
0.0
 40
0.0
 40
0.0
 40
1.0
 40
1.0
 40
1.0
 40
1.0
 10
-2.2877
 20
56.94860000000001
 30
0.0
 10
-2.2877
 20
56.94860000000001
 30
0.0
 10
-1.6714
 20
55.1172
 30
0.0
 10
-1.6714
 20
55.1172
 30
0.0
  0
SPLINE
  5
B2
330
1F
100
AcDbEntity
  8
LC-012-007-KH--0
370
    13
100
AcDbSpline
210
0.0
220
0.0
230
1.0
 70
     8
 71
     3
 72
     8
 73
     4
 74
     0
 42
0.0000000001
 43
0.0000000001
 40
0.0
 40
0.0
 40
0.0
 40
0.0
 40
1.0
 40
1.0
 40
1.0
 40
1.0
 10
2.967
 20
28.8593
 30
0.0
 10
3.2907
 20
28.9789
 30
0.0
 10
3.4562
 20
29.3384
 30
0.0
 10
3.3365
 20
29.6622
 30
0.0
  0
SPLINE
  5
B3
330
1F
100
AcDbEntity
  8
LC-012-007-KH--0
370
    13
100
AcDbSpline
210
0.0
220
0.0
230
1.0
 70
    24
 71
     3
 72
     8
 73
     4
 74
     0
 42
0.0000000001
 43
0.0000000001
 40
0.0
 40
0.0
 40
0.0
 40
0.0
 40
1.0
 40
1.0
 40
1.0
 40
1.0
 10
2.967
 20
28.8593
 30
0.0
 10
2.967
 20
28.8593
 30
0.0
 10
2.8966
 20
28.8332
 30
0.0
 10
2.8966
 20
28.8332
 30
0.0
  0
SPLINE
  5
B4
330
1F
100
AcDbEntity
  8
LC-012-007-KH--0
370
    13
100
AcDbSpline
210
0.0
220
0.0
230
1.0
 70
    24
 71
     3
 72
     8
 73
     4
 74
     0
 42
0.0000000001
 43
0.0000000001
 40
0.0
 40
0.0
 40
0.0
 40
0.0
 40
1.0
 40
1.0
 40
1.0
 40
1.0
 10
2.8966
 20
28.8332
 30
0.0
 10
2.8966
 20
28.8332
 30
0.0
 10
2.4112
 20
30.1464
 30
0.0
 10
2.4112
 20
30.1464
 30
0.0
  0
SPLINE
  5
B5
330
1F
100
AcDbEntity
  8
LC-012-007-KH--0
370
    13
100
AcDbSpline
210
0.0
220
0.0
230
1.0
 70
    24
 71
     3
 72
     8
 73
     4
 74
     0
 42
0.0000000001
 43
0.0000000001
 40
0.0
 40
0.0
 40
0.0
 40
0.0
 40
1.0
 40
1.0
 40
1.0
 40
1.0
 10
2.4112
 20
30.1464
 30
0.0
 10
2.4112
 20
30.1464
 30
0.0
 10
2.4815
 20
30.1724
 30
0.0
 10
2.4815
 20
30.1724
 30
0.0
  0
SPLINE
  5
B6
330
1F
100
AcDbEntity
  8
LC-012-007-KH--0
370
    13
100
AcDbSpline
210
0.0
220
0.0
230
1.0
 70
     8
 71
     3
 72
    12
 73
     8
 74
     0
 42
0.0000000001
 43
0.0000000001
 40
0.0
 40
0.0
 40
0.0
 40
0.0
 40
0.5
 40
0.5
 40
0.5
 40
0.5
 40
1.0
 40
1.0
 40
1.0
 40
1.0
 10
3.2845
 20
29.8029
 30
0.0
 10
3.227
 20
29.9584
 30
0.0
 10
3.1101
 20
30.0846
 30
0.0
 10
2.9595
 20
30.1539
 30
0.0
 10
2.9595
 20
30.1539
 30
0.0
 10
2.8089
 20
30.2232
 30
0.0
 10
2.637
 20
30.2299
 30
0.0
 10
2.4815
 20
30.1724
 30
0.0
  0
SPLINE
  5
B7
330
1F
100
AcDbEntity
  8
LC-012-007-KH--0
370
    13
100
AcDbSpline
210
0.0
220
0.0
230
1.0
 70
    24
 71
     3
 72
     8
 73
     4
 74
     0
 42
0.0000000001
 43
0.0000000001
 40
0.0
 40
0.0
 40
0.0
 40
0.0
 40
1.0
 40
1.0
 40
1.0
 40
1.0
 10
3.2845
 20
29.8029
 30
0.0
 10
3.2845
 20
29.8029
 30
0.0
 10
3.3365
 20
29.6622
 30
0.0
 10
3.3365
 20
29.6622
 30
0.0
  0
SPLINE
  5
B8
330
1F
100
AcDbEntity
  8
LC-012-007-KH--0
370
    13
100
AcDbSpline
210
0.0
220
0.0
230
1.0
 70
    24
 71
     3
 72
     8
 73
     4
 74
     0
 42
0.0000000001
 43
0.0000000001
 40
0.0
 40
0.0
 40
0.0
 40
0.0
 40
1.0
 40
1.0
 40
1.0
 40
1.0
 10
-3.2222
 20
-24.7528
 30
0.0
 10
-3.2222
 20
-24.7528
 30
0.0
 10
-13.0598
 20
-24.7528
 30
0.0
 10
-13.0598
 20
-24.7528
 30
0.0
  0
SPLINE
  5
B9
330
1F
100
AcDbEntity
  8
LC-012-007-KH--0
370
    13
100
AcDbSpline
210
0.0
220
0.0
230
1.0
 70
    24
 71
     3
 72
     8
 73
     4
 74
     0
 42
0.0000000001
 43
0.0000000001
 40
0.0
 40
0.0
 40
0.0
 40
0.0
 40
1.0
 40
1.0
 40
1.0
 40
1.0
 10
-3.1895
 20
-22.8778
 30
0.0
 10
-3.1895
 20
-22.8778
 30
0.0
 10
-3.2222
 20
-24.7528
 30
0.0
 10
-3.2222
 20
-24.7528
 30
0.0
  0
SPLINE
  5
BA
330
1F
100
AcDbEntity
  8
LC-012-007-KH--0
370
    13
100
AcDbSpline
210
0.0
220
0.0
230
1.0
 70
     8
 71
     3
 72
    12
 73
     8
 74
     0
 42
0.0000000001
 43
0.0000000001
 40
0.0
 40
0.0
 40
0.0
 40
0.0
 40
0.5
 40
0.5
 40
0.5
 40
0.5
 40
1.0
 40
1.0
 40
1.0
 40
1.0
 10
-14.0598
 20
-23.7528
 30
0.0
 10
-14.0598
 20
-24.018
 30
0.0
 10
-13.9544
 20
-24.2724
 30
0.0
 10
-13.7669
 20
-24.4599
 30
0.0
 10
-13.7669
 20
-24.4599
 30
0.0
 10
-13.5793
 20
-24.6475
 30
0.0
 10
-13.325
 20
-24.7528
 30
0.0
 10
-13.0598
 20
-24.7528
 30
0.0
  0
SPLINE
  5
BB
330
1F
100
AcDbEntity
  8
LC-012-007-KH--0
370
    13
100
AcDbSpline
210
0.0
220
0.0
230
1.0
 70
    24
 71
     3
 72
     8
 73
     4
 74
     0
 42
0.0000000001
 43
0.0000000001
 40
0.0
 40
0.0
 40
0.0
 40
0.0
 40
1.0
 40
1.0
 40
1.0
 40
1.0
 10
-14.0598
 20
-23.7528
 30
0.0
 10
-14.0598
 20
-23.7528
 30
0.0
 10
-14.0598
 20
-23.3778
 30
0.0
 10
-14.0598
 20
-23.3778
 30
0.0
  0
SPLINE
  5
BC
330
1F
100
AcDbEntity
  8
LC-012-007-KH--0
370
    13
100
AcDbSpline
210
0.0
220
0.0
230
1.0
 70
    24
 71
     3
 72
     8
 73
     4
 74
     0
 42
0.0000000001
 43
0.0000000001
 40
0.0
 40
0.0
 40
0.0
 40
0.0
 40
1.0
 40
1.0
 40
1.0
 40
1.0
 10
-14.0598
 20
-23.3778
 30
0.0
 10
-14.0598
 20
-23.3778
 30
0.0
 10
-10.5598
 20
-23.3778
 30
0.0
 10
-10.5598
 20
-23.3778
 30
0.0
  0
SPLINE
  5
BD
330
1F
100
AcDbEntity
  8
LC-012-007-KH--0
370
    13
100
AcDbSpline
210
0.0
220
0.0
230
1.0
 70
    24
 71
     3
 72
     8
 73
     4
 74
     0
 42
0.0000000001
 43
0.0000000001
 40
0.0
 40
0.0
 40
0.0
 40
0.0
 40
1.0
 40
1.0
 40
1.0
 40
1.0
 10
-10.5598
 20
-23.3778
 30
0.0
 10
-10.5598
 20
-23.3778
 30
0.0
 10
-10.5598
 20
-22.2528
 30
0.0
 10
-10.5598
 20
-22.2528
 30
0.0
  0
SPLINE
  5
BE
330
1F
100
AcDbEntity
  8
LC-012-007-KH--0
370
    13
100
AcDbSpline
210
0.0
220
0.0
230
1.0
 70
    24
 71
     3
 72
     8
 73
     4
 74
     0
 42
0.0000000001
 43
0.0000000001
 40
0.0
 40
0.0
 40
0.0
 40
0.0
 40
1.0
 40
1.0
 40
1.0
 40
1.0
 10
-10.5598
 20
-22.2528
 30
0.0
 10
-10.5598
 20
-22.2528
 30
0.0
 10
-12.0598
 20
-22.2528
 30
0.0
 10
-12.0598
 20
-22.2528
 30
0.0
  0
SPLINE
  5
BF
330
1F
100
AcDbEntity
  8
LC-012-007-KH--0
370
    13
100
AcDbSpline
210
0.0
220
0.0
230
1.0
 70
    24
 71
     3
 72
     8
 73
     4
 74
     0
 42
0.0000000001
 43
0.0000000001
 40
0.0
 40
0.0
 40
0.0
 40
0.0
 40
1.0
 40
1.0
 40
1.0
 40
1.0
 10
-12.0598
 20
-22.2528
 30
0.0
 10
-12.0598
 20
-22.2528
 30
0.0
 10
-12.0598
 20
-21.2528
 30
0.0
 10
-12.0598
 20
-21.2528
 30
0.0
  0
SPLINE
  5
C0
330
1F
100
AcDbEntity
  8
LC-012-007-KH--0
370
    13
100
AcDbSpline
210
0.0
220
0.0
230
1.0
 70
    24
 71
     3
 72
     8
 73
     4
 74
     0
 42
0.0000000001
 43
0.0000000001
 40
0.0
 40
0.0
 40
0.0
 40
0.0
 40
1.0
 40
1.0
 40
1.0
 40
1.0
 10
-12.0598
 20
-21.2528
 30
0.0
 10
-12.0598
 20
-21.2528
 30
0.0
 10
-8.809800000000001
 20
-21.2528
 30
0.0
 10
-8.809800000000001
 20
-21.2528
 30
0.0
  0
SPLINE
  5
C1
330
1F
100
AcDbEntity
  8
LC-012-007-KH--0
370
    13
100
AcDbSpline
210
0.0
220
0.0
230
1.0
 70
    24
 71
     3
 72
     8
 73
     4
 74
     0
 42
0.0000000001
 43
0.0000000001
 40
0.0
 40
0.0
 40
0.0
 40
0.0
 40
1.0
 40
1.0
 40
1.0
 40
1.0
 10
-8.809800000000001
 20
-21.2528
 30
0.0
 10
-8.809800000000001
 20
-21.2528
 30
0.0
 10
-5.995200000000001
 20
-22.8778
 30
0.0
 10
-5.995200000000001
 20
-22.8778
 30
0.0
  0
SPLINE
  5
C2
330
1F
100
AcDbEntity
  8
LC-012-007-KH--0
370
    13
100
AcDbSpline
210
0.0
220
0.0
230
1.0
 70
    24
 71
     3
 72
     8
 73
     4
 74
     0
 42
0.0000000001
 43
0.0000000001
 40
0.0
 40
0.0
 40
0.0
 40
0.0
 40
1.0
 40
1.0
 40
1.0
 40
1.0
 10
-5.995200000000001
 20
-22.8778
 30
0.0
 10
-5.995200000000001
 20
-22.8778
 30
0.0
 10
-3.1895
 20
-22.8778
 30
0.0
 10
-3.1895
 20
-22.8778
 30
0.0
  0
SPLINE
  5
C3
330
1F
100
AcDbEntity
  8
LC-012-007-KH--0
370
    13
100
AcDbSpline
210
0.0
220
0.0
230
1.0
 70
    24
 71
     3
 72
     8
 73
     4
 74
     0
 42
0.0000000001
 43
0.0000000001
 40
0.0
 40
0.0
 40
0.0
 40
0.0
 40
1.0
 40
1.0
 40
1.0
 40
1.0
 10
-10.5598
 20
49.8722
 30
0.0
 10
-10.5598
 20
49.8722
 30
0.0
 10
-14.0598
 20
49.8722
 30
0.0
 10
-14.0598
 20
49.8722
 30
0.0
  0
SPLINE
  5
C4
330
1F
100
AcDbEntity
  8
LC-012-007-KH--0
370
    13
100
AcDbSpline
210
0.0
220
0.0
230
1.0
 70
    24
 71
     3
 72
     8
 73
     4
 74
     0
 42
0.0000000001
 43
0.0000000001
 40
0.0
 40
0.0
 40
0.0
 40
0.0
 40
1.0
 40
1.0
 40
1.0
 40
1.0
 10
-8.809800000000001
 20
47.7472
 30
0.0
 10
-8.809800000000001
 20
47.7472
 30
0.0
 10
-8.809800000000001
 20
46.7625
 30
0.0
 10
-8.809800000000001
 20
46.7625
 30
0.0
  0
SPLINE
  5
C5
330
1F
100
AcDbEntity
  8
LC-012-007-KH--0
370
    13
100
AcDbSpline
210
0.0
220
0.0
230
1.0
 70
    24
 71
     3
 72
     8
 73
     4
 74
     0
 42
0.0000000001
 43
0.0000000001
 40
0.0
 40
0.0
 40
0.0
 40
0.0
 40
1.0
 40
1.0
 40
1.0
 40
1.0
 10
-8.809800000000001
 20
-20.2681
 30
0.0
 10
-8.809800000000001
 20
-20.2681
 30
0.0
 10
-8.809800000000001
 20
-21.2528
 30
0.0
 10
-8.809800000000001
 20
-21.2528
 30
0.0
  0
SPLINE
  5
C6
330
1F
100
AcDbEntity
  8
LC-012-007-KH--0
370
    13
100
AcDbSpline
210
0.0
220
0.0
230
1.0
 70
    24
 71
     3
 72
     8
 73
     4
 74
     0
 42
0.0000000001
 43
0.0000000001
 40
0.0
 40
0.0
 40
0.0
 40
0.0
 40
1.0
 40
1.0
 40
1.0
 40
1.0
 10
-5.995200000000001
 20
49.3722
 30
0.0
 10
-5.995200000000001
 20
49.3722
 30
0.0
 10
-8.809800000000001
 20
47.7472
 30
0.0
 10
-8.809800000000001
 20
47.7472
 30
0.0
  0
SPLINE
  5
C7
330
1F
100
AcDbEntity
  8
LC-012-007-KH--0
370
    13
100
AcDbSpline
210
0.0
220
0.0
230
1.0
 70
    24
 71
     3
 72
     8
 73
     4
 74
     0
 42
0.0000000001
 43
0.0000000001
 40
0.0
 40
0.0
 40
0.0
 40
0.0
 40
1.0
 40
1.0
 40
1.0
 40
1.0
 10
-5.995200000000001
 20
49.3722
 30
0.0
 10
-5.995200000000001
 20
49.3722
 30
0.0
 10
-5.995200000000001
 20
48.3875
 30
0.0
 10
-5.995200000000001
 20
48.3875
 30
0.0
  0
SPLINE
  5
C8
330
1F
100
AcDbEntity
  8
LC-012-007-KH--0
370
    13
100
AcDbSpline
210
0.0
220
0.0
230
1.0
 70
    24
 71
     3
 72
     8
 73
     4
 74
     0
 42
0.0000000001
 43
0.0000000001
 40
0.0
 40
0.0
 40
0.0
 40
0.0
 40
1.0
 40
1.0
 40
1.0
 40
1.0
 10
-5.995200000000001
 20
-21.8931
 30
0.0
 10
-5.995200000000001
 20
-21.8931
 30
0.0
 10
-5.995200000000001
 20
-22.8778
 30
0.0
 10
-5.995200000000001
 20
-22.8778
 30
0.0
  0
SPLINE
  5
C9
330
1F
100
AcDbEntity
  8
LC-012-007-KH--0
370
    13
100
AcDbSpline
210
0.0
220
0.0
230
1.0
 70
    24
 71
     3
 72
     8
 73
     4
 74
     0
 42
0.0000000001
 43
0.0000000001
 40
0.0
 40
0.0
 40
0.0
 40
0.0
 40
1.0
 40
1.0
 40
1.0
 40
1.0
 10
-1.9284
 20
49.3722
 30
0.0
 10
-1.9284
 20
49.3722
 30
0.0
 10
-5.995200000000001
 20
49.3722
 30
0.0
 10
-5.995200000000001
 20
49.3722
 30
0.0
  0
SPLINE
  5
CA
330
1F
100
AcDbEntity
  8
LC-012-007-KH--0
370
    13
100
AcDbSpline
210
0.0
220
0.0
230
1.0
 70
    24
 71
     3
 72
     8
 73
     4
 74
     0
 42
0.0000000001
 43
0.0000000001
 40
0.0
 40
0.0
 40
0.0
 40
0.0
 40
1.0
 40
1.0
 40
1.0
 40
1.0
 10
-1.9891
 20
45.8922
 30
0.0
 10
-1.9891
 20
45.8922
 30
0.0
 10
-1.9284
 20
49.3722
 30
0.0
 10
-1.9284
 20
49.3722
 30
0.0
  0
SPLINE
  5
CB
330
1F
100
AcDbEntity
  8
LC-012-007-KH--0
370
    13
100
AcDbSpline
210
0.0
220
0.0
230
1.0
 70
    24
 71
     3
 72
     8
 73
     4
 74
     0
 42
0.0000000001
 43
0.0000000001
 40
0.0
 40
0.0
 40
0.0
 40
0.0
 40
1.0
 40
1.0
 40
1.0
 40
1.0
 10
-12.0598
 20
48.7472
 30
0.0
 10
-12.0598
 20
48.7472
 30
0.0
 10
-10.5598
 20
48.7472
 30
0.0
 10
-10.5598
 20
48.7472
 30
0.0
  0
SPLINE
  5
CC
330
1F
100
AcDbEntity
  8
LC-012-007-KH--0
370
    13
100
AcDbSpline
210
0.0
220
0.0
230
1.0
 70
    24
 71
     3
 72
     8
 73
     4
 74
     0
 42
0.0000000001
 43
0.0000000001
 40
0.0
 40
0.0
 40
0.0
 40
0.0
 40
1.0
 40
1.0
 40
1.0
 40
1.0
 10
-8.809800000000001
 20
47.7472
 30
0.0
 10
-8.809800000000001
 20
47.7472
 30
0.0
 10
-12.0598
 20
47.7472
 30
0.0
 10
-12.0598
 20
47.7472
 30
0.0
  0
SPLINE
  5
CD
330
1F
100
AcDbEntity
  8
LC-012-007-KH--0
370
    13
100
AcDbSpline
210
0.0
220
0.0
230
1.0
 70
     8
 71
     3
 72
    12
 73
     8
 74
     0
 42
0.0000000001
 43
0.0000000001
 40
0.0
 40
0.0
 40
0.0
 40
0.0
 40
0.5
 40
0.5
 40
0.5
 40
0.5
 40
1.0
 40
1.0
 40
1.0
 40
1.0
 10
-9.559800000000001
 20
58.4972
 30
0.0
 10
-9.559800000000001
 20
58.56350000000001
 30
0.0
 10
-9.5861
 20
58.62710000000001
 30
0.0
 10
-9.633000000000001
 20
58.674
 30
0.0
 10
-9.633000000000001
 20
58.674
 30
0.0
 10
-9.6799
 20
58.7208
 30
0.0
 10
-9.743500000000001
 20
58.7472
 30
0.0
 10
-9.809800000000001
 20
58.7472
 30
0.0
  0
SPLINE
  5
CE
330
1F
100
AcDbEntity
  8
LC-012-007-KH--0
370
    13
100
AcDbSpline
210
0.0
220
0.0
230
1.0
 70
    24
 71
     3
 72
     8
 73
     4
 74
     0
 42
0.0000000001
 43
0.0000000001
 40
0.0
 40
0.0
 40
0.0
 40
0.0
 40
1.0
 40
1.0
 40
1.0
 40
1.0
 10
-9.559800000000001
 20
57.2472
 30
0.0
 10
-9.559800000000001
 20
57.2472
 30
0.0
 10
-9.559800000000001
 20
58.4972
 30
0.0
 10
-9.559800000000001
 20
58.4972
 30
0.0
  0
SPLINE
  5
CF
330
1F
100
AcDbEntity
  8
LC-012-007-KH--0
370
    13
100
AcDbSpline
210
0.0
220
0.0
230
1.0
 70
     8
 71
     3
 72
     8
 73
     4
 74
     0
 42
0.0000000001
 43
0.0000000001
 40
0.0
 40
0.0
 40
0.0
 40
0.0
 40
1.0
 40
1.0
 40
1.0
 40
1.0
 10
-9.809800000000001
 20
56.9972
 30
0.0
 10
-9.671700000000001
 20
56.9972
 30
0.0
 10
-9.559800000000001
 20
57.10910000000001
 30
0.0
 10
-9.559800000000001
 20
57.2472
 30
0.0
  0
SPLINE
  5
D0
330
1F
100
AcDbEntity
  8
LC-012-007-KH--0
370
    13
100
AcDbSpline
210
0.0
220
0.0
230
1.0
 70
    24
 71
     3
 72
     8
 73
     4
 74
     0
 42
0.0000000001
 43
0.0000000001
 40
0.0
 40
0.0
 40
0.0
 40
0.0
 40
1.0
 40
1.0
 40
1.0
 40
1.0
 10
-12.1598
 20
56.9972
 30
0.0
 10
-12.1598
 20
56.9972
 30
0.0
 10
-9.809800000000001
 20
56.9972
 30
0.0
 10
-9.809800000000001
 20
56.9972
 30
0.0
  0
SPLINE
  5
D1
330
1F
100
AcDbEntity
  8
LC-012-007-KH--0
370
    13
100
AcDbSpline
210
0.0
220
0.0
230
1.0
 70
    24
 71
     3
 72
     8
 73
     4
 74
     0
 42
0.0000000001
 43
0.0000000001
 40
0.0
 40
0.0
 40
0.0
 40
0.0
 40
1.0
 40
1.0
 40
1.0
 40
1.0
 10
-12.1598
 20
56.9972
 30
0.0
 10
-12.1598
 20
56.9972
 30
0.0
 10
-12.1598
 20
51.2472
 30
0.0
 10
-12.1598
 20
51.2472
 30
0.0
  0
SPLINE
  5
D2
330
1F
100
AcDbEntity
  8
LC-012-007-KH--0
370
    13
100
AcDbSpline
210
0.0
220
0.0
230
1.0
 70
    24
 71
     3
 72
     8
 73
     4
 74
     0
 42
0.0000000001
 43
0.0000000001
 40
0.0
 40
0.0
 40
0.0
 40
0.0
 40
1.0
 40
1.0
 40
1.0
 40
1.0
 10
-1.8956
 20
51.2472
 30
0.0
 10
-1.8956
 20
51.2472
 30
0.0
 10
-12.1598
 20
51.2472
 30
0.0
 10
-12.1598
 20
51.2472
 30
0.0
  0
SPLINE
  5
D3
330
1F
100
AcDbEntity
  8
LC-012-007-KH--0
370
    13
100
AcDbSpline
210
0.0
220
0.0
230
1.0
 70
    24
 71
     3
 72
     8
 73
     4
 74
     0
 42
0.0000000001
 43
0.0000000001
 40
0.0
 40
0.0
 40
0.0
 40
0.0
 40
1.0
 40
1.0
 40
1.0
 40
1.0
 10
-9.809800000000001
 20
58.7472
 30
0.0
 10
-9.809800000000001
 20
58.7472
 30
0.0
 10
-14.0598
 20
58.7472
 30
0.0
 10
-14.0598
 20
58.7472
 30
0.0
  0
SPLINE
  5
D4
330
1F
100
AcDbEntity
  8
LC-012-007-KH--0
370
    13
100
AcDbSpline
210
0.0
220
0.0
230
1.0
 70
    24
 71
     3
 72
     8
 73
     4
 74
     0
 42
0.0000000001
 43
0.0000000001
 40
0.0
 40
0.0
 40
0.0
 40
0.0
 40
1.0
 40
1.0
 40
1.0
 40
1.0
 10
-12.0598
 20
47.7472
 30
0.0
 10
-12.0598
 20
47.7472
 30
0.0
 10
-12.0598
 20
48.7472
 30
0.0
 10
-12.0598
 20
48.7472
 30
0.0
  0
SPLINE
  5
D5
330
1F
100
AcDbEntity
  8
LC-012-007-KH--0
370
    13
100
AcDbSpline
210
0.0
220
0.0
230
1.0
 70
    24
 71
     3
 72
     8
 73
     4
 74
     0
 42
0.0000000001
 43
0.0000000001
 40
0.0
 40
0.0
 40
0.0
 40
0.0
 40
1.0
 40
1.0
 40
1.0
 40
1.0
 10
-10.5598
 20
48.7472
 30
0.0
 10
-10.5598
 20
48.7472
 30
0.0
 10
-10.5598
 20
49.8722
 30
0.0
 10
-10.5598
 20
49.8722
 30
0.0
  0
SPLINE
  5
D6
330
1F
100
AcDbEntity
  8
LC-012-007-KH--0
370
    13
100
AcDbSpline
210
0.0
220
0.0
230
1.0
 70
    24
 71
     3
 72
     8
 73
     4
 74
     0
 42
0.0000000001
 43
0.0000000001
 40
0.0
 40
0.0
 40
0.0
 40
0.0
 40
1.0
 40
1.0
 40
1.0
 40
1.0
 10
-1.8956
 20
51.2472
 30
0.0
 10
-1.8956
 20
51.2472
 30
0.0
 10
-1.9284
 20
49.3722
 30
0.0
 10
-1.9284
 20
49.3722
 30
0.0
  0
SPLINE
  5
D7
330
1F
100
AcDbEntity
  8
LC-012-007-KH--0
370
    13
100
AcDbSpline
210
0.0
220
0.0
230
1.0
 70
    24
 71
     3
 72
     8
 73
     4
 74
     0
 42
0.0000000001
 43
0.0000000001
 40
0.0
 40
0.0
 40
0.0
 40
0.0
 40
1.0
 40
1.0
 40
1.0
 40
1.0
 10
-14.0598
 20
49.8722
 30
0.0
 10
-14.0598
 20
49.8722
 30
0.0
 10
-14.0598
 20
58.7472
 30
0.0
 10
-14.0598
 20
58.7472
 30
0.0
  0
SPLINE
  5
D8
330
1F
100
AcDbEntity
  8
LC-012-007-KH--0
370
    13
100
AcDbSpline
210
0.0
220
0.0
230
1.0
 70
    24
 71
     3
 72
     8
 73
     4
 74
     0
 42
0.0000000001
 43
0.0000000001
 40
0.0
 40
0.0
 40
0.0
 40
0.0
 40
1.0
 40
1.0
 40
1.0
 40
1.0
 10
-9.809800000000001
 20
51.2472
 30
0.0
 10
-9.809800000000001
 20
51.2472
 30
0.0
 10
-9.809800000000001
 20
56.9972
 30
0.0
 10
-9.809800000000001
 20
56.9972
 30
0.0
  0
SPLINE
  5
D9
330
1F
100
AcDbEntity
  8
LC-012-007-KH--0
370
    13
100
AcDbSpline
210
0.0
220
0.0
230
1.0
 70
     8
 71
     3
 72
    12
 73
     8
 74
     0
 42
0.0000000001
 43
0.0000000001
 40
0.0
 40
0.0
 40
0.0
 40
0.0
 40
0.5
 40
0.5
 40
0.5
 40
0.5
 40
1.0
 40
1.0
 40
1.0
 40
1.0
 10
-7.117
 20
58.7472
 30
0.0
 10
-8.242900000000001
 20
57.9585
 30
0.0
 10
-8.727400000000001
 20
56.5307
 30
0.0
 10
-8.3139
 20
55.2197
 30
0.0
 10
-8.3139
 20
55.2197
 30
0.0
 10
-7.9004
 20
53.9086
 30
0.0
 10
-6.6844
 20
53.0172
 30
0.0
 10
-5.3098
 20
53.0172
 30
0.0
  0
SPLINE
  5
DA
330
1F
100
AcDbEntity
  8
LC-012-007-KH--0
370
    13
100
AcDbSpline
210
0.0
220
0.0
230
1.0
 70
    24
 71
     3
 72
     8
 73
     4
 74
     0
 42
0.0000000001
 43
0.0000000001
 40
0.0
 40
0.0
 40
0.0
 40
0.0
 40
1.0
 40
1.0
 40
1.0
 40
1.0
 10
-5.3098
 20
53.0172
 30
0.0
 10
-5.3098
 20
53.0172
 30
0.0
 10
-4.0598
 20
53.0172
 30
0.0
 10
-4.0598
 20
53.0172
 30
0.0
  0
SPLINE
  5
DB
330
1F
100
AcDbEntity
  8
LC-012-007-KH--0
370
    13
100
AcDbSpline
210
0.0
220
0.0
230
1.0
 70
    24
 71
     3
 72
     8
 73
     4
 74
     0
 42
0.0000000001
 43
0.0000000001
 40
0.0
 40
0.0
 40
0.0
 40
0.0
 40
1.0
 40
1.0
 40
1.0
 40
1.0
 10
-2.499
 20
51.4564
 30
0.0
 10
-2.499
 20
51.4564
 30
0.0
 10
-4.0598
 20
53.0172
 30
0.0
 10
-4.0598
 20
53.0172
 30
0.0
  0
SPLINE
  5
DC
330
1F
100
AcDbEntity
  8
LC-012-007-KH--0
370
    13
100
AcDbSpline
210
0.0
220
0.0
230
1.0
 70
     8
 71
     3
 72
    12
 73
     8
 74
     0
 42
0.0000000001
 43
0.0000000001
 40
0.0
 40
0.0
 40
0.0
 40
0.0
 40
0.5
 40
0.5
 40
0.5
 40
0.5
 40
1.0
 40
1.0
 40
1.0
 40
1.0
 10
-2.3632
 20
51.2472
 30
0.0
 10
-2.3632
 20
51.2472
 30
0.0
 10
-2.4209
 20
51.3647
 30
0.0
 10
-2.4209
 20
51.3647
 30
0.0
 10
-2.4209
 20
51.3647
 30
0.0
 10
-2.4209
 20
51.3647
 30
0.0
 10
-2.499
 20
51.4564
 30
0.0
 10
-2.499
 20
51.4564
 30
0.0
  0
SPLINE
  5
DD
330
1F
100
AcDbEntity
  8
LC-012-007-KH--0
370
    13
100
AcDbSpline
210
0.0
220
0.0
230
1.0
 70
    24
 71
     3
 72
     8
 73
     4
 74
     0
 42
0.0000000001
 43
0.0000000001
 40
0.0
 40
0.0
 40
0.0
 40
0.0
 40
1.0
 40
1.0
 40
1.0
 40
1.0
 10
-9.809800000000001
 20
58.7472
 30
0.0
 10
-9.809800000000001
 20
58.7472
 30
0.0
 10
-7.117
 20
58.7472
 30
0.0
 10
-7.117
 20
58.7472
 30
0.0
  0
SPLINE
  5
DE
330
1F
100
AcDbEntity
  8
LC-012-007-KH--0
370
    13
100
AcDbSpline
210
0.0
220
0.0
230
1.0
 70
    24
 71
     3
 72
     8
 73
     4
 74
     0
 42
0.0000000001
 43
0.0000000001
 40
0.0
 40
0.0
 40
0.0
 40
0.0
 40
1.0
 40
1.0
 40
1.0
 40
1.0
 10
-12.0598
 20
59.66220000000001
 30
0.0
 10
-12.0598
 20
59.66220000000001
 30
0.0
 10
-6.5598
 20
59.66220000000001
 30
0.0
 10
-6.5598
 20
59.66220000000001
 30
0.0
  0
SPLINE
  5
DF
330
1F
100
AcDbEntity
  8
LC-012-007-KH--0
370
    13
100
AcDbSpline
210
0.0
220
0.0
230
1.0
 70
    24
 71
     3
 72
     8
 73
     4
 74
     0
 42
0.0000000001
 43
0.0000000001
 40
0.0
 40
0.0
 40
0.0
 40
0.0
 40
1.0
 40
1.0
 40
1.0
 40
1.0
 10
-6.5598
 20
59.0585
 30
0.0
 10
-6.5598
 20
59.0585
 30
0.0
 10
-6.5598
 20
59.66220000000001
 30
0.0
 10
-6.5598
 20
59.66220000000001
 30
0.0
  0
SPLINE
  5
E0
330
1F
100
AcDbEntity
  8
LC-012-007-KH--0
370
    13
100
AcDbSpline
210
0.0
220
0.0
230
1.0
 70
     8
 71
     3
 72
     8
 73
     4
 74
     0
 42
0.0000000001
 43
0.0000000001
 40
0.0
 40
0.0
 40
0.0
 40
0.0
 40
1.0
 40
1.0
 40
1.0
 40
1.0
 10
-6.5598
 20
59.0585
 30
0.0
 10
-6.7556
 20
58.9739
 30
0.0
 10
-6.9423
 20
58.86960000000001
 30
0.0
 10
-7.117
 20
58.7472
 30
0.0
  0
SPLINE
  5
E1
330
1F
100
AcDbEntity
  8
LC-012-007-KH--0
370
    13
100
AcDbSpline
210
0.0
220
0.0
230
1.0
 70
    24
 71
     3
 72
     8
 73
     4
 74
     0
 42
0.0000000001
 43
0.0000000001
 40
0.0
 40
0.0
 40
0.0
 40
0.0
 40
1.0
 40
1.0
 40
1.0
 40
1.0
 10
-12.0598
 20
51.2472
 30
0.0
 10
-12.0598
 20
51.2472
 30
0.0
 10
-12.0598
 20
56.9972
 30
0.0
 10
-12.0598
 20
56.9972
 30
0.0
  0
SPLINE
  5
E2
330
1F
100
AcDbEntity
  8
LC-012-007-KH--0
370
    13
100
AcDbSpline
210
0.0
220
0.0
230
1.0
 70
    24
 71
     3
 72
     8
 73
     4
 74
     0
 42
0.0000000001
 43
0.0000000001
 40
0.0
 40
0.0
 40
0.0
 40
0.0
 40
1.0
 40
1.0
 40
1.0
 40
1.0
 10
-12.0598
 20
58.7472
 30
0.0
 10
-12.0598
 20
58.7472
 30
0.0
 10
-12.0598
 20
59.66220000000001
 30
0.0
 10
-12.0598
 20
59.66220000000001
 30
0.0
  0
SPLINE
  5
E3
330
1F
100
AcDbEntity
  8
LC-012-007-KH--0
370
    13
100
AcDbSpline
210
0.0
220
0.0
230
1.0
 70
     8
 71
     3
 72
     8
 73
     4
 74
     0
 42
0.0000000001
 43
0.0000000001
 40
0.0
 40
0.0
 40
0.0
 40
0.0
 40
1.0
 40
1.0
 40
1.0
 40
1.0
 10
-5.5598
 20
54.0821
 30
0.0
 10
-5.4768
 20
54.0722
 30
0.0
 10
-5.3933
 20
54.0672
 30
0.0
 10
-5.3098
 20
54.0672
 30
0.0
  0
SPLINE
  5
E4
330
1F
100
AcDbEntity
  8
LC-012-007-KH--0
370
    13
100
AcDbSpline
210
0.0
220
0.0
230
1.0
 70
     8
 71
     3
 72
    12
 73
     8
 74
     0
 42
0.0000000001
 43
0.0000000001
 40
0.0
 40
0.0
 40
0.0
 40
0.0
 40
0.5
 40
0.5
 40
0.5
 40
0.5
 40
1.0
 40
1.0
 40
1.0
 40
1.0
 10
-5.3098
 20
54.0672
 30
0.0
 10
-4.15
 20
54.0672
 30
0.0
 10
-3.2098
 20
55.0074
 30
0.0
 10
-3.2098
 20
56.1672
 30
0.0
 10
-3.2098
 20
56.1672
 30
0.0
 10
-3.2098
 20
57.32700000000001
 30
0.0
 10
-4.149900000000001
 20
58.2672
 30
0.0
 10
-5.3097
 20
58.2672
 30
0.0
  0
SPLINE
  5
E5
330
1F
100
AcDbEntity
  8
LC-012-007-KH--0
370
    13
100
AcDbSpline
210
0.0
220
0.0
230
1.0
 70
     8
 71
     3
 72
    12
 73
     8
 74
     0
 42
0.0000000001
 43
0.0000000001
 40
0.0
 40
0.0
 40
0.0
 40
0.0
 40
0.5
 40
0.5
 40
0.5
 40
0.5
 40
1.0
 40
1.0
 40
1.0
 40
1.0
 10
-1.8098
 20
56.1672
 30
0.0
 10
-1.8098
 20
57.31910000000001
 30
0.0
 10
-2.3765
 20
58.39720000000001
 30
0.0
 10
-3.3254
 20
59.0503
 30
0.0
 10
-3.3254
 20
59.0503
 30
0.0
 10
-4.2743
 20
59.7034
 30
0.0
 10
-5.483800000000001
 20
59.8477
 30
0.0
 10
-6.5598
 20
59.4363
 30
0.0
  0
SPLINE
  5
E6
330
1F
100
AcDbEntity
  8
LC-012-007-KH--0
370
    13
100
AcDbSpline
210
0.0
220
0.0
230
1.0
 70
    24
 71
     3
 72
     8
 73
     4
 74
     0
 42
0.0000000001
 43
0.0000000001
 40
0.0
 40
0.0
 40
0.0
 40
0.0
 40
1.0
 40
1.0
 40
1.0
 40
1.0
 10
-1.8098
 20
56.1672
 30
0.0
 10
-1.8098
 20
56.1672
 30
0.0
 10
-1.8204
 20
55.55990000000001
 30
0.0
 10
-1.8204
 20
55.55990000000001
 30
0.0
  0
SPLINE
  5
E7
330
1F
100
AcDbEntity
  8
LC-012-007-KH--0
370
    13
100
AcDbSpline
210
0.0
220
0.0
230
1.0
 70
    24
 71
     3
 72
     8
 73
     4
 74
     0
 42
0.0000000001
 43
0.0000000001
 40
0.0
 40
0.0
 40
0.0
 40
0.0
 40
1.0
 40
1.0
 40
1.0
 40
1.0
 10
-1.8385
 20
54.5181
 30
0.0
 10
-1.8385
 20
54.5181
 30
0.0
 10
-1.8956
 20
51.2472
 30
0.0
 10
-1.8956
 20
51.2472
 30
0.0
  0
SPLINE
  5
E8
330
1F
100
AcDbEntity
  8
LC-012-007-KH--0
370
    13
100
AcDbSpline
210
0.0
220
0.0
230
1.0
 70
    24
 71
     3
 72
     8
 73
     4
 74
     0
 42
0.0000000001
 43
0.0000000001
 40
0.0
 40
0.0
 40
0.0
 40
0.0
 40
1.0
 40
1.0
 40
1.0
 40
1.0
 10
-5.0598
 20
65.04220000000001
 30
0.0
 10
-5.0598
 20
65.04220000000001
 30
0.0
 10
-5.0598
 20
59.6582
 30
0.0
 10
-5.0598
 20
59.6582
 30
0.0
  0
SPLINE
  5
E9
330
1F
100
AcDbEntity
  8
LC-012-007-KH--0
370
    13
100
AcDbSpline
210
0.0
220
0.0
230
1.0
 70
    24
 71
     3
 72
     8
 73
     4
 74
     0
 42
0.0000000001
 43
0.0000000001
 40
0.0
 40
0.0
 40
0.0
 40
0.0
 40
1.0
 40
1.0
 40
1.0
 40
1.0
 10
-1.8098
 20
63.5422
 30
0.0
 10
-1.8098
 20
63.5422
 30
0.0
 10
-0.0598
 20
63.5422
 30
0.0
 10
-0.0598
 20
63.5422
 30
0.0
  0
SPLINE
  5
EA
330
1F
100
AcDbEntity
  8
LC-012-007-KH--0
370
    13
100
AcDbSpline
210
0.0
220
0.0
230
1.0
 70
    24
 71
     3
 72
     8
 73
     4
 74
     0
 42
0.0000000001
 43
0.0000000001
 40
0.0
 40
0.0
 40
0.0
 40
0.0
 40
1.0
 40
1.0
 40
1.0
 40
1.0
 10
-1.8098
 20
56.1672
 30
0.0
 10
-1.8098
 20
56.1672
 30
0.0
 10
-1.8098
 20
63.5422
 30
0.0
 10
-1.8098
 20
63.5422
 30
0.0
  0
SPLINE
  5
EB
330
1F
100
AcDbEntity
  8
LC-012-007-KH--0
370
    13
100
AcDbSpline
210
0.0
220
0.0
230
1.0
 70
    24
 71
     3
 72
     8
 73
     4
 74
     0
 42
0.0000000001
 43
0.0000000001
 40
0.0
 40
0.0
 40
0.0
 40
0.0
 40
1.0
 40
1.0
 40
1.0
 40
1.0
 10
-0.0598
 20
63.5422
 30
0.0
 10
-0.0598
 20
63.5422
 30
0.0
 10
-0.0598
 20
65.04220000000001
 30
0.0
 10
-0.0598
 20
65.04220000000001
 30
0.0
  0
SPLINE
  5
EC
330
1F
100
AcDbEntity
  8
LC-012-007-KH--0
370
    13
100
AcDbSpline
210
0.0
220
0.0
230
1.0
 70
    24
 71
     3
 72
     8
 73
     4
 74
     0
 42
0.0000000001
 43
0.0000000001
 40
0.0
 40
0.0
 40
0.0
 40
0.0
 40
1.0
 40
1.0
 40
1.0
 40
1.0
 10
-0.0598
 20
65.04220000000001
 30
0.0
 10
-0.0598
 20
65.04220000000001
 30
0.0
 10
-5.0598
 20
65.04220000000001
 30
0.0
 10
-5.0598
 20
65.04220000000001
 30
0.0
  0
SPLINE
  5
ED
330
1F
100
AcDbEntity
  8
LC-012-007-KH--0
370
    13
100
AcDbSpline
210
0.0
220
0.0
230
1.0
 70
    24
 71
     3
 72
     8
 73
     4
 74
     0
 42
0.0000000001
 43
0.0000000001
 40
0.0
 40
0.0
 40
0.0
 40
0.0
 40
1.0
 40
1.0
 40
1.0
 40
1.0
 10
-0.6413
 20
40.9299
 30
0.0
 10
-0.6413
 20
40.9299
 30
0.0
 10
-0.6413
 20
38.7088
 30
0.0
 10
-0.6413
 20
38.7088
 30
0.0
  0
SPLINE
  5
EE
330
1F
100
AcDbEntity
  8
LC-012-007-KH--0
100
AcDbSpline
210
0.0
220
0.0
230
1.0
 70
    27
 71
     3
 72
    12
 73
     8
 74
     0
 42
0.0000000001
 43
0.0000000001
 40
0.0
 40
0.0
 40
0.0
 40
0.0
 40
0.5
 40
0.5
 40
0.5
 40
0.5
 40
1.0
 40
1.0
 40
1.0
 40
1.0
 10
-28.4471
 20
42.6222
 30
0.0
 10
-28.4471
 20
42.6222
 30
0.0
 10
-27.5471
 20
36.6222
 30
0.0
 10
-27.5471
 20
36.6222
 30
0.0
 10
-27.5471
 20
36.6222
 30
0.0
 10
-27.5471
 20
36.6222
 30
0.0
 10
-28.4471
 20
42.6222
 30
0.0
 10
-28.4471
 20
42.6222
 30
0.0
  0
SPLINE
  5
EF
330
1F
100
AcDbEntity
  8
LC-012-007-KH--0
100
AcDbSpline
210
0.0
220
0.0
230
1.0
 70
     8
 71
     3
 72
    12
 73
     8
 74
     0
 42
0.0000000001
 43
0.0000000001
 40
0.0
 40
0.0
 40
0.0
 40
0.0
 40
0.5
 40
0.5
 40
0.5
 40
0.5
 40
1.0
 40
1.0
 40
1.0
 40
1.0
 10
-27.5471
 20
36.6222
 30
0.0
 10
-27.5471
 20
36.6222
 30
0.0
 10
-29.3471
 20
36.6222
 30
0.0
 10
-29.3471
 20
36.6222
 30
0.0
 10
-29.3471
 20
36.6222
 30
0.0
 10
-29.3471
 20
36.6222
 30
0.0
 10
-28.4471
 20
42.6222
 30
0.0
 10
-28.4471
 20
42.6222
 30
0.0
  0
SPLINE
  5
F0
330
1F
100
AcDbEntity
  8
LC-012-007-KH--0
370
     5
100
AcDbSpline
210
0.0
220
0.0
230
1.0
 70
    24
 71
     3
 72
     8
 73
     4
 74
     0
 42
0.0000000001
 43
0.0000000001
 40
0.0
 40
0.0
 40
0.0
 40
0.0
 40
1.0
 40
1.0
 40
1.0
 40
1.0
 10
-28.4471
 20
42.6222
 30
0.0
 10
-28.4471
 20
42.6222
 30
0.0
 10
-27.5471
 20
36.6222
 30
0.0
 10
-27.5471
 20
36.6222
 30
0.0
  0
SPLINE
  5
F1
330
1F
100
AcDbEntity
  8
LC-012-007-KH--0
370
     5
100
AcDbSpline
210
0.0
220
0.0
230
1.0
 70
     8
 71
     3
 72
    12
 73
     8
 74
     0
 42
0.0000000001
 43
0.0000000001
 40
0.0
 40
0.0
 40
0.0
 40
0.0
 40
0.5
 40
0.5
 40
0.5
 40
0.5
 40
1.0
 40
1.0
 40
1.0
 40
1.0
 10
-27.5471
 20
36.6222
 30
0.0
 10
-27.5471
 20
36.6222
 30
0.0
 10
-29.3471
 20
36.6222
 30
0.0
 10
-29.3471
 20
36.6222
 30
0.0
 10
-29.3471
 20
36.6222
 30
0.0
 10
-29.3471
 20
36.6222
 30
0.0
 10
-28.4471
 20
42.6222
 30
0.0
 10
-28.4471
 20
42.6222
 30
0.0
  0
SPLINE
  5
F2
330
1F
100
AcDbEntity
  8
LC-012-007-KH--0
100
AcDbSpline
210
0.0
220
0.0
230
1.0
 70
    27
 71
     3
 72
    12
 73
     8
 74
     0
 42
0.0000000001
 43
0.0000000001
 40
0.0
 40
0.0
 40
0.0
 40
0.0
 40
0.5
 40
0.5
 40
0.5
 40
0.5
 40
1.0
 40
1.0
 40
1.0
 40
1.0
 10
-28.4471
 20
-16.1278
 30
0.0
 10
-28.4471
 20
-16.1278
 30
0.0
 10
-29.3471
 20
-10.1278
 30
0.0
 10
-29.3471
 20
-10.1278
 30
0.0
 10
-29.3471
 20
-10.1278
 30
0.0
 10
-29.3471
 20
-10.1278
 30
0.0
 10
-28.4471
 20
-16.1278
 30
0.0
 10
-28.4471
 20
-16.1278
 30
0.0
  0
SPLINE
  5
F3
330
1F
100
AcDbEntity
  8
LC-012-007-KH--0
100
AcDbSpline
210
0.0
220
0.0
230
1.0
 70
     8
 71
     3
 72
    12
 73
     8
 74
     0
 42
0.0000000001
 43
0.0000000001
 40
0.0
 40
0.0
 40
0.0
 40
0.0
 40
0.5
 40
0.5
 40
0.5
 40
0.5
 40
1.0
 40
1.0
 40
1.0
 40
1.0
 10
-29.3471
 20
-10.1278
 30
0.0
 10
-29.3471
 20
-10.1278
 30
0.0
 10
-27.5471
 20
-10.1278
 30
0.0
 10
-27.5471
 20
-10.1278
 30
0.0
 10
-27.5471
 20
-10.1278
 30
0.0
 10
-27.5471
 20
-10.1278
 30
0.0
 10
-28.4471
 20
-16.1278
 30
0.0
 10
-28.4471
 20
-16.1278
 30
0.0
  0
SPLINE
  5
F4
330
1F
100
AcDbEntity
  8
LC-012-007-KH--0
370
     5
100
AcDbSpline
210
0.0
220
0.0
230
1.0
 70
    24
 71
     3
 72
     8
 73
     4
 74
     0
 42
0.0000000001
 43
0.0000000001
 40
0.0
 40
0.0
 40
0.0
 40
0.0
 40
1.0
 40
1.0
 40
1.0
 40
1.0
 10
-28.4471
 20
-16.1278
 30
0.0
 10
-28.4471
 20
-16.1278
 30
0.0
 10
-29.3471
 20
-10.1278
 30
0.0
 10
-29.3471
 20
-10.1278
 30
0.0
  0
SPLINE
  5
F5
330
1F
100
AcDbEntity
  8
LC-012-007-KH--0
370
     5
100
AcDbSpline
210
0.0
220
0.0
230
1.0
 70
     8
 71
     3
 72
    12
 73
     8
 74
     0
 42
0.0000000001
 43
0.0000000001
 40
0.0
 40
0.0
 40
0.0
 40
0.0
 40
0.5
 40
0.5
 40
0.5
 40
0.5
 40
1.0
 40
1.0
 40
1.0
 40
1.0
 10
-29.3471
 20
-10.1278
 30
0.0
 10
-29.3471
 20
-10.1278
 30
0.0
 10
-27.5471
 20
-10.1278
 30
0.0
 10
-27.5471
 20
-10.1278
 30
0.0
 10
-27.5471
 20
-10.1278
 30
0.0
 10
-27.5471
 20
-10.1278
 30
0.0
 10
-28.4471
 20
-16.1278
 30
0.0
 10
-28.4471
 20
-16.1278
 30
0.0
  0
SPLINE
  5
F6
330
1F
100
AcDbEntity
  8
LC-012-007-KH--0
370
     5
100
AcDbSpline
210
0.0
220
0.0
230
1.0
 70
    24
 71
     3
 72
     8
 73
     4
 74
     0
 42
0.0000000001
 43
0.0000000001
 40
0.0
 40
0.0
 40
0.0
 40
0.0
 40
1.0
 40
1.0
 40
1.0
 40
1.0
 10
-15.0598
 20
42.6222
 30
0.0
 10
-15.0598
 20
42.6222
 30
0.0
 10
-29.4471
 20
42.6222
 30
0.0
 10
-29.4471
 20
42.6222
 30
0.0
  0
SPLINE
  5
F7
330
1F
100
AcDbEntity
  8
LC-012-007-KH--0
370
     5
100
AcDbSpline
210
0.0
220
0.0
230
1.0
 70
    24
 71
     3
 72
     8
 73
     4
 74
     0
 42
0.0000000001
 43
0.0000000001
 40
0.0
 40
0.0
 40
0.0
 40
0.0
 40
1.0
 40
1.0
 40
1.0
 40
1.0
 10
-15.0598
 20
-16.1278
 30
0.0
 10
-15.0598
 20
-16.1278
 30
0.0
 10
-29.4471
 20
-16.1278
 30
0.0
 10
-29.4471
 20
-16.1278
 30
0.0
  0
SPLINE
  5
F8
330
1F
100
AcDbEntity
  8
LC-012-007-KH--0
370
     5
100
AcDbSpline
210
0.0
220
0.0
230
1.0
 70
    24
 71
     3
 72
     8
 73
     4
 74
     0
 42
0.0000000001
 43
0.0000000001
 40
0.0
 40
0.0
 40
0.0
 40
0.0
 40
1.0
 40
1.0
 40
1.0
 40
1.0
 10
-28.4471
 20
42.6222
 30
0.0
 10
-28.4471
 20
42.6222
 30
0.0
 10
-28.4471
 20
-16.1278
 30
0.0
 10
-28.4471
 20
-16.1278
 30
0.0
  0
SPLINE
  5
F9
330
1F
100
AcDbEntity
  8
LC-012-007-KH--0
370
     5
100
AcDbSpline
210
0.0
220
0.0
230
1.0
 70
    24
 71
     3
 72
     8
 73
     4
 74
     0
 42
0.0000000001
 43
0.0000000001
 40
0.0
 40
0.0
 40
0.0
 40
0.0
 40
1.0
 40
1.0
 40
1.0
 40
1.0
 10
-5.3098
 20
56.1672
 30
0.0
 10
-5.3098
 20
56.1672
 30
0.0
 10
-5.3098
 20
57.4172
 30
0.0
 10
-5.3098
 20
57.4172
 30
0.0
  0
SPLINE
  5
FA
330
1F
100
AcDbEntity
  8
LC-012-007-KH--0
370
     5
100
AcDbSpline
210
0.0
220
0.0
230
1.0
 70
    24
 71
     3
 72
     8
 73
     4
 74
     0
 42
0.0000000001
 43
0.0000000001
 40
0.0
 40
0.0
 40
0.0
 40
0.0
 40
1.0
 40
1.0
 40
1.0
 40
1.0
 10
-5.3098
 20
56.1672
 30
0.0
 10
-5.3098
 20
56.1672
 30
0.0
 10
-6.5598
 20
56.1672
 30
0.0
 10
-6.5598
 20
56.1672
 30
0.0
  0
SPLINE
  5
FB
330
1F
100
AcDbEntity
  8
LC-012-007-KH--0
370
     5
100
AcDbSpline
210
0.0
220
0.0
230
1.0
 70
    24
 71
     3
 72
     8
 73
     4
 74
     0
 42
0.0000000001
 43
0.0000000001
 40
0.0
 40
0.0
 40
0.0
 40
0.0
 40
1.0
 40
1.0
 40
1.0
 40
1.0
 10
-5.3098
 20
56.1672
 30
0.0
 10
-5.3098
 20
56.1672
 30
0.0
 10
-5.3098
 20
54.9172
 30
0.0
 10
-5.3098
 20
54.9172
 30
0.0
  0
SPLINE
  5
FC
330
1F
100
AcDbEntity
  8
LC-012-007-KH--0
370
     5
100
AcDbSpline
210
0.0
220
0.0
230
1.0
 70
    24
 71
     3
 72
     8
 73
     4
 74
     0
 42
0.0000000001
 43
0.0000000001
 40
0.0
 40
0.0
 40
0.0
 40
0.0
 40
1.0
 40
1.0
 40
1.0
 40
1.0
 10
-5.3098
 20
56.1672
 30
0.0
 10
-5.3098
 20
56.1672
 30
0.0
 10
-4.0598
 20
56.1672
 30
0.0
 10
-4.0598
 20
56.1672
 30
0.0
  0
SPLINE
  5
FD
330
1F
100
AcDbEntity
  8
LC-012-007-KH--0
370
     5
100
AcDbSpline
210
0.0
220
0.0
230
1.0
 70
    24
 71
     3
 72
     8
 73
     4
 74
     0
 42
0.0000000001
 43
0.0000000001
 40
0.0
 40
0.0
 40
0.0
 40
0.0
 40
1.0
 40
1.0
 40
1.0
 40
1.0
 10
-5.3098
 20
58.6672
 30
0.0
 10
-5.3098
 20
58.6672
 30
0.0
 10
-5.3098
 20
59.4172
 30
0.0
 10
-5.3098
 20
59.4172
 30
0.0
  0
SPLINE
  5
FE
330
1F
100
AcDbEntity
  8
LC-012-007-KH--0
370
     5
100
AcDbSpline
210
0.0
220
0.0
230
1.0
 70
    24
 71
     3
 72
     8
 73
     4
 74
     0
 42
0.0000000001
 43
0.0000000001
 40
0.0
 40
0.0
 40
0.0
 40
0.0
 40
1.0
 40
1.0
 40
1.0
 40
1.0
 10
-7.8098
 20
56.1672
 30
0.0
 10
-7.8098
 20
56.1672
 30
0.0
 10
-8.559800000000001
 20
56.1672
 30
0.0
 10
-8.559800000000001
 20
56.1672
 30
0.0
  0
SPLINE
  5
FF
330
1F
100
AcDbEntity
  8
LC-012-007-KH--0
370
     5
100
AcDbSpline
210
0.0
220
0.0
230
1.0
 70
    24
 71
     3
 72
     8
 73
     4
 74
     0
 42
0.0000000001
 43
0.0000000001
 40
0.0
 40
0.0
 40
0.0
 40
0.0
 40
1.0
 40
1.0
 40
1.0
 40
1.0
 10
-5.3098
 20
53.6672
 30
0.0
 10
-5.3098
 20
53.6672
 30
0.0
 10
-5.3098
 20
52.9172
 30
0.0
 10
-5.3098
 20
52.9172
 30
0.0
  0
SPLINE
  5
100
330
1F
100
AcDbEntity
  8
LC-012-007-KH--0
370
     5
100
AcDbSpline
210
0.0
220
0.0
230
1.0
 70
    24
 71
     3
 72
     8
 73
     4
 74
     0
 42
0.0000000001
 43
0.0000000001
 40
0.0
 40
0.0
 40
0.0
 40
0.0
 40
1.0
 40
1.0
 40
1.0
 40
1.0
 10
-2.8098
 20
56.1672
 30
0.0
 10
-2.8098
 20
56.1672
 30
0.0
 10
-2.0598
 20
56.1672
 30
0.0
 10
-2.0598
 20
56.1672
 30
0.0
  0
SPLINE
  5
101
330
1F
100
AcDbEntity
  8
LC-012-007-KH--0
  6
New Line1
370
     5
100
AcDbSpline
210
0.0
220
0.0
230
1.0
 70
    24
 71
     3
 72
     8
 73
     4
 74
     0
 42
0.0000000001
 43
0.0000000001
 40
0.0
 40
0.0
 40
0.0
 40
0.0
 40
1.0
 40
1.0
 40
1.0
 40
1.0
 10
-16.0598
 20
13.2472
 30
0.0
 10
-16.0598
 20
13.2472
 30
0.0
 10
-6.2249
 20
13.2472
 30
0.0
 10
-6.2249
 20
13.2472
 30
0.0
  0
ENDSEC
  0
SECTION
  2
OBJECTS
  0
DICTIONARY
  5
C
330
0
100
AcDbDictionary
281
     1
  3
ACAD_GROUP
350
D
  3
ACAD_LAYOUT
350
1A
  3
ACAD_MLINESTYLE
350
17
  3
ACAD_PLOTSETTINGS
350
19
  3
ACAD_PLOTSTYLENAME
350
E
  0
DICTIONARY
  5
D
102
{ACAD_REACTORS
330
C
102
}
330
C
100
AcDbDictionary
281
     1
  0
DICTIONARY
  5
1A
102
{ACAD_REACTORS
330
C
102
}
330
C
100
AcDbDictionary
281
     1
  3
Layout1
350
1E
  3
Layout2
350
26
  3
Model
350
22
  0
DICTIONARY
  5
17
102
{ACAD_REACTORS
330
C
102
}
330
C
100
AcDbDictionary
281
     1
  3
Standard
350
18
  0
DICTIONARY
  5
19
102
{ACAD_REACTORS
330
C
102
}
330
C
100
AcDbDictionary
281
     1
  0
ACDBDICTIONARYWDFLT
  5
E
102
{ACAD_REACTORS
330
C
102
}
330
C
100
AcDbDictionary
281
     1
  3
Normal
350
F
100
AcDbDictionaryWithDefault
340
F
  0
LAYOUT
  5
1E
102
{ACAD_REACTORS
330
1A
102
}
330
1A
100
AcDbPlotSettings
  1

  2

  4

  6

 40
0.0
 41
0.0
 42
0.0
 43
0.0
 44
0.0
 45
0.0
 46
0.0
 47
0.0
 48
0.0
 49
0.0
140
0.0
141
0.0
142
1.0
143
1.0
 70
   688
 72
     0
 73
     0
 74
     5
  7

 75
    16
 76
     0
 77
     2
 78
   300
147
1.0
148
0.0
149
0.0
100
AcDbLayout
  1
Layout1
 70
     1
 71
     1
 10
0.0
 20
0.0
 11
12.0
 21
9.0
 12
0.0
 22
0.0
 32
0.0
 14
1.000000000000000E+20
 24
1.000000000000000E+20
 34
1.000000000000000E+20
 15
-1.000000000000000E+20
 25
-1.000000000000000E+20
 35
-1.000000000000000E+20
146
0.0
 13
0.0
 23
0.0
 33
0.0
 16
1.0
 26
0.0
 36
0.0
 17
0.0
 27
1.0
 37
0.0
 76
     0
330
1B
  0
LAYOUT
  5
26
102
{ACAD_REACTORS
330
1A
102
}
330
1A
100
AcDbPlotSettings
  1

  2

  4

  6

 40
0.0
 41
0.0
 42
0.0
 43
0.0
 44
0.0
 45
0.0
 46
0.0
 47
0.0
 48
0.0
 49
0.0
140
0.0
141
0.0
142
1.0
143
1.0
 70
   688
 72
     0
 73
     0
 74
     5
  7

 75
    16
 76
     0
 77
     2
 78
   300
147
1.0
148
0.0
149
0.0
100
AcDbLayout
  1
Layout2
 70
     1
 71
     2
 10
0.0
 20
0.0
 11
0.0
 21
0.0
 12
0.0
 22
0.0
 32
0.0
 14
0.0
 24
0.0
 34
0.0
 15
0.0
 25
0.0
 35
0.0
146
0.0
 13
0.0
 23
0.0
 33
0.0
 16
1.0
 26
0.0
 36
0.0
 17
0.0
 27
1.0
 37
0.0
 76
     0
330
23
  0
LAYOUT
  5
22
102
{ACAD_REACTORS
330
1A
102
}
330
1A
100
AcDbPlotSettings
  1

  2

  4

  6

 40
0.0
 41
0.0
 42
0.0
 43
0.0
 44
0.0
 45
0.0
 46
0.0
 47
0.0
 48
0.0
 49
0.0
140
0.0
141
0.0
142
1.0
143
1.0
 70
  1712
 72
     0
 73
     0
 74
     0
  7

 75
     0
 76
     0
 77
     2
 78
   300
147
1.0
148
0.0
149
0.0
100
AcDbLayout
  1
Model
 70
     1
 71
     0
 10
0.0
 20
0.0
 11
0.0
 21
0.0
 12
0.0
 22
0.0
 32
0.0
 14
-40.9483
 24
-24.8278
 34
0.0
 15
6.4753
 25
65.1172
 35
0.0
146
0.0
 13
0.0
 23
0.0
 33
0.0
 16
1.0
 26
0.0
 36
0.0
 17
0.0
 27
1.0
 37
0.0
 76
     0
330
1F
  0
MLINESTYLE
  5
18
102
{ACAD_REACTORS
330
17
102
}
330
17
100
AcDbMlineStyle
  2
Standard
 70
     0
  3

 62
   256
 51
90.0
 52
90.0
 71
     2
 49
0.5
 62
   256
  6
BYLAYER
 49
-0.5
 62
   256
  6
BYLAYER
  0
ACDBPLACEHOLDER
  5
F
102
{ACAD_REACTORS
330
E
102
}
330
E
  0
ENDSEC
  0
EOF
