  0
SECTION
  2
HEADER
  9
$ACADVER
  1
AC1015
  9
$ACADMAINTVER
 70
     6
  9
$DWGCODEPAGE
  3
DOS850
  9
$INSBASE
 10
0.0
 20
0.0
 30
0.0
  9
$EXTMIN
 10
-62.4503
 20
-12.9446
 30
1.000000E+20
  9
$EXTMAX
 10
83.2454
 20
52.4072
 30
-1.000000E+20
  9
$LIMMIN
 10
0.0
 20
0.0
  9
$LIMMAX
 10
0.0
 20
0.0
  9
$ORTHOMODE
 70
     0
  9
$REGENMODE
 70
     1
  9
$FILLMODE
 70
     1
  9
$QTEXTMODE
 70
     0
  9
$MIRRTEXT
 70
     1
  9
$LTSCALE
 40
1.0
  9
$ATTMODE
 70
     1
  9
$TEXTSIZE
 40
0.2
  9
$TRACEWID
 40
0.05
  9
$TEXTSTYLE
  7
Standard
  9
$CLAYER
  8
0
  9
$CELTYPE
  6
Continuous
  9
$CECOLOR
 62
   256
  9
$CELTSCALE
 40
1.0
  9
$DISPSILH
 70
     0
  9
$DIMSCALE
 40
1.0
  9
$DIMASZ
 40
0.18
  9
$DIMEXO
 40
0.0625
  9
$DIMDLI
 40
0.38
  9
$DIMRND
 40
0.0
  9
$DIMDLE
 40
0.0
  9
$DIMEXE
 40
0.18
  9
$DIMTP
 40
0.0
  9
$DIMTM
 40
0.0
  9
$DIMTXT
 40
0.18
  9
$DIMCEN
 40
0.09
  9
$DIMTSZ
 40
0.0
  9
$DIMTOL
 70
     0
  9
$DIMLIM
 70
     0
  9
$DIMTIH
 70
     1
  9
$DIMTOH
 70
     1
  9
$DIMSE1
 70
     0
  9
$DIMSE2
 70
     0
  9
$DIMTAD
 70
     0
  9
$DIMZIN
 70
     0
  9
$DIMBLK
  1

  9
$DIMASO
 70
     1
  9
$DIMSHO
 70
     1
  9
$DIMPOST
  1

  9
$DIMAPOST
  1

  9
$DIMALT
 70
     0
  9
$DIMALTD
 70
     2
  9
$DIMALTF
 40
25.4
  9
$DIMLFAC
 40
1.0
  9
$DIMTOFL
 70
     0
  9
$DIMTVP
 40
0.0
  9
$DIMTIX
 70
     0
  9
$DIMSOXD
 70
     0
  9
$DIMSAH
 70
     0
  9
$DIMBLK1
  1

  9
$DIMBLK2
  1

  9
$DIMSTYLE
  2
Standard
  9
$DIMCLRD
 70
     0
  9
$DIMCLRE
 70
     0
  9
$DIMCLRT
 70
     0
  9
$DIMTFAC
 40
1.0
  9
$DIMGAP
 40
0.09
  9
$DIMJUST
 70
     0
  9
$DIMSD1
 70
     0
  9
$DIMSD2
 70
     0
  9
$DIMTOLJ
 70
     1
  9
$DIMTZIN
 70
     0
  9
$DIMALTZ
 70
     0
  9
$DIMALTTZ
 70
     0
  9
$DIMUPT
 70
     0
  9
$DIMDEC
 70
     4
  9
$DIMTDEC
 70
     4
  9
$DIMALTU
 70
     2
  9
$DIMALTTD
 70
     2
  9
$DIMTXSTY
  7
Standard
  9
$DIMAUNIT
 70
     0
  9
$DIMADEC
 70
     0
  9
$DIMALTRND
 40
0.0
  9
$DIMAZIN
 70
     0
  9
$DIMDSEP
 70
     0
  9
$DIMATFIT
 70
     3
  9
$DIMFRAC
 70
     0
  9
$DIMLDRBLK
  1

  9
$DIMLUNIT
 70
     2
  9
$DIMLWD
 70
     0
  9
$DIMLWE
 70
     0
  9
$DIMTMOVE
 70
     0
  9
$LUNITS
 70
     2
  9
$LUPREC
 70
     4
  9
$SKETCHINC
 40
0.1
  9
$FILLETRAD
 40
0.0
  9
$AUNITS
 70
     0
  9
$AUPREC
 70
     0
  9
$MENU
  1
acad
  9
$ELEVATION
 40
0.0
  9
$PELEVATION
 40
0.0
  9
$THICKNESS
 40
0.0
  9
$LIMCHECK
 70
     0
  9
$CHAMFERA
 40
0.0
  9
$CHAMFERB
 40
0.0
  9
$CHAMFERC
 40
0.0
  9
$CHAMFERD
 40
0.0
  9
$SKPOLY
 70
     0
  9
$TDCREATE
 40
0.000000000
  9
$TDUCREATE
 40
0.000000000
  9
$TDUPDATE
 40
0.000000000
  9
$TDUUPDATE
 40
0.000000000
  9
$TDINDWG
 40
0.0000000000
  9
$TDUSRTIMER
 40
0.0000000000
  9
$USRTIMER
 70
     1
  9
$ANGBASE
 50
0.0
  9
$ANGDIR
 70
     0
  9
$PDMODE
 70
     0
  9
$PDSIZE
 40
0.0
  9
$PLINEWID
 40
0.0
  9
$SPLFRAME
 70
     0
  9
$SPLINETYPE
 70
     6
  9
$SPLINESEGS
 70
     8
  9
$HANDSEED
  5
1A5
  9
$SURFTAB1
 70
     6
  9
$SURFTAB2
 70
     6
  9
$SURFTYPE
 70
     6
  9
$SURFU
 70
     6
  9
$SURFV
 70
     6
  9
$UCSBASE
  2

  9
$UCSNAME
  2

  9
$UCSORG
 10
0.0
 20
0.0
 30
0.0
  9
$UCSXDIR
 10
1.0
 20
0.0
 30
0.0
  9
$UCSYDIR
 10
0.0
 20
1.0
 30
0.0
  9
$UCSORTHOREF
  2

  9
$UCSORTHOVIEW
 70
     0
  9
$UCSORGTOP
 10
0.0
 20
0.0
 30
0.0
  9
$UCSORGBOTTOM
 10
0.0
 20
0.0
 30
0.0
  9
$UCSORGLEFT
 10
0.0
 20
0.0
 30
0.0
  9
$UCSORGRIGHT
 10
0.0
 20
0.0
 30
0.0
  9
$UCSORGFRONT
 10
0.0
 20
0.0
 30
0.0
  9
$UCSORGBACK
 10
0.0
 20
0.0
 30
0.0
  9
$PUCSBASE
  2

  9
$PUCSNAME
  2

  9
$PUCSORG
 10
0.0
 20
0.0
 30
0.0
  9
$PUCSXDIR
 10
1.0
 20
0.0
 30
0.0
  9
$PUCSYDIR
 10
0.0
 20
1.0
 30
0.0
  9
$PUCSORTHOREF
  2

  9
$PUCSORTHOVIEW
 70
     0
  9
$PUCSORGTOP
 10
0.0
 20
0.0
 30
0.0
  9
$PUCSORGBOTTOM
 10
0.0
 20
0.0
 30
0.0
  9
$PUCSORGLEFT
 10
0.0
 20
0.0
 30
0.0
  9
$PUCSORGRIGHT
 10
0.0
 20
0.0
 30
0.0
  9
$PUCSORGFRONT
 10
0.0
 20
0.0
 30
0.0
  9
$PUCSORGBACK
 10
0.0
 20
0.0
 30
0.0
  9
$USERI1
 70
     0
  9
$USERI2
 70
     0
  9
$USERI3
 70
     0
  9
$USERI4
 70
     0
  9
$USERI5
 70
     0
  9
$USERR1
 40
0.0
  9
$USERR2
 40
0.0
  9
$USERR3
 40
0.0
  9
$USERR4
 40
0.0
  9
$USERR5
 40
0.0
  9
$WORLDVIEW
 70
     1
  9
$SHADEDGE
 70
     3
  9
$SHADEDIF
 70
    70
  9
$TILEMODE
 70
     1
  9
$MAXACTVP
 70
    16
  9
$PINSBASE
 10
0.0
 20
0.0
 30
0.0
  9
$PLIMCHECK
 70
     0
  9
$PEXTMIN
 10
1.000000E+20
 20
1.000000E+20
 30
1.000000E+20
  9
$PEXTMAX
 10
-1.000000E+20
 20
-1.000000E+20
 30
-1.000000E+20
  9
$PLIMMIN
 10
0.0
 20
0.0
  9
$PLIMMAX
 10
12.0
 20
9.0
  9
$UNITMODE
 70
     0
  9
$VISRETAIN
 70
     0
  9
$PLINEGEN
 70
     1
  9
$PSLTSCALE
 70
     0
  9
$TREEDEPTH
 70
  3020
  9
$CMLSTYLE
  2
Standard
  9
$CMLJUST
 70
     0
  9
$CMLSCALE
 40
1.0
  9
$PROXYGRAPHICS
 70
     0
  9
$MEASUREMENT
 70
     0
  9
$CELWEIGHT
370
     0
  9
$ENDCAPS
280
     0
  9
$JOINSTYLE
280
     0
  9
$LWDISPLAY
290
     0
  9
$INSUNITS
 70
     4
  9
$HYPERLINKBASE
  1

  9
$XEDIT
290
     1
  9
$CEPSNTYPE
380
     0
  9
$PSTYLEMODE
290
     1
  9
$FINGERPRINTGUID
  2

  9
$VERSIONGUID
  2

  9
$EXTNAMES
290
     1
  9
$PSVPSCALE
 40
0.0
  0
ENDSEC
  0
SECTION
  2
CLASSES
  0
CLASS
  1
LWPOLYLINE
  2
AcDbPolyline
  3
AutoCAD 2000
 90
    32768
280
     0
281
     1
  0
CLASS
  1
IMAGE
  2
AcDbRasterImage
  3
ISM
 90
    32895
280
     0
281
     1
  0
CLASS
  1
OLE2FRAME
  2
AcDbOle2Frame
  3
AutoCAD 2000
 90
    32768
280
     0
281
     1
  0
CLASS
  1
HATCH
  2
AcDbHatch
  3
AutoCAD 2000
 90
    32768
280
     0
281
     1
  0
CLASS
  1
DICTIONARYVAR
  2
AcDbDictionaryVar
  3
AutoCAD 2000
 90
    32768
280
     0
281
     0
  0
CLASS
  1
RASTERVARIABLES
  2
AcDbRasterVariables
  3
ISM
 90
    32768
280
     0
281
     0
  0
CLASS
  1
IMAGEDEF
  2
AcDbRasterImageDef
  3
ISM
 90
    32768
280
     0
281
     0
  0
CLASS
  1
IMAGEDEF_REACTOR
  2
AcDbRasterImageDefReactor
  3
ISM
 90
    32769
280
     0
281
     0
  0
CLASS
  1
IDBUFFER
  2
AcDbIdBuffer
  3
AutoCAD 2000
 90
    32768
280
     0
281
     0
  0
CLASS
  1
SPATIAL_FILTER
  2
AcDbSpatialFilter
  3
AutoCAD 2000
 90
    32768
280
     0
281
     0
  0
CLASS
  1
XRECORD
  2
AcDbXrecord
  3
AutoCAD 2000
 90
    32768
280
     0
281
     0
  0
CLASS
  1
SORTENTSTABLE
  2
AcDbSortentsTable
  3
AutoCAD 2000
 90
    32768
280
     0
281
     0
  0
CLASS
  1
LAYER_INDEX
  2
AcDbLayerIndex
  3
AutoCAD 2000
 90
    32768
280
     0
281
     0
  0
CLASS
  1
SPATIAL_INDEX
  2
AcDbSpatialIndex
  3
AutoCAD 2000
 90
    32768
280
     0
281
     0
  0
CLASS
  1
OBJECT_PTR
  2
CAseDLPNTableRecord
  3
"ASE-LPNTableRecord"
 90
    32769
280
     0
281
     0
  0
CLASS
  1
LAYOUT
  2
AcDbLayout
  3
AutoCAD 2000
 90
        0
280
     0
281
     0
  0
CLASS
  1
PLOTSETTINGS
  2
AcDbPlotSettings
  3
AutoCAD 2000
 90
    32768
280
     0
281
     0
  0
CLASS
  1
ACDBDICTIONARYWDFLT
  2
AcDbDictionaryWithDefault
  3
AutoCAD 2000
 90
        0
280
     0
281
     0
  0
CLASS
  1
ACDBPLACEHOLDER
  2
AcDbPlaceHolder
  3
AutoCAD 2000
 90
        0
280
     0
281
     0
  0
CLASS
  1
VBA_PROJECT
  2
AcDbVbaProject
  3
acadvba
 90
    32768
280
     0
281
     0
  0
CLASS
  1
WIPEOUT
  2
AcDbWipeout
  3
WipeOut|AutoCAD Express Tool|expresstools@autodesk.com
 90
    32895
280
     0
281
     1
  0
CLASS
  1
WIPEOUTVARIABLES
  2
AcDbWipeoutVariables
  3
WipeOut|AutoCAD Express Tool|expresstools@autodesk.com
 90
        0
280
     0
281
     0
  0
CLASS
  1
RTEXT
  2
RText
  3
RText|AutoCAD Express Tool|expresstools@autodesk.com
 90
    32768
280
     0
281
     1
  0
CLASS
  1
ARCALIGNEDTEXT
  2
AcDbArcAlignedText
  3
ATEXT|AutoCAD Express Tool|expresstools@autodesk.com
 90
    32768
280
     0
281
     1
  0
ENDSEC
  0
SECTION
  2
TABLES
  0
TABLE
  2
VPORT
  5
7
100
AcDbSymbolTable
 70
     1
  0
VPORT
  5
15
100
AcDbSymbolTableRecord
100
AcDbViewportTableRecord
  2
*ACTIVE
 70
     0
 10
0.0
 20
0.0
 11
1.0
 21
1.0
 12
6.591288
 22
4.579184
 13
0.0
 23
0.0
 14
1.0
 24
1.0
 15
0.0
 25
0.0
 16
0.0
 26
0.0
 36
1.0
 17
0.0
 27
0.0
 37
0.0
 40
9.158369
 41
0.688564
 42
50.0
 43
0.0
 44
0.0
 50
0.0
 51
0.0
 71
     0
 72
   100
 73
     1
 74
     1
 75
     0
 76
     0
 77
     0
 78
     0
281
     0
 65
     0
110
0.0
120
0.0
130
0.0
111
1.0
121
0.0
131
0.0
112
0.0
122
1.0
132
0.0
345
0
346
0
 79
     0
146
0.0
  0
ENDTAB
  0
TABLE
  2
LTYPE
  5
4
100
AcDbSymbolTable
 70
     4
  0
LTYPE
  5
11
100
AcDbSymbolTableRecord
100
AcDbLinetypeTableRecord
  2
ByBlock
 70
    64
  3

 72
    65
 73
     0
 40
0.0
  0
LTYPE
  5
12
100
AcDbSymbolTableRecord
100
AcDbLinetypeTableRecord
  2
ByLayer
 70
    64
  3

 72
    65
 73
     0
 40
0.0
  0
LTYPE
  5
13
100
AcDbSymbolTableRecord
100
AcDbLinetypeTableRecord
  2
Continuous
 70
    64
  3
Solid line
 72
    65
 73
     0
 40
0.0
  0
LTYPE
  5
8D
100
AcDbSymbolTableRecord
100
AcDbLinetypeTableRecord
  2
New Line1
 70
    65
  3

 72
    64
 73
     4
 40
1.2
 49
0.5
 74
     0
 49
-0.3
 74
     0
 49
0.1
 74
     0
 49
-0.3
 74
     0
  0
ENDTAB
  0
TABLE
  2
LAYER
  5
2
100
AcDbSymbolTable
 70
     4
  0
LAYER
  5
14
100
AcDbSymbolTableRecord
100
AcDbLayerTableRecord
  2
0
 70
     0
 62
     7
  6
Continuous
290
     1
370
    -3
390
1D
  0
LAYER
  5
24
100
AcDbSymbolTableRecord
100
AcDbLayerTableRecord
  2
Ebene 1
 70
     0
 62
     7
  6
Continuous
290
     1
370
    -3
390
1F
  0
LAYER
  5
143
100
AcDbSymbolTableRecord
100
AcDbLayerTableRecord
  2
LC-001-002-----0
 70
     0
 62
     7
  6
Continuous
290
     1
370
    -3
390
1F
  0
LAYER
  5
145
100
AcDbSymbolTableRecord
100
AcDbLayerTableRecord
  2
LC-005-001-----0
 70
     0
 62
     7
  6
Continuous
290
     1
370
    -3
390
1F
  0
ENDTAB
  0
TABLE
  2
STYLE
  5
3
100
AcDbSymbolTable
 70
     1
  0
STYLE
  5
17
100
AcDbSymbolTableRecord
100
AcDbTextStyleTableRecord
  2
Standard
 70
     0
 40
0.0
 41
1.0
 50
0.0
 71
     0
 42
0.0
  3
txt
  4

  0
ENDTAB
  0
TABLE
  2
VIEW
  5
5
100
AcDbSymbolTable
 70
     0
  0
ENDTAB
  0
TABLE
  2
UCS
  5
6
100
AcDbSymbolTable
 70
     0
  0
ENDTAB
  0
TABLE
  2
APPID
  5
8
100
AcDbSymbolTable
 70
     1
  0
APPID
  5
16
100
AcDbSymbolTableRecord
100
AcDbRegAppTableRecord
  2
ACAD
 70
     0
  0
ENDTAB
  0
TABLE
  2
DIMSTYLE
  5
9
100
AcDbSymbolTable
 70
     1
100
AcDbDimStyleTable
 71
     0
  0
DIMSTYLE
105
18
100
AcDbSymbolTableRecord
100
AcDbDimStyleTableRecord
  2
Standard
 70
     0
  3

  4

 40
1.0
 41
0.18
 42
0.0625
 43
0.38
 44
0.18
 45
0.0
 46
0.0
 47
0.0
 48
0.0
 71
     0
 72
     0
 73
     1
 74
     1
 75
     0
 76
     0
 77
     0
 78
     0
 79
     0
140
0.18
141
0.09
142
0.0
143
25.4
144
1.0
145
0.0
146
1.0
147
0.09
148
0.0
170
     0
171
     2
172
     0
173
     0
174
     0
175
     0
176
     0
177
     0
178
     0
179
     0
271
     4
272
     4
273
     2
274
     2
275
     0
276
     0
277
     2
278
    46
279
     0
280
     0
281
     0
282
     0
283
     1
284
     0
285
     0
286
     0
288
     0
340
17
341
0
342
0
343
0
344
0
371
    -2
372
    -2
  0
ENDTAB
  0
TABLE
  2
BLOCK_RECORD
  5
1
100
AcDbSymbolTable
 70
     0
  0
BLOCK_RECORD
  5
A
100
AcDbSymbolTableRecord
100
AcDbBlockTableRecord
  2
*MODEL_SPACE
340
20
  0
BLOCK_RECORD
  5
B
100
AcDbSymbolTableRecord
100
AcDbBlockTableRecord
  2
*PAPER_SPACE
340
21
  0
ENDTAB
  0
ENDSEC
  0
SECTION
  2
BLOCKS
  0
BLOCK
  5
D
100
AcDbEntity
  8
0
100
AcDbBlockBegin
  2
*MODEL_SPACE
 70
     0
 10
0.0
 20
0.0
 30
0.0
  3
*MODEL_SPACE
  1

  0
ENDBLK
  5
E
100
AcDbEntity
  8
0
100
AcDbBlockEnd
  0
BLOCK
  5
F
100
AcDbEntity
 67
     1
  8
0
100
AcDbBlockBegin
  2
*PAPER_SPACE
 70
     0
 10
0.0
 20
0.0
 30
0.0
  3
*PAPER_SPACE
  1

  0
ENDBLK
  5
10
100
AcDbEntity
 67
     1
  8
0
100
AcDbBlockEnd
  0
ENDSEC
  0
SECTION
  2
ENTITIES
  0
SPLINE
  5
25
100
AcDbEntity
  8
Ebene 1
100
AcDbSpline
210
0.0
220
0.0
230
1.0
 70
     1
 71
     3
 72
    40
 73
    36
 74
     0
 42
0.0000000001
 43
0.0000000001
 40
0.0
 40
0.0
 40
0.0
 40
0.0
 40
0.1111111111111111
 40
0.1111111111111111
 40
0.1111111111111111
 40
0.1111111111111111
 40
0.2222222222222222
 40
0.2222222222222222
 40
0.2222222222222222
 40
0.2222222222222222
 40
0.3333333333333333
 40
0.3333333333333333
 40
0.3333333333333333
 40
0.3333333333333333
 40
0.4444444444444444
 40
0.4444444444444444
 40
0.4444444444444444
 40
0.4444444444444444
 40
0.5555555555555556
 40
0.5555555555555556
 40
0.5555555555555556
 40
0.5555555555555556
 40
0.6666666666666667
 40
0.6666666666666667
 40
0.6666666666666667
 40
0.6666666666666667
 40
0.7777777777777779
 40
0.7777777777777779
 40
0.7777777777777779
 40
0.7777777777777779
 40
0.8888888888888891
 40
0.8888888888888891
 40
0.8888888888888891
 40
0.8888888888888891
 40
1.0
 40
1.0
 40
1.0
 40
1.0
 10
-23.896000000000001
 20
44.559200000000004
 30
0.0
 10
-23.896000000000001
 20
44.559200000000004
 30
0.0
 10
-22.6587
 20
50.4602
 30
0.0
 10
-22.6587
 20
50.4602
 30
0.0
 10
-22.6587
 20
50.4602
 30
0.0
 10
-23.1919
 20
50.041700000000006
 30
0.0
 10
-23.941500000000001
 20
49.705100000000002
 30
0.0
 10
-24.907800000000002
 20
49.452200000000005
 30
0.0
 10
-24.907800000000002
 20
49.452200000000005
 30
0.0
 10
-24.907800000000002
 20
49.452200000000005
 30
0.0
 10
-24.727600000000002
 20
50.327500000000001
 30
0.0
 10
-24.727600000000002
 20
50.327500000000001
 30
0.0
 10
-24.727600000000002
 20
50.327500000000001
 30
0.0
 10
-24.247199999999999
 20
50.518500000000003
 30
0.0
 10
-23.7742
 20
50.769600000000004
 30
0.0
 10
-23.3065
 20
51.079000000000001
 30
0.0
 10
-23.3065
 20
51.079000000000001
 30
0.0
 10
-22.838800000000003
 20
51.388300000000001
 30
0.0
 10
-22.4877
 20
51.657600000000002
 30
0.0
 10
-22.2529
 20
51.8887
 30
0.0
 10
-22.2529
 20
51.8887
 30
0.0
 10
-22.111000000000001
 20
52.0306
 30
0.0
 10
-21.976300000000002
 20
52.203500000000005
 30
0.0
 10
-21.849
 20
52.407200000000003
 30
0.0
 10
-21.849
 20
52.407200000000003
 30
0.0
 10
-21.849
 20
52.407200000000003
 30
0.0
 10
-21.288500000000003
 20
52.407200000000003
 30
0.0
 10
-21.288500000000003
 20
52.407200000000003
 30
0.0
 10
-21.288500000000003
 20
52.407200000000003
 30
0.0
 10
-21.288500000000003
 20
52.407200000000003
 30
0.0
 10
-22.924300000000002
 20
44.559200000000004
 30
0.0
 10
-22.924300000000002
 20
44.559200000000004
 30
0.0
 10
-22.924300000000002
 20
44.559200000000004
 30
0.0
 10
-22.924300000000002
 20
44.559200000000004
 30
0.0
 10
-23.896000000000001
 20
44.559200000000004
 30
0.0
 10
-23.896000000000001
 20
44.559200000000004
 30
0.0
  0
SPLINE
  5
26
100
AcDbEntity
  8
Ebene 1
100
AcDbSpline
210
0.0
220
0.0
230
1.0
 70
     1
 71
     3
 72
    96
 73
    92
 74
     0
 42
0.0000000001
 43
0.0000000001
 40
0.0
 40
0.0
 40
0.0
 40
0.0
 40
0.0434782608695652
 40
0.0434782608695652
 40
0.0434782608695652
 40
0.0434782608695652
 40
0.0869565217391304
 40
0.0869565217391304
 40
0.0869565217391304
 40
0.0869565217391304
 40
0.1304347826086957
 40
0.1304347826086957
 40
0.1304347826086957
 40
0.1304347826086957
 40
0.1739130434782609
 40
0.1739130434782609
 40
0.1739130434782609
 40
0.1739130434782609
 40
0.2173913043478261
 40
0.2173913043478261
 40
0.2173913043478261
 40
0.2173913043478261
 40
0.2608695652173913
 40
0.2608695652173913
 40
0.2608695652173913
 40
0.2608695652173913
 40
0.3043478260869565
 40
0.3043478260869565
 40
0.3043478260869565
 40
0.3043478260869565
 40
0.3478260869565217
 40
0.3478260869565217
 40
0.3478260869565217
 40
0.3478260869565217
 40
0.3913043478260869
 40
0.3913043478260869
 40
0.3913043478260869
 40
0.3913043478260869
 40
0.4347826086956521
 40
0.4347826086956521
 40
0.4347826086956521
 40
0.4347826086956521
 40
0.4782608695652173
 40
0.4782608695652173
 40
0.4782608695652173
 40
0.4782608695652173
 40
0.5217391304347825
 40
0.5217391304347825
 40
0.5217391304347825
 40
0.5217391304347825
 40
0.5652173913043477
 40
0.5652173913043477
 40
0.5652173913043477
 40
0.5652173913043477
 40
0.6086956521739129
 40
0.6086956521739129
 40
0.6086956521739129
 40
0.6086956521739129
 40
0.6521739130434781
 40
0.6521739130434781
 40
0.6521739130434781
 40
0.6521739130434781
 40
0.6956521739130432
 40
0.6956521739130432
 40
0.6956521739130432
 40
0.6956521739130432
 40
0.7391304347826084
 40
0.7391304347826084
 40
0.7391304347826084
 40
0.7391304347826084
 40
0.7826086956521736
 40
0.7826086956521736
 40
0.7826086956521736
 40
0.7826086956521736
 40
0.8260869565217388
 40
0.8260869565217388
 40
0.8260869565217388
 40
0.8260869565217388
 40
0.869565217391304
 40
0.869565217391304
 40
0.869565217391304
 40
0.869565217391304
 40
0.9130434782608692
 40
0.9130434782608692
 40
0.9130434782608692
 40
0.9130434782608692
 40
0.9565217391304344
 40
0.9565217391304344
 40
0.9565217391304344
 40
0.9565217391304344
 40
1.0
 40
1.0
 40
1.0
 40
1.0
 10
-19.811
 20
44.559200000000004
 30
0.0
 10
-19.712700000000002
 20
45.025100000000002
 30
0.0
 10
-19.574400000000001
 20
45.414500000000004
 30
0.0
 10
-19.398
 20
45.729199999999999
 30
0.0
 10
-19.398
 20
45.729199999999999
 30
0.0
 10
-19.223300000000002
 20
46.044000000000004
 30
0.0
 10
-18.988500000000002
 20
46.342500000000001
 30
0.0
 10
-18.697400000000002
 20
46.624500000000005
 30
0.0
 10
-18.697400000000002
 20
46.624500000000005
 30
0.0
 10
-18.406200000000002
 20
46.908300000000004
 30
0.0
 10
-17.844000000000001
 20
47.381500000000003
 30
0.0
 10
-17.0124
 20
48.0456
 30
0.0
 10
-17.0124
 20
48.0456
 30
0.0
 10
-16.508300000000002
 20
48.447800000000001
 30
0.0
 10
-16.164400000000001
 20
48.744399999999999
 30
0.0
 10
-15.978900000000001
 20
48.935400000000001
 30
0.0
 10
-15.978900000000001
 20
48.935400000000001
 30
0.0
 10
-15.713200000000001
 20
49.213799999999999
 30
0.0
 10
-15.518500000000001
 20
49.484999999999999
 30
0.0
 10
-15.398400000000001
 20
49.752500000000005
 30
0.0
 10
-15.398400000000001
 20
49.752500000000005
 30
0.0
 10
-15.316500000000001
 20
49.932600000000001
 30
0.0
 10
-15.274700000000001
 20
50.130900000000004
 30
0.0
 10
-15.274700000000001
 20
50.343800000000002
 30
0.0
 10
-15.274700000000001
 20
50.343800000000002
 30
0.0
 10
-15.274700000000001
 20
50.702200000000005
 30
0.0
 10
-15.402000000000001
 20
51.0062
 30
0.0
 10
-15.6568
 20
51.257300000000001
 30
0.0
 10
-15.6568
 20
51.257300000000001
 30
0.0
 10
-15.909700000000001
 20
51.508400000000002
 30
0.0
 10
-16.2227
 20
51.633900000000004
 30
0.0
 10
-16.592100000000002
 20
51.633900000000004
 30
0.0
 10
-16.592100000000002
 20
51.633900000000004
 30
0.0
 10
-16.957800000000002
 20
51.633900000000004
 30
0.0
 10
-17.278100000000002
 20
51.506600000000006
 30
0.0
 10
-17.551100000000002
 20
51.251800000000003
 30
0.0
 10
-17.551100000000002
 20
51.251800000000003
 30
0.0
 10
-17.825800000000001
 20
50.998899999999999
 30
0.0
 10
-18.020500000000002
 20
50.589400000000005
 30
0.0
 10
-18.1388
 20
50.0291
 30
0.0
 10
-18.1388
 20
50.0291
 30
0.0
 10
-18.1388
 20
50.0291
 30
0.0
 10
-19.081400000000002
 20
50.167300000000004
 30
0.0
 10
-19.081400000000002
 20
50.167300000000004
 30
0.0
 10
-19.081400000000002
 20
50.167300000000004
 30
0.0
 10
-18.988500000000002
 20
50.860600000000005
 30
0.0
 10
-18.719200000000001
 20
51.406500000000001
 30
0.0
 10
-18.273400000000002
 20
51.806800000000003
 30
0.0
 10
-18.273400000000002
 20
51.806800000000003
 30
0.0
 10
-17.8276
 20
52.207100000000004
 30
0.0
 10
-17.272600000000001
 20
52.407200000000003
 30
0.0
 10
-16.608499999999999
 20
52.407200000000003
 30
0.0
 10
-16.608499999999999
 20
52.407200000000003
 30
0.0
 10
-16.164400000000001
 20
52.407200000000003
 30
0.0
 10
-15.7605
 20
52.314500000000002
 30
0.0
 10
-15.400300000000001
 20
52.128900000000002
 30
0.0
 10
-15.400300000000001
 20
52.128900000000002
 30
0.0
 10
-15.039900000000001
 20
51.945100000000004
 30
0.0
 10
-14.768800000000001
 20
51.684800000000003
 30
0.0
 10
-14.5869
 20
51.350100000000005
 30
0.0
 10
-14.5869
 20
51.350100000000005
 30
0.0
 10
-14.406700000000001
 20
51.017099999999999
 30
0.0
 10
-14.315800000000001
 20
50.671400000000006
 30
0.0
 10
-14.315800000000001
 20
50.316600000000001
 30
0.0
 10
-14.315800000000001
 20
50.316600000000001
 30
0.0
 10
-14.315800000000001
 20
49.797900000000006
 30
0.0
 10
-14.499500000000001
 20
49.297499999999999
 30
0.0
 10
-14.870700000000001
 20
48.819000000000003
 30
0.0
 10
-14.870700000000001
 20
48.819000000000003
 30
0.0
 10
-15.0982
 20
48.520600000000002
 30
0.0
 10
-15.766
 20
47.9328
 30
0.0
 10
-16.874200000000002
 20
47.053899999999999
 30
0.0
 10
-16.874200000000002
 20
47.053899999999999
 30
0.0
 10
-17.3508
 20
46.677300000000002
 30
0.0
 10
-17.7057
 20
46.367899999999999
 30
0.0
 10
-17.938600000000001
 20
46.125900000000001
 30
0.0
 10
-17.938600000000001
 20
46.125900000000001
 30
0.0
 10
-18.171500000000002
 20
45.8857
 30
0.0
 10
-18.3462
 20
45.658300000000004
 30
0.0
 10
-18.462600000000002
 20
45.443600000000004
 30
0.0
 10
-18.462600000000002
 20
45.443600000000004
 30
0.0
 10
-18.462600000000002
 20
45.443600000000004
 30
0.0
 10
-14.965400000000001
 20
45.443600000000004
 30
0.0
 10
-14.965400000000001
 20
45.443600000000004
 30
0.0
 10
-14.965400000000001
 20
45.443600000000004
 30
0.0
 10
-14.965400000000001
 20
45.443600000000004
 30
0.0
 10
-15.152700000000001
 20
44.559200000000004
 30
0.0
 10
-15.152700000000001
 20
44.559200000000004
 30
0.0
 10
-15.152700000000001
 20
44.559200000000004
 30
0.0
 10
-15.152700000000001
 20
44.559200000000004
 30
0.0
 10
-19.811
 20
44.559200000000004
 30
0.0
 10
-19.811
 20
44.559200000000004
 30
0.0
  0
SPLINE
  5
27
100
AcDbEntity
  8
Ebene 1
100
AcDbSpline
210
0.0
220
0.0
230
1.0
 70
     1
 71
     3
 72
    52
 73
    48
 74
     0
 42
0.0000000001
 43
0.0000000001
 40
0.0
 40
0.0
 40
0.0
 40
0.0
 40
0.0833333333333333
 40
0.0833333333333333
 40
0.0833333333333333
 40
0.0833333333333333
 40
0.1666666666666667
 40
0.1666666666666667
 40
0.1666666666666667
 40
0.1666666666666667
 40
0.25
 40
0.25
 40
0.25
 40
0.25
 40
0.3333333333333333
 40
0.3333333333333333
 40
0.3333333333333333
 40
0.3333333333333333
 40
0.4166666666666666
 40
0.4166666666666666
 40
0.4166666666666666
 40
0.4166666666666666
 40
0.4999999999999999
 40
0.4999999999999999
 40
0.4999999999999999
 40
0.4999999999999999
 40
0.5833333333333333
 40
0.5833333333333333
 40
0.5833333333333333
 40
0.5833333333333333
 40
0.6666666666666666
 40
0.6666666666666666
 40
0.6666666666666666
 40
0.6666666666666666
 40
0.75
 40
0.75
 40
0.75
 40
0.75
 40
0.8333333333333334
 40
0.8333333333333334
 40
0.8333333333333334
 40
0.8333333333333334
 40
0.9166666666666667
 40
0.9166666666666667
 40
0.9166666666666667
 40
0.9166666666666667
 40
1.0
 40
1.0
 40
1.0
 40
1.0
 10
-13.606100000000001
 20
47.123100000000001
 30
0.0
 10
-13.606100000000001
 20
47.7836
 30
0.0
 10
-13.507900000000001
 20
48.456900000000005
 30
0.0
 10
-13.311300000000001
 20
49.139200000000002
 30
0.0
 10
-13.311300000000001
 20
49.139200000000002
 30
0.0
 10
-13.113000000000001
 20
49.821600000000004
 30
0.0
 10
-12.894600000000001
 20
50.365700000000004
 30
0.0
 10
-12.652600000000001
 20
50.775100000000002
 30
0.0
 10
-12.652600000000001
 20
50.775100000000002
 30
0.0
 10
-12.410600000000001
 20
51.1845
 30
0.0
 10
-12.159500000000001
 20
51.502900000000004
 30
0.0
 10
-11.901100000000001
 20
51.734000000000002
 30
0.0
 10
-11.901100000000001
 20
51.734000000000002
 30
0.0
 10
-11.6409
 20
51.9651
 30
0.0
 10
-11.386100000000001
 20
52.136099999999999
 30
0.0
 10
-11.135100000000001
 20
52.243500000000004
 30
0.0
 10
-11.135100000000001
 20
52.243500000000004
 30
0.0
 10
-10.8857
 20
52.352700000000006
 30
0.0
 10
-10.6073
 20
52.407200000000003
 30
0.0
 10
-10.301600000000001
 20
52.407200000000003
 30
0.0
 10
-10.301600000000001
 20
52.407200000000003
 30
0.0
 10
-9.7048000000000005
 20
52.407200000000003
 30
0.0
 10
-9.2062000000000008
 20
52.183500000000002
 30
0.0
 10
-8.8059000000000012
 20
51.7395
 30
0.0
 10
-8.8059000000000012
 20
51.7395
 30
0.0
 10
-8.4055999999999997
 20
51.295400000000001
 30
0.0
 10
-8.2055000000000007
 20
50.655000000000001
 30
0.0
 10
-8.2055000000000007
 20
49.816100000000006
 30
0.0
 10
-8.2055000000000007
 20
49.816100000000006
 30
0.0
 10
-8.2055000000000007
 20
48.951800000000006
 30
0.0
 10
-8.345600000000001
 20
48.096600000000002
 30
0.0
 10
-8.6220999999999997
 20
47.252200000000002
 30
0.0
 10
-8.6220999999999997
 20
47.252200000000002
 30
0.0
 10
-8.9497
 20
46.249700000000004
 30
0.0
 10
-9.4045000000000005
 20
45.498200000000004
 30
0.0
 10
-9.9868000000000006
 20
44.995899999999999
 30
0.0
 10
-9.9868000000000006
 20
44.995899999999999
 30
0.0
 10
-10.4345
 20
44.615600000000001
 30
0.0
 10
-10.944000000000001
 20
44.426400000000001
 30
0.0
 10
-11.517100000000001
 20
44.426400000000001
 30
0.0
 10
-11.517100000000001
 20
44.426400000000001
 30
0.0
 10
-12.103100000000001
 20
44.426400000000001
 30
0.0
 10
-12.598000000000001
 20
44.6556
 30
0.0
 10
-13.001900000000001
 20
45.116100000000003
 30
0.0
 10
-13.001900000000001
 20
45.116100000000003
 30
0.0
 10
-13.404100000000001
 20
45.5764
 30
0.0
 10
-13.606100000000001
 20
46.246000000000002
 30
0.0
 10
-13.606100000000001
 20
47.123100000000001
 30
0.0
  0
SPLINE
  5
28
100
AcDbEntity
  8
Ebene 1
100
AcDbSpline
210
0.0
220
0.0
230
1.0
 70
     1
 71
     3
 72
    48
 73
    44
 74
     0
 42
0.0000000001
 43
0.0000000001
 40
0.0
 40
0.0
 40
0.0
 40
0.0
 40
0.0909090909090909
 40
0.0909090909090909
 40
0.0909090909090909
 40
0.0909090909090909
 40
0.1818181818181818
 40
0.1818181818181818
 40
0.1818181818181818
 40
0.1818181818181818
 40
0.2727272727272727
 40
0.2727272727272727
 40
0.2727272727272727
 40
0.2727272727272727
 40
0.3636363636363637
 40
0.3636363636363637
 40
0.3636363636363637
 40
0.3636363636363637
 40
0.4545454545454546
 40
0.4545454545454546
 40
0.4545454545454546
 40
0.4545454545454546
 40
0.5454545454545455
 40
0.5454545454545455
 40
0.5454545454545455
 40
0.5454545454545455
 40
0.6363636363636365
 40
0.6363636363636365
 40
0.6363636363636365
 40
0.6363636363636365
 40
0.7272727272727274
 40
0.7272727272727274
 40
0.7272727272727274
 40
0.7272727272727274
 40
0.8181818181818183
 40
0.8181818181818183
 40
0.8181818181818183
 40
0.8181818181818183
 40
0.9090909090909093
 40
0.9090909090909093
 40
0.9090909090909093
 40
0.9090909090909093
 40
1.0
 40
1.0
 40
1.0
 40
1.0
 10
-12.672700000000001
 20
46.877500000000005
 30
0.0
 10
-12.672700000000001
 20
46.398900000000005
 30
0.0
 10
-12.5944
 20
46.024000000000001
 30
0.0
 10
-12.4343
 20
45.752900000000004
 30
0.0
 10
-12.4343
 20
45.752900000000004
 30
0.0
 10
-12.217700000000001
 20
45.379899999999999
 30
0.0
 10
-11.8956
 20
45.194300000000005
 30
0.0
 10
-11.468
 20
45.194300000000005
 30
0.0
 10
-11.468
 20
45.194300000000005
 30
0.0
 10
-11.095000000000001
 20
45.194300000000005
 30
0.0
 10
-10.756600000000001
 20
45.361699999999999
 30
0.0
 10
-10.450900000000001
 20
45.700099999999999
 30
0.0
 10
-10.450900000000001
 20
45.700099999999999
 30
0.0
 10
-10.0105
 20
46.176900000000003
 30
0.0
 10
-9.6775000000000002
 20
46.873800000000003
 30
0.0
 10
-9.4555000000000007
 20
47.792700000000004
 30
0.0
 10
-9.4555000000000007
 20
47.792700000000004
 30
0.0
 10
-9.2336000000000009
 20
48.711600000000004
 30
0.0
 10
-9.1225000000000005
 20
49.461300000000001
 30
0.0
 10
-9.1225000000000005
 20
50.045400000000001
 30
0.0
 10
-9.1225000000000005
 20
50.045400000000001
 30
0.0
 10
-9.1225000000000005
 20
50.605800000000002
 30
0.0
 10
-9.2299000000000007
 20
51.011700000000005
 30
0.0
 10
-9.4464000000000006
 20
51.260899999999999
 30
0.0
 10
-9.4464000000000006
 20
51.260899999999999
 30
0.0
 10
-9.6612000000000009
 20
51.508400000000002
 30
0.0
 10
-9.9432000000000009
 20
51.633900000000004
 30
0.0
 10
-10.296200000000001
 20
51.633900000000004
 30
0.0
 10
-10.296200000000001
 20
51.633900000000004
 30
0.0
 10
-10.5509
 20
51.633900000000004
 30
0.0
 10
-10.7912
 20
51.568400000000004
 30
0.0
 10
-11.0131
 20
51.435600000000001
 30
0.0
 10
-11.0131
 20
51.435600000000001
 30
0.0
 10
-11.235100000000001
 20
51.304600000000001
 30
0.0
 10
-11.448
 20
51.079000000000001
 30
0.0
 10
-11.65
 20
50.758700000000005
 30
0.0
 10
-11.65
 20
50.758700000000005
 30
0.0
 10
-11.9375
 20
50.307400000000001
 30
0.0
 10
-12.188600000000001
 20
49.632400000000004
 30
0.0
 10
-12.4015
 20
48.733400000000003
 30
0.0
 10
-12.4015
 20
48.733400000000003
 30
0.0
 10
-12.583400000000001
 20
47.965600000000002
 30
0.0
 10
-12.672700000000001
 20
47.346900000000005
 30
0.0
 10
-12.672700000000001
 20
46.877500000000005
 30
0.0
  0
SPLINE
  5
29
100
AcDbEntity
  8
Ebene 1
100
AcDbSpline
210
0.0
220
0.0
230
1.0
 70
     1
 71
     3
 72
    84
 73
    80
 74
     0
 42
0.0000000001
 43
0.0000000001
 40
0.0
 40
0.0
 40
0.0
 40
0.0
 40
0.05
 40
0.05
 40
0.05
 40
0.05
 40
0.1
 40
0.1
 40
0.1
 40
0.1
 40
0.15
 40
0.15
 40
0.15
 40
0.15
 40
0.2
 40
0.2
 40
0.2
 40
0.2
 40
0.25
 40
0.25
 40
0.25
 40
0.25
 40
0.3
 40
0.3
 40
0.3
 40
0.3
 40
0.35
 40
0.35
 40
0.35
 40
0.35
 40
0.4
 40
0.4
 40
0.4
 40
0.4
 40
0.45
 40
0.45
 40
0.45
 40
0.45
 40
0.4999999999999999
 40
0.4999999999999999
 40
0.4999999999999999
 40
0.4999999999999999
 40
0.5499999999999999
 40
0.5499999999999999
 40
0.5499999999999999
 40
0.5499999999999999
 40
0.6
 40
0.6
 40
0.6
 40
0.6
 40
0.65
 40
0.65
 40
0.65
 40
0.65
 40
0.7000000000000001
 40
0.7000000000000001
 40
0.7000000000000001
 40
0.7000000000000001
 40
0.7500000000000001
 40
0.7500000000000001
 40
0.7500000000000001
 40
0.7500000000000001
 40
0.8000000000000002
 40
0.8000000000000002
 40
0.8000000000000002
 40
0.8000000000000002
 40
0.8500000000000002
 40
0.8500000000000002
 40
0.8500000000000002
 40
0.8500000000000002
 40
0.9000000000000002
 40
0.9000000000000002
 40
0.9000000000000002
 40
0.9000000000000002
 40
0.9500000000000003
 40
0.9500000000000003
 40
0.9500000000000003
 40
0.9500000000000003
 40
1.0
 40
1.0
 40
1.0
 40
1.0
 10
-59.133100000000006
 20
0.9946
 30
0.0
 10
-59.356900000000003
 20
1.264
 30
0.0
 10
-59.5261
 20
1.5332000000000001
 30
0.0
 10
-59.6372
 20
1.8025
 30
0.0
 10
-59.6372
 20
1.8025
 30
0.0
 10
-59.75
 20
2.0700000000000003
 30
0.0
 10
-59.804500000000004
 20
2.3357000000000001
 30
0.0
 10
-59.804500000000004
 20
2.5994999999999999
 30
0.0
 10
-59.804500000000004
 20
2.5994999999999999
 30
0.0
 10
-59.804500000000004
 20
3.1927000000000003
 30
0.0
 10
-59.602600000000002
 20
3.6840000000000002
 30
0.0
 10
-59.196800000000003
 20
4.0697999999999999
 30
0.0
 10
-59.196800000000003
 20
4.0697999999999999
 30
0.0
 10
-58.7928
 20
4.4573999999999998
 30
0.0
 10
-58.247
 20
4.6520999999999999
 30
0.0
 10
-57.560900000000004
 20
4.6520999999999999
 30
0.0
 10
-57.560900000000004
 20
4.6520999999999999
 30
0.0
 10
-56.676600000000001
 20
4.6520999999999999
 30
0.0
 10
-55.9178
 20
4.3646000000000003
 30
0.0
 10
-55.284600000000005
 20
3.7878000000000003
 30
0.0
 10
-55.284600000000005
 20
3.7878000000000003
 30
0.0
 10
-54.740500000000004
 20
3.2910000000000004
 30
0.0
 10
-54.4694
 20
2.6869000000000001
 30
0.0
 10
-54.4694
 20
1.9754
 30
0.0
 10
-54.4694
 20
1.9754
 30
0.0
 10
-54.4694
 20
1.3294000000000001
 30
0.0
 10
-54.706000000000003
 20
0.789
 30
0.0
 10
-55.180900000000001
 20
0.3577
 30
0.0
 10
-55.180900000000001
 20
0.3577
 30
0.0
 10
-55.655799999999999
 20
-0.0735
 30
0.0
 10
-56.3309
 20
-0.29
 30
0.0
 10
-57.209800000000001
 20
-0.29
 30
0.0
 10
-57.209800000000001
 20
-0.29
 30
0.0
 10
-57.994
 20
-0.29
 30
0.0
 10
-58.807400000000001
 20
-0.1518
 30
0.0
 10
-59.644400000000005
 20
0.1267
 30
0.0
 10
-59.644400000000005
 20
0.1267
 30
0.0
 10
-60.288500000000006
 20
0.3395
 30
0.0
 10
-60.819900000000004
 20
0.6034000000000001
 30
0.0
 10
-61.236600000000003
 20
0.9182
 30
0.0
 10
-61.236600000000003
 20
0.9182
 30
0.0
 10
-61.653300000000002
 20
1.2311000000000001
 30
0.0
 10
-61.960800000000006
 20
1.5660000000000001
 30
0.0
 10
-62.155500000000004
 20
1.919
 30
0.0
 10
-62.155500000000004
 20
1.919
 30
0.0
 10
-62.352000000000004
 20
2.2738
 30
0.0
 10
-62.450300000000006
 20
2.6723000000000003
 30
0.0
 10
-62.450300000000006
 20
3.1163000000000003
 30
0.0
 10
-62.450300000000006
 20
3.1163000000000003
 30
0.0
 10
-62.450300000000006
 20
3.6494
 30
0.0
 10
-62.282900000000005
 20
4.0842999999999998
 30
0.0
 10
-61.951700000000002
 20
4.4228000000000005
 30
0.0
 10
-61.951700000000002
 20
4.4228000000000005
 30
0.0
 10
-61.618700000000004
 20
4.7594000000000003
 30
0.0
 10
-61.143800000000006
 20
4.9523000000000001
 30
0.0
 10
-60.525100000000002
 20
4.9977999999999998
 30
0.0
 10
-60.525100000000002
 20
4.9977999999999998
 30
0.0
 10
-60.525100000000002
 20
4.9977999999999998
 30
0.0
 10
-60.439600000000006
 20
4.1025
 30
0.0
 10
-60.439600000000006
 20
4.1025
 30
0.0
 10
-60.439600000000006
 20
4.1025
 30
0.0
 10
-60.861800000000002
 20
4.0533999999999999
 30
0.0
 10
-61.167500000000004
 20
3.9333
 30
0.0
 10
-61.356700000000004
 20
3.7423000000000002
 30
0.0
 10
-61.356700000000004
 20
3.7423000000000002
 30
0.0
 10
-61.5441
 20
3.5530000000000004
 30
0.0
 10
-61.6387
 20
3.3201000000000001
 30
0.0
 10
-61.6387
 20
3.0472000000000001
 30
0.0
 10
-61.6387
 20
3.0472000000000001
 30
0.0
 10
-61.6387
 20
2.7597
 30
0.0
 10
-61.527700000000003
 20
2.4702999999999999
 30
0.0
 10
-61.303900000000006
 20
2.1774
 30
0.0
 10
-61.303900000000006
 20
2.1774
 30
0.0
 10
-61.080100000000002
 20
1.8862000000000001
 30
0.0
 10
-60.747100000000003
 20
1.637
 30
0.0
 10
-60.308600000000006
 20
1.4259000000000002
 30
0.0
 10
-60.308600000000006
 20
1.4259000000000002
 30
0.0
 10
-59.870100000000001
 20
1.2166000000000001
 30
0.0
 10
-59.478900000000003
 20
1.0728
 30
0.0
 10
-59.133100000000006
 20
0.9946
 30
0.0
  0
SPLINE
  5
2A
100
AcDbEntity
  8
Ebene 1
100
AcDbSpline
210
0.0
220
0.0
230
1.0
 70
     1
 71
     3
 72
    40
 73
    36
 74
     0
 42
0.0000000001
 43
0.0000000001
 40
0.0
 40
0.0
 40
0.0
 40
0.0
 40
0.1111111111111111
 40
0.1111111111111111
 40
0.1111111111111111
 40
0.1111111111111111
 40
0.2222222222222222
 40
0.2222222222222222
 40
0.2222222222222222
 40
0.2222222222222222
 40
0.3333333333333333
 40
0.3333333333333333
 40
0.3333333333333333
 40
0.3333333333333333
 40
0.4444444444444444
 40
0.4444444444444444
 40
0.4444444444444444
 40
0.4444444444444444
 40
0.5555555555555556
 40
0.5555555555555556
 40
0.5555555555555556
 40
0.5555555555555556
 40
0.6666666666666667
 40
0.6666666666666667
 40
0.6666666666666667
 40
0.6666666666666667
 40
0.7777777777777779
 40
0.7777777777777779
 40
0.7777777777777779
 40
0.7777777777777779
 40
0.8888888888888891
 40
0.8888888888888891
 40
0.8888888888888891
 40
0.8888888888888891
 40
1.0
 40
1.0
 40
1.0
 40
1.0
 10
-56.798500000000004
 20
0.658
 30
0.0
 10
-56.3581
 20
0.658
 30
0.0
 10
-55.987000000000002
 20
0.7962
 30
0.0
 10
-55.686700000000002
 20
1.0692000000000002
 30
0.0
 10
-55.686700000000002
 20
1.0692000000000002
 30
0.0
 10
-55.386500000000005
 20
1.3422000000000001
 30
0.0
 10
-55.237300000000005
 20
1.6515000000000002
 30
0.0
 10
-55.237300000000005
 20
1.9973000000000001
 30
0.0
 10
-55.237300000000005
 20
1.9973000000000001
 30
0.0
 10
-55.237300000000005
 20
2.2392000000000003
 30
0.0
 10
-55.328300000000006
 20
2.4940000000000002
 30
0.0
 10
-55.512
 20
2.7651000000000003
 30
0.0
 10
-55.512
 20
2.7651000000000003
 30
0.0
 10
-55.694000000000003
 20
3.0344000000000002
 30
0.0
 10
-55.9724
 20
3.2637
 30
0.0
 10
-56.345500000000001
 20
3.4529000000000001
 30
0.0
 10
-56.345500000000001
 20
3.4529000000000001
 30
0.0
 10
-56.718500000000006
 20
3.6404000000000001
 30
0.0
 10
-57.089700000000001
 20
3.7350000000000003
 30
0.0
 10
-57.459000000000003
 20
3.7350000000000003
 30
0.0
 10
-57.459000000000003
 20
3.7350000000000003
 30
0.0
 10
-57.9358
 20
3.7350000000000003
 30
0.0
 10
-58.317900000000002
 20
3.6039000000000003
 30
0.0
 10
-58.6036
 20
3.3437000000000001
 30
0.0
 10
-58.6036
 20
3.3437000000000001
 30
0.0
 10
-58.889300000000006
 20
3.0818000000000003
 30
0.0
 10
-59.033100000000005
 20
2.7669000000000001
 30
0.0
 10
-59.033100000000005
 20
2.3976000000000002
 30
0.0
 10
-59.033100000000005
 20
2.3976000000000002
 30
0.0
 10
-59.033100000000005
 20
1.9700000000000002
 30
0.0
 10
-58.823800000000006
 20
1.5733000000000001
 30
0.0
 10
-58.405300000000004
 20
1.2075
 30
0.0
 10
-58.405300000000004
 20
1.2075
 30
0.0
 10
-57.988600000000005
 20
0.8417
 30
0.0
 10
-57.451800000000006
 20
0.658
 30
0.0
 10
-56.798500000000004
 20
0.658
 30
0.0
  0
SPLINE
  5
2B
100
AcDbEntity
  8
Ebene 1
100
AcDbSpline
210
0.0
220
0.0
230
1.0
 70
     1
 71
     3
 72
    36
 73
    32
 74
     0
 42
0.0000000001
 43
0.0000000001
 40
0.0
 40
0.0
 40
0.0
 40
0.0
 40
0.125
 40
0.125
 40
0.125
 40
0.125
 40
0.25
 40
0.25
 40
0.25
 40
0.25
 40
0.375
 40
0.375
 40
0.375
 40
0.375
 40
0.5
 40
0.5
 40
0.5
 40
0.5
 40
0.625
 40
0.625
 40
0.625
 40
0.625
 40
0.75
 40
0.75
 40
0.75
 40
0.75
 40
0.875
 40
0.875
 40
0.875
 40
0.875
 40
1.0
 40
1.0
 40
1.0
 40
1.0
 10
-54.602200000000003
 20
5.4618000000000002
 30
0.0
 10
-54.602200000000003
 20
5.4618000000000002
 30
0.0
 10
-55.695900000000002
 20
5.6911000000000005
 30
0.0
 10
-55.695900000000002
 20
5.6911000000000005
 30
0.0
 10
-55.695900000000002
 20
5.6911000000000005
 30
0.0
 10
-55.695900000000002
 20
5.6911000000000005
 30
0.0
 10
-55.695900000000002
 20
6.7901000000000007
 30
0.0
 10
-55.695900000000002
 20
6.7901000000000007
 30
0.0
 10
-55.695900000000002
 20
6.7901000000000007
 30
0.0
 10
-55.695900000000002
 20
6.7901000000000007
 30
0.0
 10
-54.740500000000004
 20
6.5918000000000001
 30
0.0
 10
-54.740500000000004
 20
6.5918000000000001
 30
0.0
 10
-54.740500000000004
 20
6.5918000000000001
 30
0.0
 10
-54.169200000000004
 20
6.4716000000000005
 30
0.0
 10
-53.748800000000003
 20
6.2843
 30
0.0
 10
-53.483200000000004
 20
6.0295000000000005
 30
0.0
 10
-53.483200000000004
 20
6.0295000000000005
 30
0.0
 10
-53.215700000000005
 20
5.7766000000000002
 30
0.0
 10
-53.062800000000003
 20
5.4763999999999999
 30
0.0
 10
-53.0246
 20
5.1324000000000005
 30
0.0
 10
-53.0246
 20
5.1324000000000005
 30
0.0
 10
-53.0246
 20
5.1324000000000005
 30
0.0
 10
-53.444900000000004
 20
5.2216000000000005
 30
0.0
 10
-53.444900000000004
 20
5.2216000000000005
 30
0.0
 10
-53.444900000000004
 20
5.2216000000000005
 30
0.0
 10
-53.563200000000002
 20
5.6456
 30
0.0
 10
-53.949000000000005
 20
5.9239000000000006
 30
0.0
 10
-54.602200000000003
 20
6.0586000000000002
 30
0.0
 10
-54.602200000000003
 20
6.0586000000000002
 30
0.0
 10
-54.602200000000003
 20
6.0586000000000002
 30
0.0
 10
-54.602200000000003
 20
5.4618000000000002
 30
0.0
 10
-54.602200000000003
 20
5.4618000000000002
 30
0.0
  0
SPLINE
  5
2C
100
AcDbEntity
  8
Ebene 1
100
AcDbSpline
210
0.0
220
0.0
230
1.0
 70
     1
 71
     3
 72
    96
 73
    92
 74
     0
 42
0.0000000001
 43
0.0000000001
 40
0.0
 40
0.0
 40
0.0
 40
0.0
 40
0.0434782608695652
 40
0.0434782608695652
 40
0.0434782608695652
 40
0.0434782608695652
 40
0.0869565217391304
 40
0.0869565217391304
 40
0.0869565217391304
 40
0.0869565217391304
 40
0.1304347826086957
 40
0.1304347826086957
 40
0.1304347826086957
 40
0.1304347826086957
 40
0.1739130434782609
 40
0.1739130434782609
 40
0.1739130434782609
 40
0.1739130434782609
 40
0.2173913043478261
 40
0.2173913043478261
 40
0.2173913043478261
 40
0.2173913043478261
 40
0.2608695652173913
 40
0.2608695652173913
 40
0.2608695652173913
 40
0.2608695652173913
 40
0.3043478260869565
 40
0.3043478260869565
 40
0.3043478260869565
 40
0.3043478260869565
 40
0.3478260869565217
 40
0.3478260869565217
 40
0.3478260869565217
 40
0.3478260869565217
 40
0.3913043478260869
 40
0.3913043478260869
 40
0.3913043478260869
 40
0.3913043478260869
 40
0.4347826086956521
 40
0.4347826086956521
 40
0.4347826086956521
 40
0.4347826086956521
 40
0.4782608695652173
 40
0.4782608695652173
 40
0.4782608695652173
 40
0.4782608695652173
 40
0.5217391304347825
 40
0.5217391304347825
 40
0.5217391304347825
 40
0.5217391304347825
 40
0.5652173913043477
 40
0.5652173913043477
 40
0.5652173913043477
 40
0.5652173913043477
 40
0.6086956521739129
 40
0.6086956521739129
 40
0.6086956521739129
 40
0.6086956521739129
 40
0.6521739130434781
 40
0.6521739130434781
 40
0.6521739130434781
 40
0.6521739130434781
 40
0.6956521739130432
 40
0.6956521739130432
 40
0.6956521739130432
 40
0.6956521739130432
 40
0.7391304347826084
 40
0.7391304347826084
 40
0.7391304347826084
 40
0.7391304347826084
 40
0.7826086956521736
 40
0.7826086956521736
 40
0.7826086956521736
 40
0.7826086956521736
 40
0.8260869565217388
 40
0.8260869565217388
 40
0.8260869565217388
 40
0.8260869565217388
 40
0.869565217391304
 40
0.869565217391304
 40
0.869565217391304
 40
0.869565217391304
 40
0.9130434782608692
 40
0.9130434782608692
 40
0.9130434782608692
 40
0.9130434782608692
 40
0.9565217391304344
 40
0.9565217391304344
 40
0.9565217391304344
 40
0.9565217391304344
 40
1.0
 40
1.0
 40
1.0
 40
1.0
 10
-54.602200000000003
 20
8.5442
 30
0.0
 10
-55.068100000000001
 20
8.6425000000000001
 30
0.0
 10
-55.457500000000003
 20
8.7807000000000013
 30
0.0
 10
-55.772200000000005
 20
8.9572000000000003
 30
0.0
 10
-55.772200000000005
 20
8.9572000000000003
 30
0.0
 10
-56.087000000000003
 20
9.1318999999999999
 30
0.0
 10
-56.3855
 20
9.3666999999999998
 30
0.0
 10
-56.667500000000004
 20
9.6577999999999999
 30
0.0
 10
-56.667500000000004
 20
9.6577999999999999
 30
0.0
 10
-56.951300000000003
 20
9.9489999999999998
 30
0.0
 10
-57.424500000000002
 20
10.511200000000001
 30
0.0
 10
-58.0886
 20
11.3428
 30
0.0
 10
-58.0886
 20
11.3428
 30
0.0
 10
-58.4908
 20
11.8468
 30
0.0
 10
-58.787400000000005
 20
12.190700000000001
 30
0.0
 10
-58.978400000000001
 20
12.376300000000001
 30
0.0
 10
-58.978400000000001
 20
12.376300000000001
 30
0.0
 10
-59.256800000000005
 20
12.642000000000001
 30
0.0
 10
-59.528000000000006
 20
12.8367
 30
0.0
 10
-59.795500000000004
 20
12.956800000000001
 30
0.0
 10
-59.795500000000004
 20
12.956800000000001
 30
0.0
 10
-59.9756
 20
13.038600000000001
 30
0.0
 10
-60.173999999999999
 20
13.080500000000001
 30
0.0
 10
-60.386800000000001
 20
13.080500000000001
 30
0.0
 10
-60.386800000000001
 20
13.080500000000001
 30
0.0
 10
-60.7453
 20
13.080500000000001
 30
0.0
 10
-61.049200000000006
 20
12.953200000000001
 30
0.0
 10
-61.3003
 20
12.698400000000001
 30
0.0
 10
-61.3003
 20
12.698400000000001
 30
0.0
 10
-61.551400000000001
 20
12.445500000000001
 30
0.0
 10
-61.676900000000003
 20
12.1325
 30
0.0
 10
-61.676900000000003
 20
11.763100000000001
 30
0.0
 10
-61.676900000000003
 20
11.763100000000001
 30
0.0
 10
-61.676900000000003
 20
11.397400000000001
 30
0.0
 10
-61.549600000000005
 20
11.0771
 30
0.0
 10
-61.294800000000002
 20
10.8041
 30
0.0
 10
-61.294800000000002
 20
10.8041
 30
0.0
 10
-61.041900000000005
 20
10.529400000000001
 30
0.0
 10
-60.6325
 20
10.3347
 30
0.0
 10
-60.072100000000006
 20
10.2164
 30
0.0
 10
-60.072100000000006
 20
10.2164
 30
0.0
 10
-60.072100000000006
 20
10.2164
 30
0.0
 10
-60.210300000000004
 20
9.2737999999999996
 30
0.0
 10
-60.210300000000004
 20
9.2737999999999996
 30
0.0
 10
-60.210300000000004
 20
9.2737999999999996
 30
0.0
 10
-60.903600000000004
 20
9.3666999999999998
 30
0.0
 10
-61.4495
 20
9.636000000000001
 30
0.0
 10
-61.849800000000002
 20
10.081800000000001
 30
0.0
 10
-61.849800000000002
 20
10.081800000000001
 30
0.0
 10
-62.250100000000003
 20
10.5276
 30
0.0
 10
-62.450300000000006
 20
11.082600000000001
 30
0.0
 10
-62.450300000000006
 20
11.746700000000001
 30
0.0
 10
-62.450300000000006
 20
11.746700000000001
 30
0.0
 10
-62.450300000000006
 20
12.190700000000001
 30
0.0
 10
-62.357500000000002
 20
12.594700000000001
 30
0.0
 10
-62.171900000000001
 20
12.9549
 30
0.0
 10
-62.171900000000001
 20
12.9549
 30
0.0
 10
-61.988100000000003
 20
13.315200000000001
 30
0.0
 10
-61.727900000000005
 20
13.586300000000001
 30
0.0
 10
-61.393100000000004
 20
13.7683
 30
0.0
 10
-61.393100000000004
 20
13.7683
 30
0.0
 10
-61.060100000000006
 20
13.948400000000001
 30
0.0
 10
-60.714400000000005
 20
14.039400000000001
 30
0.0
 10
-60.3596
 20
14.039400000000001
 30
0.0
 10
-60.3596
 20
14.039400000000001
 30
0.0
 10
-59.841000000000001
 20
14.039400000000001
 30
0.0
 10
-59.340500000000006
 20
13.855700000000001
 30
0.0
 10
-58.862000000000002
 20
13.484500000000001
 30
0.0
 10
-58.862000000000002
 20
13.484500000000001
 30
0.0
 10
-58.563600000000001
 20
13.257000000000001
 30
0.0
 10
-57.9758
 20
12.5892
 30
0.0
 10
-57.097000000000001
 20
11.481
 30
0.0
 10
-57.097000000000001
 20
11.481
 30
0.0
 10
-56.720300000000002
 20
11.0044
 30
0.0
 10
-56.410900000000005
 20
10.6495
 30
0.0
 10
-56.168900000000001
 20
10.416600000000001
 30
0.0
 10
-56.168900000000001
 20
10.416600000000001
 30
0.0
 10
-55.928699999999999
 20
10.1837
 30
0.0
 10
-55.701300000000003
 20
10.009
 30
0.0
 10
-55.486600000000003
 20
9.8925999999999998
 30
0.0
 10
-55.486600000000003
 20
9.8925999999999998
 30
0.0
 10
-55.486600000000003
 20
9.8925999999999998
 30
0.0
 10
-55.486600000000003
 20
13.389800000000001
 30
0.0
 10
-55.486600000000003
 20
13.389800000000001
 30
0.0
 10
-55.486600000000003
 20
13.389800000000001
 30
0.0
 10
-55.486600000000003
 20
13.389800000000001
 30
0.0
 10
-54.602200000000003
 20
13.202400000000001
 30
0.0
 10
-54.602200000000003
 20
13.202400000000001
 30
0.0
 10
-54.602200000000003
 20
13.202400000000001
 30
0.0
 10
-54.602200000000003
 20
13.202400000000001
 30
0.0
 10
-54.602200000000003
 20
8.5442
 30
0.0
 10
-54.602200000000003
 20
8.5442
 30
0.0
  0
SPLINE
  5
2D
100
AcDbEntity
  8
Ebene 1
100
AcDbSpline
210
0.0
220
0.0
230
1.0
 70
     1
 71
     3
 72
    76
 73
    72
 74
     0
 42
0.0000000001
 43
0.0000000001
 40
0.0
 40
0.0
 40
0.0
 40
0.0
 40
0.0555555555555556
 40
0.0555555555555556
 40
0.0555555555555556
 40
0.0555555555555556
 40
0.1111111111111111
 40
0.1111111111111111
 40
0.1111111111111111
 40
0.1111111111111111
 40
0.1666666666666667
 40
0.1666666666666667
 40
0.1666666666666667
 40
0.1666666666666667
 40
0.2222222222222222
 40
0.2222222222222222
 40
0.2222222222222222
 40
0.2222222222222222
 40
0.2777777777777778
 40
0.2777777777777778
 40
0.2777777777777778
 40
0.2777777777777778
 40
0.3333333333333334
 40
0.3333333333333334
 40
0.3333333333333334
 40
0.3333333333333334
 40
0.388888888888889
 40
0.388888888888889
 40
0.388888888888889
 40
0.388888888888889
 40
0.4444444444444445
 40
0.4444444444444445
 40
0.4444444444444445
 40
0.4444444444444445
 40
0.5000000000000001
 40
0.5000000000000001
 40
0.5000000000000001
 40
0.5000000000000001
 40
0.5555555555555557
 40
0.5555555555555557
 40
0.5555555555555557
 40
0.5555555555555557
 40
0.6111111111111113
 40
0.6111111111111113
 40
0.6111111111111113
 40
0.6111111111111113
 40
0.6666666666666669
 40
0.6666666666666669
 40
0.6666666666666669
 40
0.6666666666666669
 40
0.7222222222222224
 40
0.7222222222222224
 40
0.7222222222222224
 40
0.7222222222222224
 40
0.777777777777778
 40
0.777777777777778
 40
0.777777777777778
 40
0.777777777777778
 40
0.8333333333333336
 40
0.8333333333333336
 40
0.8333333333333336
 40
0.8333333333333336
 40
0.8888888888888892
 40
0.8888888888888892
 40
0.8888888888888892
 40
0.8888888888888892
 40
0.9444444444444448
 40
0.9444444444444448
 40
0.9444444444444448
 40
0.9444444444444448
 40
1.0
 40
1.0
 40
1.0
 40
1.0
 10
-31.777700000000003
 20
-4.9830000000000005
 30
0.0
 10
-32.325400000000002
 20
-4.3334000000000001
 30
0.0
 10
-32.598399999999998
 20
-3.5073000000000003
 30
0.0
 10
-32.598399999999998
 20
-2.5047000000000001
 30
0.0
 10
-32.598399999999998
 20
-2.5047000000000001
 30
0.0
 10
-32.598399999999998
 20
-1.8259000000000001
 30
0.0
 10
-32.469200000000001
 20
-1.1763000000000001
 30
0.0
 10
-32.209000000000003
 20
-0.5595
 30
0.0
 10
-32.209000000000003
 20
-0.5595
 30
0.0
 10
-31.996000000000002
 20
-0.0463
 30
0.0
 10
-31.715800000000002
 20
0.394
 30
0.0
 10
-31.370100000000001
 20
0.7652
 30
0.0
 10
-31.370100000000001
 20
0.7652
 30
0.0
 10
-31.022600000000001
 20
1.1364000000000001
 30
0.0
 10
-30.645900000000001
 20
1.4240000000000002
 30
0.0
 10
-30.236500000000003
 20
1.6277000000000001
 30
0.0
 10
-30.236500000000003
 20
1.6277000000000001
 30
0.0
 10
-29.692400000000003
 20
1.897
 30
0.0
 10
-29.1083
 20
2.0317000000000003
 30
0.0
 10
-28.482400000000002
 20
2.0317000000000003
 30
0.0
 10
-28.482400000000002
 20
2.0317000000000003
 30
0.0
 10
-27.6799
 20
2.0317000000000003
 30
0.0
 10
-27.001200000000001
 20
1.8243
 30
0.0
 10
-26.446200000000001
 20
1.4075
 30
0.0
 10
-26.446200000000001
 20
1.4075
 30
0.0
 10
-26.446200000000001
 20
1.4075
 30
0.0
 10
-25.5946
 20
2.4319999999999999
 30
0.0
 10
-25.5946
 20
2.4319999999999999
 30
0.0
 10
-25.5946
 20
2.4319999999999999
 30
0.0
 10
-25.5946
 20
2.4319999999999999
 30
0.0
 10
-25.119700000000002
 20
2.0099
 30
0.0
 10
-25.119700000000002
 20
2.0099
 30
0.0
 10
-25.119700000000002
 20
2.0099
 30
0.0
 10
-25.119700000000002
 20
2.0099
 30
0.0
 10
-25.982200000000002
 20
0.9709000000000001
 30
0.0
 10
-25.982200000000002
 20
0.9709000000000001
 30
0.0
 10
-25.982200000000002
 20
0.9709000000000001
 30
0.0
 10
-25.436300000000003
 20
0.3449
 30
0.0
 10
-25.1616
 20
-0.4776
 30
0.0
 10
-25.1616
 20
-1.4966000000000002
 30
0.0
 10
-25.1616
 20
-1.4966000000000002
 30
0.0
 10
-25.1616
 20
-2.2336
 30
0.0
 10
-25.3126
 20
-2.9232
 30
0.0
 10
-25.614600000000003
 20
-3.5710000000000002
 30
0.0
 10
-25.614600000000003
 20
-3.5710000000000002
 30
0.0
 10
-25.845700000000001
 20
-4.0640999999999998
 30
0.0
 10
-26.1387
 20
-4.4880000000000004
 30
0.0
 10
-26.4953
 20
-4.8429000000000002
 30
0.0
 10
-26.4953
 20
-4.8429000000000002
 30
0.0
 10
-26.850200000000001
 20
-5.1959
 30
0.0
 10
-27.2287
 20
-5.4706000000000001
 30
0.0
 10
-27.630700000000001
 20
-5.6653000000000002
 30
0.0
 10
-27.630700000000001
 20
-5.6653000000000002
 30
0.0
 10
-28.163900000000002
 20
-5.9218999999999999
 30
0.0
 10
-28.728000000000002
 20
-6.0493000000000006
 30
0.0
 10
-29.3248
 20
-6.0493000000000006
 30
0.0
 10
-29.3248
 20
-6.0493000000000006
 30
0.0
 10
-30.078200000000002
 20
-6.0493000000000006
 30
0.0
 10
-30.738700000000001
 20
-5.8418999999999999
 30
0.0
 10
-31.302800000000001
 20
-5.4251000000000005
 30
0.0
 10
-31.302800000000001
 20
-5.4251000000000005
 30
0.0
 10
-31.302800000000001
 20
-5.4251000000000005
 30
0.0
 10
-32.1616
 20
-6.4660000000000002
 30
0.0
 10
-32.1616
 20
-6.4660000000000002
 30
0.0
 10
-32.1616
 20
-6.4660000000000002
 30
0.0
 10
-32.1616
 20
-6.4660000000000002
 30
0.0
 10
-32.667500000000004
 20
-6.0438000000000001
 30
0.0
 10
-32.667500000000004
 20
-6.0438000000000001
 30
0.0
 10
-32.667500000000004
 20
-6.0438000000000001
 30
0.0
 10
-32.667500000000004
 20
-6.0438000000000001
 30
0.0
 10
-31.777700000000003
 20
-4.9830000000000005
 30
0.0
 10
-31.777700000000003
 20
-4.9830000000000005
 30
0.0
  0
SPLINE
  5
2E
100
AcDbEntity
  8
Ebene 1
100
AcDbSpline
210
0.0
220
0.0
230
1.0
 70
     1
 71
     3
 72
    28
 73
    24
 74
     0
 42
0.0000000001
 43
0.0000000001
 40
0.0
 40
0.0
 40
0.0
 40
0.0
 40
0.1666666666666667
 40
0.1666666666666667
 40
0.1666666666666667
 40
0.1666666666666667
 40
0.3333333333333333
 40
0.3333333333333333
 40
0.3333333333333333
 40
0.3333333333333333
 40
0.5
 40
0.5
 40
0.5
 40
0.5
 40
0.6666666666666666
 40
0.6666666666666666
 40
0.6666666666666666
 40
0.6666666666666666
 40
0.8333333333333333
 40
0.8333333333333333
 40
0.8333333333333333
 40
0.8333333333333333
 40
1.0
 40
1.0
 40
1.0
 40
1.0
 10
-31.131700000000002
 20
-4.2096999999999998
 30
0.0
 10
-31.131700000000002
 20
-4.2096999999999998
 30
0.0
 10
-27.070400000000003
 20
0.6615
 30
0.0
 10
-27.070400000000003
 20
0.6615
 30
0.0
 10
-27.070400000000003
 20
0.6615
 30
0.0
 10
-27.476100000000002
 20
0.9963000000000001
 30
0.0
 10
-27.938300000000002
 20
1.1637
 30
0.0
 10
-28.456900000000001
 20
1.1637
 30
0.0
 10
-28.456900000000001
 20
1.1637
 30
0.0
 10
-28.979200000000002
 20
1.1637
 30
0.0
 10
-29.4831
 20
1.0090000000000001
 30
0.0
 10
-29.970800000000001
 20
0.6997
 30
0.0
 10
-29.970800000000001
 20
0.6997
 30
0.0
 10
-30.456700000000001
 20
0.3904
 30
0.0
 10
-30.8461
 20
-0.0609
 30
0.0
 10
-31.1372
 20
-0.654
 30
0.0
 10
-31.1372
 20
-0.654
 30
0.0
 10
-31.430200000000003
 20
-1.2491000000000001
 30
0.0
 10
-31.575700000000001
 20
-1.8860000000000001
 30
0.0
 10
-31.575700000000001
 20
-2.5683000000000002
 30
0.0
 10
-31.575700000000001
 20
-2.5683000000000002
 30
0.0
 10
-31.575700000000001
 20
-3.2252000000000001
 30
0.0
 10
-31.4283
 20
-3.7729000000000004
 30
0.0
 10
-31.131700000000002
 20
-4.2096999999999998
 30
0.0
  0
SPLINE
  5
2F
100
AcDbEntity
  8
Ebene 1
100
AcDbSpline
210
0.0
220
0.0
230
1.0
 70
     1
 71
     3
 72
    32
 73
    28
 74
     0
 42
0.0000000001
 43
0.0000000001
 40
0.0
 40
0.0
 40
0.0
 40
0.0
 40
0.1428571428571429
 40
0.1428571428571429
 40
0.1428571428571429
 40
0.1428571428571429
 40
0.2857142857142857
 40
0.2857142857142857
 40
0.2857142857142857
 40
0.2857142857142857
 40
0.4285714285714286
 40
0.4285714285714286
 40
0.4285714285714286
 40
0.4285714285714286
 40
0.5714285714285714
 40
0.5714285714285714
 40
0.5714285714285714
 40
0.5714285714285714
 40
0.7142857142857142
 40
0.7142857142857142
 40
0.7142857142857142
 40
0.7142857142857142
 40
0.857142857142857
 40
0.857142857142857
 40
0.857142857142857
 40
0.857142857142857
 40
1.0
 40
1.0
 40
1.0
 40
1.0
 10
-26.633600000000001
 20
0.1884
 30
0.0
 10
-26.633600000000001
 20
0.1884
 30
0.0
 10
-30.684100000000001
 20
-4.6846000000000005
 30
0.0
 10
-30.684100000000001
 20
-4.6846000000000005
 30
0.0
 10
-30.684100000000001
 20
-4.6846000000000005
 30
0.0
 10
-30.2547
 20
-5.0193000000000003
 30
0.0
 10
-29.7743
 20
-5.1867999999999999
 30
0.0
 10
-29.244800000000001
 20
-5.1867999999999999
 30
0.0
 10
-29.244800000000001
 20
-5.1867999999999999
 30
0.0
 10
-28.8445
 20
-5.1867999999999999
 30
0.0
 10
-28.462300000000003
 20
-5.0903999999999998
 30
0.0
 10
-28.098400000000002
 20
-4.9011000000000005
 30
0.0
 10
-28.098400000000002
 20
-4.9011000000000005
 30
0.0
 10
-27.7363
 20
-4.71
 30
0.0
 10
-27.412400000000002
 20
-4.4462000000000002
 30
0.0
 10
-27.126800000000003
 20
-4.1059000000000001
 30
0.0
 10
-27.126800000000003
 20
-4.1059000000000001
 30
0.0
 10
-26.841000000000001
 20
-3.7675000000000001
 30
0.0
 10
-26.615400000000001
 20
-3.3489
 30
0.0
 10
-26.4498
 20
-2.8540000000000001
 30
0.0
 10
-26.4498
 20
-2.8540000000000001
 30
0.0
 10
-26.284300000000002
 20
-2.3573
 30
0.0
 10
-26.202300000000001
 20
-1.8696000000000002
 30
0.0
 10
-26.202300000000001
 20
-1.391
 30
0.0
 10
-26.202300000000001
 20
-1.391
 30
0.0
 10
-26.202300000000001
 20
-0.7905000000000001
 30
0.0
 10
-26.3461
 20
-0.2647
 30
0.0
 10
-26.633600000000001
 20
0.1884
 30
0.0
  0
SPLINE
  5
30
100
AcDbEntity
  8
Ebene 1
100
AcDbSpline
210
0.0
220
0.0
230
1.0
 70
     1
 71
     3
 72
    76
 73
    72
 74
     0
 42
0.0000000001
 43
0.0000000001
 40
0.0
 40
0.0
 40
0.0
 40
0.0
 40
0.0555555555555556
 40
0.0555555555555556
 40
0.0555555555555556
 40
0.0555555555555556
 40
0.1111111111111111
 40
0.1111111111111111
 40
0.1111111111111111
 40
0.1111111111111111
 40
0.1666666666666667
 40
0.1666666666666667
 40
0.1666666666666667
 40
0.1666666666666667
 40
0.2222222222222222
 40
0.2222222222222222
 40
0.2222222222222222
 40
0.2222222222222222
 40
0.2777777777777778
 40
0.2777777777777778
 40
0.2777777777777778
 40
0.2777777777777778
 40
0.3333333333333334
 40
0.3333333333333334
 40
0.3333333333333334
 40
0.3333333333333334
 40
0.388888888888889
 40
0.388888888888889
 40
0.388888888888889
 40
0.388888888888889
 40
0.4444444444444445
 40
0.4444444444444445
 40
0.4444444444444445
 40
0.4444444444444445
 40
0.5000000000000001
 40
0.5000000000000001
 40
0.5000000000000001
 40
0.5000000000000001
 40
0.5555555555555557
 40
0.5555555555555557
 40
0.5555555555555557
 40
0.5555555555555557
 40
0.6111111111111113
 40
0.6111111111111113
 40
0.6111111111111113
 40
0.6111111111111113
 40
0.6666666666666669
 40
0.6666666666666669
 40
0.6666666666666669
 40
0.6666666666666669
 40
0.7222222222222224
 40
0.7222222222222224
 40
0.7222222222222224
 40
0.7222222222222224
 40
0.777777777777778
 40
0.777777777777778
 40
0.777777777777778
 40
0.777777777777778
 40
0.8333333333333336
 40
0.8333333333333336
 40
0.8333333333333336
 40
0.8333333333333336
 40
0.8888888888888892
 40
0.8888888888888892
 40
0.8888888888888892
 40
0.8888888888888892
 40
0.9444444444444448
 40
0.9444444444444448
 40
0.9444444444444448
 40
0.9444444444444448
 40
1.0
 40
1.0
 40
1.0
 40
1.0
 10
-24.368200000000002
 20
-4.1259000000000006
 30
0.0
 10
-24.368200000000002
 20
-4.1259000000000006
 30
0.0
 10
-23.462
 20
-4.0350000000000001
 30
0.0
 10
-23.462
 20
-4.0350000000000001
 30
0.0
 10
-23.462
 20
-4.0350000000000001
 30
0.0
 10
-23.400200000000002
 20
-4.4716000000000005
 30
0.0
 10
-23.276400000000002
 20
-4.7827999999999999
 30
0.0
 10
-23.089000000000002
 20
-4.9683999999999999
 30
0.0
 10
-23.089000000000002
 20
-4.9683999999999999
 30
0.0
 10
-22.899700000000003
 20
-5.1522000000000006
 30
0.0
 10
-22.675900000000002
 20
-5.2450000000000001
 30
0.0
 10
-22.415700000000001
 20
-5.2450000000000001
 30
0.0
 10
-22.415700000000001
 20
-5.2450000000000001
 30
0.0
 10
-22.046300000000002
 20
-5.2450000000000001
 30
0.0
 10
-21.7042
 20
-5.0849000000000002
 30
0.0
 10
-21.387600000000003
 20
-4.7646000000000006
 30
0.0
 10
-21.387600000000003
 20
-4.7646000000000006
 30
0.0
 10
-20.921800000000001
 20
-4.2952000000000004
 30
0.0
 10
-20.579700000000003
 20
-3.6219000000000001
 30
0.0
 10
-20.359500000000001
 20
-2.7448000000000001
 30
0.0
 10
-20.359500000000001
 20
-2.7448000000000001
 30
0.0
 10
-20.6816
 20
-2.9868000000000001
 30
0.0
 10
-20.969100000000001
 20
-3.1579000000000002
 30
0.0
 10
-21.220300000000002
 20
-3.2616000000000001
 30
0.0
 10
-21.220300000000002
 20
-3.2616000000000001
 30
0.0
 10
-21.4695
 20
-3.3653
 30
0.0
 10
-21.727900000000002
 20
-3.4163000000000001
 30
0.0
 10
-21.989900000000002
 20
-3.4163000000000001
 30
0.0
 10
-21.989900000000002
 20
-3.4163000000000001
 30
0.0
 10
-22.466699999999999
 20
-3.4163000000000001
 30
0.0
 10
-22.892500000000002
 20
-3.2562000000000002
 30
0.0
 10
-23.269100000000002
 20
-2.9359000000000002
 30
0.0
 10
-23.269100000000002
 20
-2.9359000000000002
 30
0.0
 10
-23.767700000000001
 20
-2.5209999999999999
 30
0.0
 10
-24.0152
 20
-1.9242000000000001
 30
0.0
 10
-24.0152
 20
-1.1453
 30
0.0
 10
-24.0152
 20
-1.1453
 30
0.0
 10
-24.0152
 20
-0.2647
 30
0.0
 10
-23.727700000000002
 20
0.4905000000000001
 30
0.0
 10
-23.1526
 20
1.1200000000000001
 30
0.0
 10
-23.1526
 20
1.1200000000000001
 30
0.0
 10
-22.657700000000002
 20
1.6605000000000001
 30
0.0
 10
-22.0518
 20
1.9316
 30
0.0
 10
-21.334800000000001
 20
1.9316
 30
0.0
 10
-21.334800000000001
 20
1.9316
 30
0.0
 10
-20.687100000000001
 20
1.9316
 30
0.0
 10
-20.150300000000001
 20
1.6914
 30
0.0
 10
-19.724500000000003
 20
1.2128000000000001
 30
0.0
 10
-19.724500000000003
 20
1.2128000000000001
 30
0.0
 10
-19.2987
 20
0.7361000000000001
 30
0.0
 10
-19.084
 20
0.0592
 30
0.0
 10
-19.084
 20
-0.8142
 30
0.0
 10
-19.084
 20
-0.8142
 30
0.0
 10
-19.084
 20
-1.6640000000000001
 30
0.0
 10
-19.225899999999999
 20
-2.5028000000000001
 30
0.0
 10
-19.511600000000001
 20
-3.3307000000000002
 30
0.0
 10
-19.511600000000001
 20
-3.3307000000000002
 30
0.0
 10
-19.848300000000002
 20
-4.3043000000000005
 30
0.0
 10
-20.305
 20
-5.0230000000000006
 30
0.0
 10
-20.881800000000002
 20
-5.4851999999999999
 30
0.0
 10
-20.881800000000002
 20
-5.4851999999999999
 30
0.0
 10
-21.349399999999999
 20
-5.8618000000000006
 30
0.0
 10
-21.878900000000002
 20
-6.0493000000000006
 30
0.0
 10
-22.4648
 20
-6.0493000000000006
 30
0.0
 10
-22.4648
 20
-6.0493000000000006
 30
0.0
 10
-23.005300000000002
 20
-6.0493000000000006
 30
0.0
 10
-23.445600000000002
 20
-5.8818999999999999
 30
0.0
 10
-23.7896
 20
-5.5452000000000004
 30
0.0
 10
-23.7896
 20
-5.5452000000000004
 30
0.0
 10
-24.131600000000002
 20
-5.2103999999999999
 30
0.0
 10
-24.3245
 20
-4.7373000000000003
 30
0.0
 10
-24.368200000000002
 20
-4.1259000000000006
 30
0.0
  0
SPLINE
  5
31
100
AcDbEntity
  8
Ebene 1
100
AcDbSpline
210
0.0
220
0.0
230
1.0
 70
     1
 71
     3
 72
    52
 73
    48
 74
     0
 42
0.0000000001
 43
0.0000000001
 40
0.0
 40
0.0
 40
0.0
 40
0.0
 40
0.0833333333333333
 40
0.0833333333333333
 40
0.0833333333333333
 40
0.0833333333333333
 40
0.1666666666666667
 40
0.1666666666666667
 40
0.1666666666666667
 40
0.1666666666666667
 40
0.25
 40
0.25
 40
0.25
 40
0.25
 40
0.3333333333333333
 40
0.3333333333333333
 40
0.3333333333333333
 40
0.3333333333333333
 40
0.4166666666666666
 40
0.4166666666666666
 40
0.4166666666666666
 40
0.4166666666666666
 40
0.4999999999999999
 40
0.4999999999999999
 40
0.4999999999999999
 40
0.4999999999999999
 40
0.5833333333333333
 40
0.5833333333333333
 40
0.5833333333333333
 40
0.5833333333333333
 40
0.6666666666666666
 40
0.6666666666666666
 40
0.6666666666666666
 40
0.6666666666666666
 40
0.75
 40
0.75
 40
0.75
 40
0.75
 40
0.8333333333333334
 40
0.8333333333333334
 40
0.8333333333333334
 40
0.8333333333333334
 40
0.9166666666666667
 40
0.9166666666666667
 40
0.9166666666666667
 40
0.9166666666666667
 40
1.0
 40
1.0
 40
1.0
 40
1.0
 10
-23.083500000000001
 20
-1.0325
 30
0.0
 10
-23.083500000000001
 20
-1.5238
 30
0.0
 10
-22.952500000000001
 20
-1.9151
 30
0.0
 10
-22.6904
 20
-2.2061999999999999
 30
0.0
 10
-22.6904
 20
-2.2061999999999999
 30
0.0
 10
-22.430200000000003
 20
-2.4974000000000003
 30
0.0
 10
-22.1191
 20
-2.6429
 30
0.0
 10
-21.7607
 20
-2.6429
 30
0.0
 10
-21.7607
 20
-2.6429
 30
0.0
 10
-21.495000000000001
 20
-2.6429
 30
0.0
 10
-21.229300000000002
 20
-2.5519000000000003
 30
0.0
 10
-20.967300000000002
 20
-2.3717999999999999
 30
0.0
 10
-20.967300000000002
 20
-2.3717999999999999
 30
0.0
 10
-20.703400000000002
 20
-2.1898
 30
0.0
 10
-20.477800000000002
 20
-1.9187000000000001
 30
0.0
 10
-20.288600000000002
 20
-1.5584
 30
0.0
 10
-20.288600000000002
 20
-1.5584
 30
0.0
 10
-20.101200000000002
 20
-1.1982000000000002
 30
0.0
 10
-20.006600000000002
 20
-0.8270000000000001
 30
0.0
 10
-20.006600000000002
 20
-0.4466
 30
0.0
 10
-20.006600000000002
 20
-0.4466
 30
0.0
 10
-20.006600000000002
 20
-0.1482
 30
0.0
 10
-20.0684
 20
0.1283
 30
0.0
 10
-20.193899999999999
 20
0.385
 30
0.0
 10
-20.193899999999999
 20
0.385
 30
0.0
 10
-20.317700000000002
 20
0.6415000000000001
 30
0.0
 10
-20.486900000000002
 20
0.8325
 30
0.0
 10
-20.703400000000002
 20
0.9635
 30
0.0
 10
-20.703400000000002
 20
0.9635
 30
0.0
 10
-20.918100000000003
 20
1.0927
 30
0.0
 10
-21.134700000000002
 20
1.1583000000000001
 30
0.0
 10
-21.354900000000001
 20
1.1583000000000001
 30
0.0
 10
-21.354900000000001
 20
1.1583000000000001
 30
0.0
 10
-21.569600000000001
 20
1.1583000000000001
 30
0.0
 10
-21.7789
 20
1.1000000000000001
 30
0.0
 10
-21.984400000000001
 20
0.9872000000000001
 30
0.0
 10
-21.984400000000001
 20
0.9872000000000001
 30
0.0
 10
-22.190100000000001
 20
0.8726
 30
0.0
 10
-22.3811
 20
0.7070000000000001
 30
0.0
 10
-22.557700000000001
 20
0.4868
 30
0.0
 10
-22.557700000000001
 20
0.4868
 30
0.0
 10
-22.734200000000001
 20
0.2648
 30
0.0
 10
-22.865100000000002
 20
0.0119
 30
0.0
 10
-22.952500000000001
 20
-0.2738
 30
0.0
 10
-22.952500000000001
 20
-0.2738
 30
0.0
 10
-23.0398
 20
-0.5595
 30
0.0
 10
-23.083500000000001
 20
-0.8124
 30
0.0
 10
-23.083500000000001
 20
-1.0325
 30
0.0
  0
SPLINE
  5
32
100
AcDbEntity
  8
Ebene 1
100
AcDbSpline
210
0.0
220
0.0
230
1.0
 70
     1
 71
     3
 72
    40
 73
    36
 74
     0
 42
0.0000000001
 43
0.0000000001
 40
0.0
 40
0.0
 40
0.0
 40
0.0
 40
0.1111111111111111
 40
0.1111111111111111
 40
0.1111111111111111
 40
0.1111111111111111
 40
0.2222222222222222
 40
0.2222222222222222
 40
0.2222222222222222
 40
0.2222222222222222
 40
0.3333333333333333
 40
0.3333333333333333
 40
0.3333333333333333
 40
0.3333333333333333
 40
0.4444444444444444
 40
0.4444444444444444
 40
0.4444444444444444
 40
0.4444444444444444
 40
0.5555555555555556
 40
0.5555555555555556
 40
0.5555555555555556
 40
0.5555555555555556
 40
0.6666666666666667
 40
0.6666666666666667
 40
0.6666666666666667
 40
0.6666666666666667
 40
0.7777777777777779
 40
0.7777777777777779
 40
0.7777777777777779
 40
0.7777777777777779
 40
0.8888888888888891
 40
0.8888888888888891
 40
0.8888888888888891
 40
0.8888888888888891
 40
1.0
 40
1.0
 40
1.0
 40
1.0
 10
-16.403700000000001
 20
-5.9164000000000003
 30
0.0
 10
-16.403700000000001
 20
-5.9164000000000003
 30
0.0
 10
-15.166400000000001
 20
-0.0154
 30
0.0
 10
-15.166400000000001
 20
-0.0154
 30
0.0
 10
-15.166400000000001
 20
-0.0154
 30
0.0
 10
-15.6995
 20
-0.4339
 30
0.0
 10
-16.449200000000001
 20
-0.7706000000000001
 30
0.0
 10
-17.415400000000002
 20
-1.0235000000000001
 30
0.0
 10
-17.415400000000002
 20
-1.0235000000000001
 30
0.0
 10
-17.415400000000002
 20
-1.0235000000000001
 30
0.0
 10
-17.235200000000003
 20
-0.1482
 30
0.0
 10
-17.235200000000003
 20
-0.1482
 30
0.0
 10
-17.235200000000003
 20
-0.1482
 30
0.0
 10
-16.754799999999999
 20
0.0428
 30
0.0
 10
-16.2818
 20
0.294
 30
0.0
 10
-15.814100000000002
 20
0.6033000000000001
 30
0.0
 10
-15.814100000000002
 20
0.6033000000000001
 30
0.0
 10
-15.346500000000001
 20
0.9126000000000001
 30
0.0
 10
-14.9953
 20
1.1819
 30
0.0
 10
-14.7606
 20
1.413
 30
0.0
 10
-14.7606
 20
1.413
 30
0.0
 10
-14.6187
 20
1.5549000000000002
 30
0.0
 10
-14.484
 20
1.7278
 30
0.0
 10
-14.3566
 20
1.9316
 30
0.0
 10
-14.3566
 20
1.9316
 30
0.0
 10
-14.3566
 20
1.9316
 30
0.0
 10
-13.796100000000001
 20
1.9316
 30
0.0
 10
-13.796100000000001
 20
1.9316
 30
0.0
 10
-13.796100000000001
 20
1.9316
 30
0.0
 10
-13.796100000000001
 20
1.9316
 30
0.0
 10
-15.432
 20
-5.9164000000000003
 30
0.0
 10
-15.432
 20
-5.9164000000000003
 30
0.0
 10
-15.432
 20
-5.9164000000000003
 30
0.0
 10
-15.432
 20
-5.9164000000000003
 30
0.0
 10
-16.403700000000001
 20
-5.9164000000000003
 30
0.0
 10
-16.403700000000001
 20
-5.9164000000000003
 30
0.0
  0
SPLINE
  5
33
100
AcDbEntity
  8
Ebene 1
100
AcDbSpline
210
0.0
220
0.0
230
1.0
 70
     1
 71
     3
 72
    36
 73
    32
 74
     0
 42
0.0000000001
 43
0.0000000001
 40
0.0
 40
0.0
 40
0.0
 40
0.0
 40
0.125
 40
0.125
 40
0.125
 40
0.125
 40
0.25
 40
0.25
 40
0.25
 40
0.25
 40
0.375
 40
0.375
 40
0.375
 40
0.375
 40
0.5
 40
0.5
 40
0.5
 40
0.5
 40
0.625
 40
0.625
 40
0.625
 40
0.625
 40
0.75
 40
0.75
 40
0.75
 40
0.75
 40
0.875
 40
0.875
 40
0.875
 40
0.875
 40
1.0
 40
1.0
 40
1.0
 40
1.0
 10
-12.367700000000001
 20
-5.9164000000000003
 30
0.0
 10
-12.367700000000001
 20
-5.9164000000000003
 30
0.0
 10
-12.138500000000001
 20
-4.8228
 30
0.0
 10
-12.138500000000001
 20
-4.8228
 30
0.0
 10
-12.138500000000001
 20
-4.8228
 30
0.0
 10
-12.138500000000001
 20
-4.8228
 30
0.0
 10
-11.039400000000001
 20
-4.8228
 30
0.0
 10
-11.039400000000001
 20
-4.8228
 30
0.0
 10
-11.039400000000001
 20
-4.8228
 30
0.0
 10
-11.039400000000001
 20
-4.8228
 30
0.0
 10
-11.2377
 20
-5.7782
 30
0.0
 10
-11.2377
 20
-5.7782
 30
0.0
 10
-11.2377
 20
-5.7782
 30
0.0
 10
-11.357900000000001
 20
-6.3494999999999999
 30
0.0
 10
-11.545300000000001
 20
-6.7698
 30
0.0
 10
-11.8001
 20
-7.0355000000000008
 30
0.0
 10
-11.8001
 20
-7.0355000000000008
 30
0.0
 10
-12.053000000000001
 20
-7.3029999999999999
 30
0.0
 10
-12.353200000000001
 20
-7.4559000000000006
 30
0.0
 10
-12.697100000000001
 20
-7.4941000000000004
 30
0.0
 10
-12.697100000000001
 20
-7.4941000000000004
 30
0.0
 10
-12.697100000000001
 20
-7.4941000000000004
 30
0.0
 10
-12.608000000000001
 20
-7.0737000000000005
 30
0.0
 10
-12.608000000000001
 20
-7.0737000000000005
 30
0.0
 10
-12.608000000000001
 20
-7.0737000000000005
 30
0.0
 10
-12.184000000000001
 20
-6.9554
 30
0.0
 10
-11.9056
 20
-6.5697000000000001
 30
0.0
 10
-11.770900000000001
 20
-5.9164000000000003
 30
0.0
 10
-11.770900000000001
 20
-5.9164000000000003
 30
0.0
 10
-11.770900000000001
 20
-5.9164000000000003
 30
0.0
 10
-12.367700000000001
 20
-5.9164000000000003
 30
0.0
 10
-12.367700000000001
 20
-5.9164000000000003
 30
0.0
  0
SPLINE
  5
34
100
AcDbEntity
  8
Ebene 1
100
AcDbSpline
210
0.0
220
0.0
230
1.0
 70
     1
 71
     3
 72
   120
 73
   116
 74
     0
 42
0.0000000001
 43
0.0000000001
 40
0.0
 40
0.0
 40
0.0
 40
0.0
 40
0.0344827586206897
 40
0.0344827586206897
 40
0.0344827586206897
 40
0.0344827586206897
 40
0.0689655172413793
 40
0.0689655172413793
 40
0.0689655172413793
 40
0.0689655172413793
 40
0.103448275862069
 40
0.103448275862069
 40
0.103448275862069
 40
0.103448275862069
 40
0.1379310344827586
 40
0.1379310344827586
 40
0.1379310344827586
 40
0.1379310344827586
 40
0.1724137931034483
 40
0.1724137931034483
 40
0.1724137931034483
 40
0.1724137931034483
 40
0.206896551724138
 40
0.206896551724138
 40
0.206896551724138
 40
0.206896551724138
 40
0.2413793103448276
 40
0.2413793103448276
 40
0.2413793103448276
 40
0.2413793103448276
 40
0.2758620689655173
 40
0.2758620689655173
 40
0.2758620689655173
 40
0.2758620689655173
 40
0.310344827586207
 40
0.310344827586207
 40
0.310344827586207
 40
0.310344827586207
 40
0.3448275862068966
 40
0.3448275862068966
 40
0.3448275862068966
 40
0.3448275862068966
 40
0.3793103448275863
 40
0.3793103448275863
 40
0.3793103448275863
 40
0.3793103448275863
 40
0.413793103448276
 40
0.413793103448276
 40
0.413793103448276
 40
0.413793103448276
 40
0.4482758620689656
 40
0.4482758620689656
 40
0.4482758620689656
 40
0.4482758620689656
 40
0.4827586206896553
 40
0.4827586206896553
 40
0.4827586206896553
 40
0.4827586206896553
 40
0.517241379310345
 40
0.517241379310345
 40
0.517241379310345
 40
0.517241379310345
 40
0.5517241379310346
 40
0.5517241379310346
 40
0.5517241379310346
 40
0.5517241379310346
 40
0.5862068965517242
 40
0.5862068965517242
 40
0.5862068965517242
 40
0.5862068965517242
 40
0.6206896551724138
 40
0.6206896551724138
 40
0.6206896551724138
 40
0.6206896551724138
 40
0.6551724137931034
 40
0.6551724137931034
 40
0.6551724137931034
 40
0.6551724137931034
 40
0.689655172413793
 40
0.689655172413793
 40
0.689655172413793
 40
0.689655172413793
 40
0.7241379310344827
 40
0.7241379310344827
 40
0.7241379310344827
 40
0.7241379310344827
 40
0.7586206896551723
 40
0.7586206896551723
 40
0.7586206896551723
 40
0.7586206896551723
 40
0.7931034482758619
 40
0.7931034482758619
 40
0.7931034482758619
 40
0.7931034482758619
 40
0.8275862068965515
 40
0.8275862068965515
 40
0.8275862068965515
 40
0.8275862068965515
 40
0.8620689655172411
 40
0.8620689655172411
 40
0.8620689655172411
 40
0.8620689655172411
 40
0.8965517241379307
 40
0.8965517241379307
 40
0.8965517241379307
 40
0.8965517241379307
 40
0.9310344827586203
 40
0.9310344827586203
 40
0.9310344827586203
 40
0.9310344827586203
 40
0.9655172413793099
 40
0.9655172413793099
 40
0.9655172413793099
 40
0.9655172413793099
 40
1.0
 40
1.0
 40
1.0
 40
1.0
 10
-9.1635000000000009
 20
-3.6819000000000002
 30
0.0
 10
-9.1635000000000009
 20
-3.6819000000000002
 30
0.0
 10
-8.1826000000000008
 20
-3.5873000000000004
 30
0.0
 10
-8.1826000000000008
 20
-3.5873000000000004
 30
0.0
 10
-8.1826000000000008
 20
-3.5873000000000004
 30
0.0
 10
-8.1898999999999997
 20
-3.7256
 30
0.0
 10
-8.1935000000000002
 20
-3.8093000000000004
 30
0.0
 10
-8.1935000000000002
 20
-3.8366000000000002
 30
0.0
 10
-8.1935000000000002
 20
-3.8366000000000002
 30
0.0
 10
-8.1935000000000002
 20
-4.0712999999999999
 30
0.0
 10
-8.1334999999999997
 20
-4.3079000000000001
 30
0.0
 10
-8.0152999999999999
 20
-4.5463000000000005
 30
0.0
 10
-8.0152999999999999
 20
-4.5463000000000005
 30
0.0
 10
-7.8951000000000002
 20
-4.7846000000000002
 30
0.0
 10
-7.7332000000000001
 20
-4.9666000000000006
 30
0.0
 10
-7.5294000000000008
 20
-5.0921000000000003
 30
0.0
 10
-7.5294000000000008
 20
-5.0921000000000003
 30
0.0
 10
-7.3256000000000006
 20
-5.2195
 30
0.0
 10
-7.1091000000000006
 20
-5.2814000000000005
 30
0.0
 10
-6.8817000000000004
 20
-5.2814000000000005
 30
0.0
 10
-6.8817000000000004
 20
-5.2814000000000005
 30
0.0
 10
-6.5832000000000006
 20
-5.2814000000000005
 30
0.0
 10
-6.2793000000000001
 20
-5.1795
 30
0.0
 10
-5.9700000000000006
 20
-4.9721000000000002
 30
0.0
 10
-5.9700000000000006
 20
-4.9721000000000002
 30
0.0
 10
-5.6607000000000003
 20
-4.7664
 30
0.0
 10
-5.4114000000000004
 20
-4.4662000000000006
 30
0.0
 10
-5.2185000000000006
 20
-4.0712999999999999
 30
0.0
 10
-5.2185000000000006
 20
-4.0712999999999999
 30
0.0
 10
-5.0274000000000001
 20
-3.6783000000000001
 30
0.0
 10
-4.931
 20
-3.2871000000000001
 30
0.0
 10
-4.931
 20
-2.8995000000000002
 30
0.0
 10
-4.931
 20
-2.8995000000000002
 30
0.0
 10
-4.931
 20
-2.4628000000000001
 30
0.0
 10
-5.0602
 20
-2.1116000000000001
 30
0.0
 10
-5.3168000000000006
 20
-1.8496000000000001
 30
0.0
 10
-5.3168000000000006
 20
-1.8496000000000001
 30
0.0
 10
-5.5750999999999999
 20
-1.5857000000000001
 30
0.0
 10
-5.9136000000000006
 20
-1.4548000000000001
 30
0.0
 10
-6.3321000000000005
 20
-1.4548000000000001
 30
0.0
 10
-6.3321000000000005
 20
-1.4548000000000001
 30
0.0
 10
-6.6141000000000005
 20
-1.4548000000000001
 30
0.0
 10
-6.8798000000000004
 20
-1.5221
 30
0.0
 10
-7.1291000000000002
 20
-1.6567000000000001
 30
0.0
 10
-7.1291000000000002
 20
-1.6567000000000001
 30
0.0
 10
-7.3802000000000003
 20
-1.7914000000000001
 30
0.0
 10
-7.6131000000000002
 20
-1.9952000000000001
 30
0.0
 10
-7.8315000000000001
 20
-2.2644000000000002
 30
0.0
 10
-7.8315000000000001
 20
-2.2644000000000002
 30
0.0
 10
-7.8315000000000001
 20
-2.2644000000000002
 30
0.0
 10
-8.6738999999999997
 20
-2.2061999999999999
 30
0.0
 10
-8.6738999999999997
 20
-2.2061999999999999
 30
0.0
 10
-8.6738999999999997
 20
-2.2061999999999999
 30
0.0
 10
-8.6738999999999997
 20
-2.2061999999999999
 30
0.0
 10
-7.4948000000000006
 20
1.7915000000000001
 30
0.0
 10
-7.4948000000000006
 20
1.7915000000000001
 30
0.0
 10
-7.4948000000000006
 20
1.7915000000000001
 30
0.0
 10
-7.4948000000000006
 20
1.7915000000000001
 30
0.0
 10
-3.6772
 20
1.7915000000000001
 30
0.0
 10
-3.6772
 20
1.7915000000000001
 30
0.0
 10
-3.6772
 20
1.7915000000000001
 30
0.0
 10
-3.6772
 20
1.7915000000000001
 30
0.0
 10
-3.8647
 20
0.9071
 30
0.0
 10
-3.8647
 20
0.9071
 30
0.0
 10
-3.8647
 20
0.9071
 30
0.0
 10
-3.8647
 20
0.9071
 30
0.0
 10
-6.8343000000000007
 20
0.9071
 30
0.0
 10
-6.8343000000000007
 20
0.9071
 30
0.0
 10
-6.8343000000000007
 20
0.9071
 30
0.0
 10
-6.8343000000000007
 20
0.9071
 30
0.0
 10
-7.4202000000000004
 20
-1.0817000000000001
 30
0.0
 10
-7.4202000000000004
 20
-1.0817000000000001
 30
0.0
 10
-7.4202000000000004
 20
-1.0817000000000001
 30
0.0
 10
-7.2000000000000002
 20
-0.9216000000000001
 30
0.0
 10
-6.9725999999999999
 20
-0.8014
 30
0.0
 10
-6.7415000000000003
 20
-0.7214
 30
0.0
 10
-6.7415000000000003
 20
-0.7214
 30
0.0
 10
-6.5086000000000004
 20
-0.6414000000000001
 30
0.0
 10
-6.2684000000000006
 20
-0.6013000000000001
 30
0.0
 10
-6.0228000000000002
 20
-0.6013000000000001
 30
0.0
 10
-6.0228000000000002
 20
-0.6013000000000001
 30
0.0
 10
-5.4259000000000004
 20
-0.6013000000000001
 30
0.0
 10
-4.9363999999999999
 20
-0.7978000000000001
 30
0.0
 10
-4.5525000000000002
 20
-1.1927000000000001
 30
0.0
 10
-4.5525000000000002
 20
-1.1927000000000001
 30
0.0
 10
-4.1684999999999999
 20
-1.5875000000000001
 30
0.0
 10
-3.9757000000000002
 20
-2.1278999999999999
 30
0.0
 10
-3.9757000000000002
 20
-2.8140000000000001
 30
0.0
 10
-3.9757000000000002
 20
-2.8140000000000001
 30
0.0
 10
-3.9757000000000002
 20
-3.4145000000000003
 30
0.0
 10
-4.1085000000000003
 20
-3.9676
 30
0.0
 10
-4.3704999999999998
 20
-4.4752999999999998
 30
0.0
 10
-4.3704999999999998
 20
-4.4752999999999998
 30
0.0
 10
-4.6344000000000003
 20
-4.9811000000000005
 30
0.0
 10
-4.9965000000000002
 20
-5.3704999999999998
 30
0.0
 10
-5.4550000000000001
 20
-5.6417000000000002
 30
0.0
 10
-5.4550000000000001
 20
-5.6417000000000002
 30
0.0
 10
-5.9154
 20
-5.9146000000000001
 30
0.0
 10
-6.4122000000000003
 20
-6.0493000000000006
 30
0.0
 10
-6.9453000000000005
 20
-6.0493000000000006
 30
0.0
 10
-6.9453000000000005
 20
-6.0493000000000006
 30
0.0
 10
-7.3929
 20
-6.0493000000000006
 30
0.0
 10
-7.7896000000000001
 20
-5.9492000000000003
 30
0.0
 10
-8.1354000000000006
 20
-5.7454000000000001
 30
0.0
 10
-8.1354000000000006
 20
-5.7454000000000001
 30
0.0
 10
-8.4793000000000003
 20
-5.5434000000000001
 30
0.0
 10
-8.7376000000000005
 20
-5.2650000000000006
 30
0.0
 10
-8.9105000000000008
 20
-4.9084000000000003
 30
0.0
 10
-8.9105000000000008
 20
-4.9084000000000003
 30
0.0
 10
-9.083400000000001
 20
-4.5536000000000003
 30
0.0
 10
-9.1689000000000007
 20
-4.1988000000000003
 30
0.0
 10
-9.1689000000000007
 20
-3.8421000000000003
 30
0.0
 10
-9.1689000000000007
 20
-3.8421000000000003
 30
0.0
 10
-9.1689000000000007
 20
-3.8075000000000001
 30
0.0
 10
-9.1670999999999996
 20
-3.7547000000000001
 30
0.0
 10
-9.1635000000000009
 20
-3.6819000000000002
 30
0.0
  0
SPLINE
  5
35
100
AcDbEntity
  8
Ebene 1
370
    35
100
AcDbSpline
210
0.0
220
0.0
230
1.0
 70
     0
 71
     3
 72
     8
 73
     4
 74
     0
 42
0.0000000001
 43
0.0000000001
 40
0.0
 40
0.0
 40
0.0
 40
0.0
 40
1.0
 40
1.0
 40
1.0
 40
1.0
 10
-1.4783000000000002
 20
25.642100000000003
 30
0.0
 10
-1.4783000000000002
 20
25.642100000000003
 30
0.0
 10
-1.4783000000000002
 20
9.2371999999999996
 30
0.0
 10
-1.4783000000000002
 20
9.2371999999999996
 30
0.0
  0
SPLINE
  5
36
100
AcDbEntity
  8
Ebene 1
370
    35
100
AcDbSpline
210
0.0
220
0.0
230
1.0
 70
     0
 71
     3
 72
     8
 73
     4
 74
     0
 42
0.0000000001
 43
0.0000000001
 40
0.0
 40
0.0
 40
0.0
 40
0.0
 40
1.0
 40
1.0
 40
1.0
 40
1.0
 10
-1.4783000000000002
 20
9.2371999999999996
 30
0.0
 10
-1.4783000000000002
 20
9.2371999999999996
 30
0.0
 10
-1.6851
 20
8.4652000000000012
 30
0.0
 10
-1.6851
 20
8.4652000000000012
 30
0.0
  0
SPLINE
  5
37
100
AcDbEntity
  8
Ebene 1
370
    35
100
AcDbSpline
210
0.0
220
0.0
230
1.0
 70
     0
 71
     3
 72
     8
 73
     4
 74
     0
 42
0.0000000001
 43
0.0000000001
 40
0.0
 40
0.0
 40
0.0
 40
0.0
 40
1.0
 40
1.0
 40
1.0
 40
1.0
 10
-2.2503000000000002
 20
25.642100000000003
 30
0.0
 10
-2.2503000000000002
 20
25.642100000000003
 30
0.0
 10
-1.4783000000000002
 20
25.642100000000003
 30
0.0
 10
-1.4783000000000002
 20
25.642100000000003
 30
0.0
  0
SPLINE
  5
38
100
AcDbEntity
  8
Ebene 1
370
    35
100
AcDbSpline
210
0.0
220
0.0
230
1.0
 70
     0
 71
     3
 72
     8
 73
     4
 74
     0
 42
0.0000000001
 43
0.0000000001
 40
0.0
 40
0.0
 40
0.0
 40
0.0
 40
1.0
 40
1.0
 40
1.0
 40
1.0
 10
-36.1023
 20
25.642100000000003
 30
0.0
 10
-36.1023
 20
25.642100000000003
 30
0.0
 10
-36.1023
 20
25.063100000000002
 30
0.0
 10
-36.1023
 20
25.063100000000002
 30
0.0
  0
SPLINE
  5
39
100
AcDbEntity
  8
Ebene 1
370
    35
100
AcDbSpline
210
0.0
220
0.0
230
1.0
 70
     0
 71
     3
 72
     8
 73
     4
 74
     0
 42
0.0000000001
 43
0.0000000001
 40
0.0
 40
0.0
 40
0.0
 40
0.0
 40
1.0
 40
1.0
 40
1.0
 40
1.0
 10
-36.1023
 20
25.642100000000003
 30
0.0
 10
-36.1023
 20
25.642100000000003
 30
0.0
 10
-36.835700000000003
 20
25.642100000000003
 30
0.0
 10
-36.835700000000003
 20
25.642100000000003
 30
0.0
  0
SPLINE
  5
3A
100
AcDbEntity
  8
Ebene 1
370
    35
100
AcDbSpline
210
0.0
220
0.0
230
1.0
 70
     0
 71
     3
 72
     8
 73
     4
 74
     0
 42
0.0000000001
 43
0.0000000001
 40
0.0
 40
0.0
 40
0.0
 40
0.0
 40
1.0
 40
1.0
 40
1.0
 40
1.0
 10
-36.667400000000001
 20
8.4652000000000012
 30
0.0
 10
-36.667400000000001
 20
8.4652000000000012
 30
0.0
 10
-1.6851
 20
8.4652000000000012
 30
0.0
 10
-1.6851
 20
8.4652000000000012
 30
0.0
  0
SPLINE
  5
3B
100
AcDbEntity
  8
Ebene 1
370
    35
100
AcDbSpline
210
0.0
220
0.0
230
1.0
 70
     0
 71
     3
 72
     8
 73
     4
 74
     0
 42
0.0000000001
 43
0.0000000001
 40
0.0
 40
0.0
 40
0.0
 40
0.0
 40
1.0
 40
1.0
 40
1.0
 40
1.0
 10
-2.5783
 20
25.642100000000003
 30
0.0
 10
-2.5783
 20
25.642100000000003
 30
0.0
 10
-2.5783
 20
25.642100000000003
 30
0.0
 10
-2.5783
 20
25.642100000000003
 30
0.0
  0
SPLINE
  5
3C
100
AcDbEntity
  8
Ebene 1
370
    35
100
AcDbSpline
210
0.0
220
0.0
230
1.0
 70
     0
 71
     3
 72
     8
 73
     4
 74
     0
 42
0.0000000001
 43
0.0000000001
 40
0.0
 40
0.0
 40
0.0
 40
0.0
 40
1.0
 40
1.0
 40
1.0
 40
1.0
 10
-36.325500000000005
 20
8.4652000000000012
 30
0.0
 10
-36.325500000000005
 20
8.4652000000000012
 30
0.0
 10
-36.160200000000003
 20
8.4652000000000012
 30
0.0
 10
-36.160200000000003
 20
8.4652000000000012
 30
0.0
  0
SPLINE
  5
3D
100
AcDbEntity
  8
Ebene 1
370
    35
100
AcDbSpline
210
0.0
220
0.0
230
1.0
 70
     0
 71
     3
 72
     8
 73
     4
 74
     0
 42
0.0000000001
 43
0.0000000001
 40
0.0
 40
0.0
 40
0.0
 40
0.0
 40
1.0
 40
1.0
 40
1.0
 40
1.0
 10
-2.2503000000000002
 20
25.642100000000003
 30
0.0
 10
-2.2503000000000002
 20
25.642100000000003
 30
0.0
 10
-2.2503000000000002
 20
25.063100000000002
 30
0.0
 10
-2.2503000000000002
 20
25.063100000000002
 30
0.0
  0
SPLINE
  5
3E
100
AcDbEntity
  8
Ebene 1
370
    35
100
AcDbSpline
210
0.0
220
0.0
230
1.0
 70
     0
 71
     3
 72
     8
 73
     4
 74
     0
 42
0.0000000001
 43
0.0000000001
 40
0.0
 40
0.0
 40
0.0
 40
0.0
 40
1.0
 40
1.0
 40
1.0
 40
1.0
 10
-35.774300000000004
 20
25.642100000000003
 30
0.0
 10
-35.774300000000004
 20
25.642100000000003
 30
0.0
 10
-35.774300000000004
 20
25.642100000000003
 30
0.0
 10
-35.774300000000004
 20
25.642100000000003
 30
0.0
  0
SPLINE
  5
3F
100
AcDbEntity
  8
Ebene 1
370
    35
100
AcDbSpline
210
0.0
220
0.0
230
1.0
 70
     0
 71
     3
 72
     8
 73
     4
 74
     0
 42
0.0000000001
 43
0.0000000001
 40
0.0
 40
0.0
 40
0.0
 40
0.0
 40
1.0
 40
1.0
 40
1.0
 40
1.0
 10
-35.774300000000004
 20
25.642100000000003
 30
0.0
 10
-35.774300000000004
 20
25.642100000000003
 30
0.0
 10
-35.774300000000004
 20
25.642100000000003
 30
0.0
 10
-35.774300000000004
 20
25.642100000000003
 30
0.0
  0
SPLINE
  5
40
100
AcDbEntity
  8
Ebene 1
370
    35
100
AcDbSpline
210
0.0
220
0.0
230
1.0
 70
     0
 71
     3
 72
     8
 73
     4
 74
     0
 42
0.0000000001
 43
0.0000000001
 40
0.0
 40
0.0
 40
0.0
 40
0.0
 40
1.0
 40
1.0
 40
1.0
 40
1.0
 10
-36.874300000000005
 20
9.2371999999999996
 30
0.0
 10
-36.874300000000005
 20
9.2371999999999996
 30
0.0
 10
-36.667400000000001
 20
8.4652000000000012
 30
0.0
 10
-36.667400000000001
 20
8.4652000000000012
 30
0.0
  0
SPLINE
  5
41
100
AcDbEntity
  8
Ebene 1
370
    35
100
AcDbSpline
210
0.0
220
0.0
230
1.0
 70
     0
 71
     3
 72
     8
 73
     4
 74
     0
 42
0.0000000001
 43
0.0000000001
 40
0.0
 40
0.0
 40
0.0
 40
0.0
 40
1.0
 40
1.0
 40
1.0
 40
1.0
 10
-2.4818000000000002
 20
23.905100000000001
 30
0.0
 10
-2.4818000000000002
 20
23.905100000000001
 30
0.0
 10
-2.2503000000000002
 20
23.905100000000001
 30
0.0
 10
-2.2503000000000002
 20
23.905100000000001
 30
0.0
  0
SPLINE
  5
42
100
AcDbEntity
  8
Ebene 1
370
    35
100
AcDbSpline
210
0.0
220
0.0
230
1.0
 70
     0
 71
     3
 72
     8
 73
     4
 74
     0
 42
0.0000000001
 43
0.0000000001
 40
0.0
 40
0.0
 40
0.0
 40
0.0
 40
1.0
 40
1.0
 40
1.0
 40
1.0
 10
-2.2503000000000002
 20
25.063100000000002
 30
0.0
 10
-2.2503000000000002
 20
25.063100000000002
 30
0.0
 10
-2.4818000000000002
 20
23.905100000000001
 30
0.0
 10
-2.4818000000000002
 20
23.905100000000001
 30
0.0
  0
SPLINE
  5
43
100
AcDbEntity
  8
Ebene 1
370
    35
100
AcDbSpline
210
0.0
220
0.0
230
1.0
 70
     0
 71
     3
 72
     8
 73
     4
 74
     0
 42
0.0000000001
 43
0.0000000001
 40
0.0
 40
0.0
 40
0.0
 40
0.0
 40
1.0
 40
1.0
 40
1.0
 40
1.0
 10
-2.2503000000000002
 20
23.905100000000001
 30
0.0
 10
-2.2503000000000002
 20
23.905100000000001
 30
0.0
 10
-2.2503000000000002
 20
8.4652000000000012
 30
0.0
 10
-2.2503000000000002
 20
8.4652000000000012
 30
0.0
  0
SPLINE
  5
44
100
AcDbEntity
  8
Ebene 1
370
    35
100
AcDbSpline
210
0.0
220
0.0
230
1.0
 70
     0
 71
     3
 72
     8
 73
     4
 74
     0
 42
0.0000000001
 43
0.0000000001
 40
0.0
 40
0.0
 40
0.0
 40
0.0
 40
1.0
 40
1.0
 40
1.0
 40
1.0
 10
-35.870699999999999
 20
23.905100000000001
 30
0.0
 10
-35.870699999999999
 20
23.905100000000001
 30
0.0
 10
-36.1023
 20
23.905100000000001
 30
0.0
 10
-36.1023
 20
23.905100000000001
 30
0.0
  0
SPLINE
  5
45
100
AcDbEntity
  8
Ebene 1
370
    35
100
AcDbSpline
210
0.0
220
0.0
230
1.0
 70
     0
 71
     3
 72
     8
 73
     4
 74
     0
 42
0.0000000001
 43
0.0000000001
 40
0.0
 40
0.0
 40
0.0
 40
0.0
 40
1.0
 40
1.0
 40
1.0
 40
1.0
 10
-36.1023
 20
25.063100000000002
 30
0.0
 10
-36.1023
 20
25.063100000000002
 30
0.0
 10
-35.870699999999999
 20
23.905100000000001
 30
0.0
 10
-35.870699999999999
 20
23.905100000000001
 30
0.0
  0
SPLINE
  5
46
100
AcDbEntity
  8
Ebene 1
370
    35
100
AcDbSpline
210
0.0
220
0.0
230
1.0
 70
     0
 71
     3
 72
     8
 73
     4
 74
     0
 42
0.0000000001
 43
0.0000000001
 40
0.0
 40
0.0
 40
0.0
 40
0.0
 40
1.0
 40
1.0
 40
1.0
 40
1.0
 10
-36.874300000000005
 20
25.642100000000003
 30
0.0
 10
-36.874300000000005
 20
25.642100000000003
 30
0.0
 10
-36.874300000000005
 20
9.2371999999999996
 30
0.0
 10
-36.874300000000005
 20
9.2371999999999996
 30
0.0
  0
SPLINE
  5
47
100
AcDbEntity
  8
Ebene 1
370
    35
100
AcDbSpline
210
0.0
220
0.0
230
1.0
 70
     1
 71
     3
 72
    20
 73
    16
 74
     0
 42
0.0000000001
 43
0.0000000001
 40
0.0
 40
0.0
 40
0.0
 40
0.0
 40
0.25
 40
0.25
 40
0.25
 40
0.25
 40
0.5
 40
0.5
 40
0.5
 40
0.5
 40
0.75
 40
0.75
 40
0.75
 40
0.75
 40
1.0
 40
1.0
 40
1.0
 40
1.0
 10
76.396900000000002
 20
19.023099999999999
 30
0.0
 10
76.396900000000002
 20
28.008600000000001
 30
0.0
 10
69.112700000000004
 20
35.292900000000003
 30
0.0
 10
60.127100000000006
 20
35.292900000000003
 30
0.0
 10
60.127100000000006
 20
35.292900000000003
 30
0.0
 10
51.141600000000004
 20
35.292900000000003
 30
0.0
 10
43.857400000000005
 20
28.008600000000001
 30
0.0
 10
43.857400000000005
 20
19.023099999999999
 30
0.0
 10
43.857400000000005
 20
19.023099999999999
 30
0.0
 10
43.857400000000005
 20
10.037600000000001
 30
0.0
 10
51.141600000000004
 20
2.7535000000000003
 30
0.0
 10
60.127100000000006
 20
2.7535000000000003
 30
0.0
 10
60.127100000000006
 20
2.7535000000000003
 30
0.0
 10
69.112700000000004
 20
2.7535000000000003
 30
0.0
 10
76.396900000000002
 20
10.037600000000001
 30
0.0
 10
76.396900000000002
 20
19.023099999999999
 30
0.0
  0
SPLINE
  5
48
100
AcDbEntity
  8
Ebene 1
370
    35
100
AcDbSpline
210
0.0
220
0.0
230
1.0
 70
     1
 71
     3
 72
    20
 73
    16
 74
     0
 42
0.0000000001
 43
0.0000000001
 40
0.0
 40
0.0
 40
0.0
 40
0.0
 40
0.25
 40
0.25
 40
0.25
 40
0.25
 40
0.5
 40
0.5
 40
0.5
 40
0.5
 40
0.75
 40
0.75
 40
0.75
 40
0.75
 40
1.0
 40
1.0
 40
1.0
 40
1.0
 10
44.494199999999999
 20
0.6883
 30
0.0
 10
44.494199999999999
 20
2.1806000000000001
 30
0.0
 10
43.284400000000005
 20
3.3903000000000003
 30
0.0
 10
41.792200000000001
 20
3.3903000000000003
 30
0.0
 10
41.792200000000001
 20
3.3903000000000003
 30
0.0
 10
40.299900000000001
 20
3.3903000000000003
 30
0.0
 10
39.090200000000003
 20
2.1806000000000001
 30
0.0
 10
39.090200000000003
 20
0.6883
 30
0.0
 10
39.090200000000003
 20
0.6883
 30
0.0
 10
39.090200000000003
 20
-0.8040000000000001
 30
0.0
 10
40.299900000000001
 20
-2.0137
 30
0.0
 10
41.792200000000001
 20
-2.0137
 30
0.0
 10
41.792200000000001
 20
-2.0137
 30
0.0
 10
43.284400000000005
 20
-2.0137
 30
0.0
 10
44.494199999999999
 20
-0.8040000000000001
 30
0.0
 10
44.494199999999999
 20
0.6883
 30
0.0
  0
SPLINE
  5
49
100
AcDbEntity
  8
Ebene 1
370
    35
100
AcDbSpline
210
0.0
220
0.0
230
1.0
 70
     0
 71
     3
 72
     8
 73
     4
 74
     0
 42
0.0000000001
 43
0.0000000001
 40
0.0
 40
0.0
 40
0.0
 40
0.0
 40
1.0
 40
1.0
 40
1.0
 40
1.0
 10
37.198799999999999
 20
-2.5927000000000002
 30
0.0
 10
37.198799999999999
 20
-2.5927000000000002
 30
0.0
 10
37.198799999999999
 20
40.639099999999999
 30
0.0
 10
37.198799999999999
 20
40.639099999999999
 30
0.0
  0
SPLINE
  5
4A
100
AcDbEntity
  8
Ebene 1
370
    35
100
AcDbSpline
210
0.0
220
0.0
230
1.0
 70
     0
 71
     3
 72
     8
 73
     4
 74
     0
 42
0.0000000001
 43
0.0000000001
 40
0.0
 40
0.0
 40
0.0
 40
0.0
 40
1.0
 40
1.0
 40
1.0
 40
1.0
 10
37.739200000000004
 20
-2.5927000000000002
 30
0.0
 10
37.739200000000004
 20
-2.5927000000000002
 30
0.0
 10
37.739200000000004
 20
40.639099999999999
 30
0.0
 10
37.739200000000004
 20
40.639099999999999
 30
0.0
  0
SPLINE
  5
4B
100
AcDbEntity
  8
Ebene 1
370
    35
100
AcDbSpline
210
0.0
220
0.0
230
1.0
 70
     0
 71
     3
 72
     8
 73
     4
 74
     0
 42
0.0000000001
 43
0.0000000001
 40
0.0
 40
0.0
 40
0.0
 40
0.0
 40
1.0
 40
1.0
 40
1.0
 40
1.0
 10
81.743099999999998
 20
-3.3647
 30
0.0
 10
81.743099999999998
 20
-3.3647
 30
0.0
 10
38.511200000000002
 20
-3.3647
 30
0.0
 10
38.511200000000002
 20
-3.3647
 30
0.0
  0
SPLINE
  5
4C
100
AcDbEntity
  8
Ebene 1
370
    35
100
AcDbSpline
210
0.0
220
0.0
230
1.0
 70
     0
 71
     3
 72
     8
 73
     4
 74
     0
 42
0.0000000001
 43
0.0000000001
 40
0.0
 40
0.0
 40
0.0
 40
0.0
 40
1.0
 40
1.0
 40
1.0
 40
1.0
 10
82.515000000000001
 20
40.639099999999999
 30
0.0
 10
82.515000000000001
 20
40.639099999999999
 30
0.0
 10
82.515000000000001
 20
-2.5927000000000002
 30
0.0
 10
82.515000000000001
 20
-2.5927000000000002
 30
0.0
  0
SPLINE
  5
4D
100
AcDbEntity
  8
Ebene 1
370
    35
100
AcDbSpline
210
0.0
220
0.0
230
1.0
 70
     0
 71
     3
 72
     8
 73
     4
 74
     0
 42
0.0000000001
 43
0.0000000001
 40
0.0
 40
0.0
 40
0.0
 40
0.0
 40
1.0
 40
1.0
 40
1.0
 40
1.0
 10
38.511200000000002
 20
41.411000000000001
 30
0.0
 10
38.511200000000002
 20
41.411000000000001
 30
0.0
 10
81.743099999999998
 20
41.411000000000001
 30
0.0
 10
81.743099999999998
 20
41.411000000000001
 30
0.0
  0
SPLINE
  5
4E
100
AcDbEntity
  8
Ebene 1
370
    35
100
AcDbSpline
210
0.0
220
0.0
230
1.0
 70
     0
 71
     3
 72
     8
 73
     4
 74
     0
 42
0.0000000001
 43
0.0000000001
 40
0.0
 40
0.0
 40
0.0
 40
0.0
 40
1.0
 40
1.0
 40
1.0
 40
1.0
 10
81.743099999999998
 20
-3.9051
 30
0.0
 10
81.743099999999998
 20
-3.9051
 30
0.0
 10
38.511200000000002
 20
-3.9051
 30
0.0
 10
38.511200000000002
 20
-3.9051
 30
0.0
  0
SPLINE
  5
4F
100
AcDbEntity
  8
Ebene 1
370
    35
100
AcDbSpline
210
0.0
220
0.0
230
1.0
 70
     0
 71
     3
 72
     8
 73
     4
 74
     0
 42
0.0000000001
 43
0.0000000001
 40
0.0
 40
0.0
 40
0.0
 40
0.0
 40
1.0
 40
1.0
 40
1.0
 40
1.0
 10
83.055400000000006
 20
40.639099999999999
 30
0.0
 10
83.055400000000006
 20
40.639099999999999
 30
0.0
 10
83.055400000000006
 20
-2.5927000000000002
 30
0.0
 10
83.055400000000006
 20
-2.5927000000000002
 30
0.0
  0
SPLINE
  5
50
100
AcDbEntity
  8
Ebene 1
370
    35
100
AcDbSpline
210
0.0
220
0.0
230
1.0
 70
     0
 71
     3
 72
     8
 73
     4
 74
     0
 42
0.0000000001
 43
0.0000000001
 40
0.0
 40
0.0
 40
0.0
 40
0.0
 40
1.0
 40
1.0
 40
1.0
 40
1.0
 10
38.511200000000002
 20
41.9514
 30
0.0
 10
38.511200000000002
 20
41.9514
 30
0.0
 10
81.743099999999998
 20
41.9514
 30
0.0
 10
81.743099999999998
 20
41.9514
 30
0.0
  0
SPLINE
  5
51
100
AcDbEntity
  8
Ebene 1
370
    35
100
AcDbSpline
210
0.0
220
0.0
230
1.0
 70
     1
 71
     3
 72
    20
 73
    16
 74
     0
 42
0.0000000001
 43
0.0000000001
 40
0.0
 40
0.0
 40
0.0
 40
0.0
 40
0.25
 40
0.25
 40
0.25
 40
0.25
 40
0.5
 40
0.5
 40
0.5
 40
0.5
 40
0.75
 40
0.75
 40
0.75
 40
0.75
 40
1.0
 40
1.0
 40
1.0
 40
1.0
 10
44.494199999999999
 20
37.3581
 30
0.0
 10
44.494199999999999
 20
38.850300000000004
 30
0.0
 10
43.284400000000005
 20
40.060099999999998
 30
0.0
 10
41.792200000000001
 20
40.060099999999998
 30
0.0
 10
41.792200000000001
 20
40.060099999999998
 30
0.0
 10
40.299900000000001
 20
40.060099999999998
 30
0.0
 10
39.090200000000003
 20
38.850300000000004
 30
0.0
 10
39.090200000000003
 20
37.3581
 30
0.0
 10
39.090200000000003
 20
37.3581
 30
0.0
 10
39.090200000000003
 20
35.865700000000004
 30
0.0
 10
40.299900000000001
 20
34.656100000000002
 30
0.0
 10
41.792200000000001
 20
34.656100000000002
 30
0.0
 10
41.792200000000001
 20
34.656100000000002
 30
0.0
 10
43.284400000000005
 20
34.656100000000002
 30
0.0
 10
44.494199999999999
 20
35.865700000000004
 30
0.0
 10
44.494199999999999
 20
37.3581
 30
0.0
  0
SPLINE
  5
52
100
AcDbEntity
  8
Ebene 1
370
    35
100
AcDbSpline
210
0.0
220
0.0
230
1.0
 70
     1
 71
     3
 72
    20
 73
    16
 74
     0
 42
0.0000000001
 43
0.0000000001
 40
0.0
 40
0.0
 40
0.0
 40
0.0
 40
0.25
 40
0.25
 40
0.25
 40
0.25
 40
0.5
 40
0.5
 40
0.5
 40
0.5
 40
0.75
 40
0.75
 40
0.75
 40
0.75
 40
1.0
 40
1.0
 40
1.0
 40
1.0
 10
81.164100000000005
 20
0.6883
 30
0.0
 10
81.164100000000005
 20
2.1806000000000001
 30
0.0
 10
79.954300000000003
 20
3.3903000000000003
 30
0.0
 10
78.462100000000007
 20
3.3903000000000003
 30
0.0
 10
78.462100000000007
 20
3.3903000000000003
 30
0.0
 10
76.969800000000006
 20
3.3903000000000003
 30
0.0
 10
75.760100000000008
 20
2.1806000000000001
 30
0.0
 10
75.760100000000008
 20
0.6883
 30
0.0
 10
75.760100000000008
 20
0.6883
 30
0.0
 10
75.760100000000008
 20
-0.8040000000000001
 30
0.0
 10
76.969800000000006
 20
-2.0137
 30
0.0
 10
78.462100000000007
 20
-2.0137
 30
0.0
 10
78.462100000000007
 20
-2.0137
 30
0.0
 10
79.954300000000003
 20
-2.0137
 30
0.0
 10
81.164100000000005
 20
-0.8040000000000001
 30
0.0
 10
81.164100000000005
 20
0.6883
 30
0.0
  0
SPLINE
  5
53
100
AcDbEntity
  8
Ebene 1
370
    35
100
AcDbSpline
210
0.0
220
0.0
230
1.0
 70
     1
 71
     3
 72
    20
 73
    16
 74
     0
 42
0.0000000001
 43
0.0000000001
 40
0.0
 40
0.0
 40
0.0
 40
0.0
 40
0.25
 40
0.25
 40
0.25
 40
0.25
 40
0.5
 40
0.5
 40
0.5
 40
0.5
 40
0.75
 40
0.75
 40
0.75
 40
0.75
 40
1.0
 40
1.0
 40
1.0
 40
1.0
 10
81.164100000000005
 20
37.3581
 30
0.0
 10
81.164100000000005
 20
38.850300000000004
 30
0.0
 10
79.954300000000003
 20
40.060099999999998
 30
0.0
 10
78.462100000000007
 20
40.060099999999998
 30
0.0
 10
78.462100000000007
 20
40.060099999999998
 30
0.0
 10
76.969800000000006
 20
40.060099999999998
 30
0.0
 10
75.760100000000008
 20
38.850300000000004
 30
0.0
 10
75.760100000000008
 20
37.3581
 30
0.0
 10
75.760100000000008
 20
37.3581
 30
0.0
 10
75.760100000000008
 20
35.865700000000004
 30
0.0
 10
76.969800000000006
 20
34.656100000000002
 30
0.0
 10
78.462100000000007
 20
34.656100000000002
 30
0.0
 10
78.462100000000007
 20
34.656100000000002
 30
0.0
 10
79.954300000000003
 20
34.656100000000002
 30
0.0
 10
81.164100000000005
 20
35.865700000000004
 30
0.0
 10
81.164100000000005
 20
37.3581
 30
0.0
  0
SPLINE
  5
54
100
AcDbEntity
  8
Ebene 1
370
    35
100
AcDbSpline
210
0.0
220
0.0
230
1.0
 70
     1
 71
     3
 72
    20
 73
    16
 74
     0
 42
0.0000000001
 43
0.0000000001
 40
0.0
 40
0.0
 40
0.0
 40
0.0
 40
0.25
 40
0.25
 40
0.25
 40
0.25
 40
0.5
 40
0.5
 40
0.5
 40
0.5
 40
0.75
 40
0.75
 40
0.75
 40
0.75
 40
1.0
 40
1.0
 40
1.0
 40
1.0
 10
42.757200000000005
 20
0.6883
 30
0.0
 10
42.757200000000005
 20
1.2212000000000001
 30
0.0
 10
42.325099999999999
 20
1.6533
 30
0.0
 10
41.792200000000001
 20
1.6533
 30
0.0
 10
41.792200000000001
 20
1.6533
 30
0.0
 10
41.2592
 20
1.6533
 30
0.0
 10
40.827200000000005
 20
1.2212000000000001
 30
0.0
 10
40.827200000000005
 20
0.6883
 30
0.0
 10
40.827200000000005
 20
0.6883
 30
0.0
 10
40.827200000000005
 20
0.1553
 30
0.0
 10
41.2592
 20
-0.2767
 30
0.0
 10
41.792200000000001
 20
-0.2767
 30
0.0
 10
41.792200000000001
 20
-0.2767
 30
0.0
 10
42.325099999999999
 20
-0.2767
 30
0.0
 10
42.757200000000005
 20
0.1553
 30
0.0
 10
42.757200000000005
 20
0.6883
 30
0.0
  0
SPLINE
  5
55
100
AcDbEntity
  8
Ebene 1
370
    35
100
AcDbSpline
210
0.0
220
0.0
230
1.0
 70
     1
 71
     3
 72
    20
 73
    16
 74
     0
 42
0.0000000001
 43
0.0000000001
 40
0.0
 40
0.0
 40
0.0
 40
0.0
 40
0.25
 40
0.25
 40
0.25
 40
0.25
 40
0.5
 40
0.5
 40
0.5
 40
0.5
 40
0.75
 40
0.75
 40
0.75
 40
0.75
 40
1.0
 40
1.0
 40
1.0
 40
1.0
 10
79.42710000000001
 20
37.3581
 30
0.0
 10
79.42710000000001
 20
37.891000000000005
 30
0.0
 10
78.995000000000005
 20
38.323100000000004
 30
0.0
 10
78.462100000000007
 20
38.323100000000004
 30
0.0
 10
78.462100000000007
 20
38.323100000000004
 30
0.0
 10
77.929100000000005
 20
38.323100000000004
 30
0.0
 10
77.497100000000003
 20
37.891000000000005
 30
0.0
 10
77.497100000000003
 20
37.3581
 30
0.0
 10
77.497100000000003
 20
37.3581
 30
0.0
 10
77.497100000000003
 20
36.825000000000003
 30
0.0
 10
77.929100000000005
 20
36.393100000000004
 30
0.0
 10
78.462100000000007
 20
36.393100000000004
 30
0.0
 10
78.462100000000007
 20
36.393100000000004
 30
0.0
 10
78.995000000000005
 20
36.393100000000004
 30
0.0
 10
79.42710000000001
 20
36.825000000000003
 30
0.0
 10
79.42710000000001
 20
37.3581
 30
0.0
  0
SPLINE
  5
56
100
AcDbEntity
  8
Ebene 1
370
    35
100
AcDbSpline
210
0.0
220
0.0
230
1.0
 70
     1
 71
     3
 72
    20
 73
    16
 74
     0
 42
0.0000000001
 43
0.0000000001
 40
0.0
 40
0.0
 40
0.0
 40
0.0
 40
0.25
 40
0.25
 40
0.25
 40
0.25
 40
0.5
 40
0.5
 40
0.5
 40
0.5
 40
0.75
 40
0.75
 40
0.75
 40
0.75
 40
1.0
 40
1.0
 40
1.0
 40
1.0
 10
77.921700000000001
 20
19.023099999999999
 30
0.0
 10
77.921700000000001
 20
28.850800000000003
 30
0.0
 10
69.954800000000006
 20
36.817599999999999
 30
0.0
 10
60.127100000000006
 20
36.817599999999999
 30
0.0
 10
60.127100000000006
 20
36.817599999999999
 30
0.0
 10
50.299500000000002
 20
36.817599999999999
 30
0.0
 10
42.332500000000003
 20
28.850800000000003
 30
0.0
 10
42.332500000000003
 20
19.023099999999999
 30
0.0
 10
42.332500000000003
 20
19.023099999999999
 30
0.0
 10
42.332500000000003
 20
9.1955000000000009
 30
0.0
 10
50.299500000000002
 20
1.2287000000000001
 30
0.0
 10
60.127100000000006
 20
1.2287000000000001
 30
0.0
 10
60.127100000000006
 20
1.2287000000000001
 30
0.0
 10
69.954800000000006
 20
1.2287000000000001
 30
0.0
 10
77.921700000000001
 20
9.1955000000000009
 30
0.0
 10
77.921700000000001
 20
19.023099999999999
 30
0.0
  0
SPLINE
  5
57
100
AcDbEntity
  8
Ebene 1
370
    35
100
AcDbSpline
210
0.0
220
0.0
230
1.0
 70
     1
 71
     3
 72
    20
 73
    16
 74
     0
 42
0.0000000001
 43
0.0000000001
 40
0.0
 40
0.0
 40
0.0
 40
0.0
 40
0.25
 40
0.25
 40
0.25
 40
0.25
 40
0.5
 40
0.5
 40
0.5
 40
0.5
 40
0.75
 40
0.75
 40
0.75
 40
0.75
 40
1.0
 40
1.0
 40
1.0
 40
1.0
 10
76.5321
 20
19.023099999999999
 30
0.0
 10
76.5321
 20
28.083300000000001
 30
0.0
 10
69.187300000000008
 20
35.428100000000001
 30
0.0
 10
60.127100000000006
 20
35.428100000000001
 30
0.0
 10
60.127100000000006
 20
35.428100000000001
 30
0.0
 10
51.066900000000004
 20
35.428100000000001
 30
0.0
 10
43.722200000000001
 20
28.083300000000001
 30
0.0
 10
43.722200000000001
 20
19.023099999999999
 30
0.0
 10
43.722200000000001
 20
19.023099999999999
 30
0.0
 10
43.722200000000001
 20
9.9627999999999997
 30
0.0
 10
51.066900000000004
 20
2.6183000000000001
 30
0.0
 10
60.127100000000006
 20
2.6183000000000001
 30
0.0
 10
60.127100000000006
 20
2.6183000000000001
 30
0.0
 10
69.187300000000008
 20
2.6183000000000001
 30
0.0
 10
76.5321
 20
9.9627999999999997
 30
0.0
 10
76.5321
 20
19.023099999999999
 30
0.0
  0
SPLINE
  5
58
100
AcDbEntity
  8
Ebene 1
370
    35
100
AcDbSpline
210
0.0
220
0.0
230
1.0
 70
     0
 71
     3
 72
     8
 73
     4
 74
     0
 42
0.0000000001
 43
0.0000000001
 40
0.0
 40
0.0
 40
0.0
 40
0.0
 40
1.0
 40
1.0
 40
1.0
 40
1.0
 10
3.4818000000000002
 20
29.581000000000003
 30
0.0
 10
3.4818000000000002
 20
29.581000000000003
 30
0.0
 10
-19.176300000000001
 20
29.581000000000003
 30
0.0
 10
-19.176300000000001
 20
29.581000000000003
 30
0.0
  0
SPLINE
  5
59
100
AcDbEntity
  8
Ebene 1
370
    35
100
AcDbSpline
210
0.0
220
0.0
230
1.0
 70
     0
 71
     3
 72
     8
 73
     4
 74
     0
 42
0.0000000001
 43
0.0000000001
 40
0.0
 40
0.0
 40
0.0
 40
0.0
 40
1.0
 40
1.0
 40
1.0
 40
1.0
 10
3.0186000000000002
 20
27.187800000000003
 30
0.0
 10
3.0186000000000002
 20
27.187800000000003
 30
0.0
 10
-0.9957
 20
27.187800000000003
 30
0.0
 10
-0.9957
 20
27.187800000000003
 30
0.0
  0
SPLINE
  5
5A
100
AcDbEntity
  8
Ebene 1
370
    35
100
AcDbSpline
210
0.0
220
0.0
230
1.0
 70
     0
 71
     3
 72
     8
 73
     4
 74
     0
 42
0.0000000001
 43
0.0000000001
 40
0.0
 40
0.0
 40
0.0
 40
0.0
 40
1.0
 40
1.0
 40
1.0
 40
1.0
 10
3.0186000000000002
 20
27.458000000000002
 30
0.0
 10
3.0186000000000002
 20
27.458000000000002
 30
0.0
 10
-0.9957
 20
27.458000000000002
 30
0.0
 10
-0.9957
 20
27.458000000000002
 30
0.0
  0
SPLINE
  5
5B
100
AcDbEntity
  8
Ebene 1
370
    35
100
AcDbSpline
210
0.0
220
0.0
230
1.0
 70
     0
 71
     3
 72
     8
 73
     4
 74
     0
 42
0.0000000001
 43
0.0000000001
 40
0.0
 40
0.0
 40
0.0
 40
0.0
 40
1.0
 40
1.0
 40
1.0
 40
1.0
 10
-41.371200000000002
 20
27.187800000000003
 30
0.0
 10
-41.371200000000002
 20
27.187800000000003
 30
0.0
 10
-37.3568
 20
27.187800000000003
 30
0.0
 10
-37.3568
 20
27.187800000000003
 30
0.0
  0
SPLINE
  5
5C
100
AcDbEntity
  8
Ebene 1
370
    35
100
AcDbSpline
210
0.0
220
0.0
230
1.0
 70
     0
 71
     3
 72
    12
 73
     8
 74
     0
 42
0.0000000001
 43
0.0000000001
 40
0.0
 40
0.0
 40
0.0
 40
0.0
 40
0.5
 40
0.5
 40
0.5
 40
0.5
 40
1.0
 40
1.0
 40
1.0
 40
1.0
 10
-41.5642
 20
29.3108
 30
0.0
 10
-41.5642
 20
29.460100000000001
 30
0.0
 10
-41.685200000000002
 20
29.581000000000003
 30
0.0
 10
-41.834400000000002
 20
29.581000000000003
 30
0.0
 10
-41.834400000000002
 20
29.581000000000003
 30
0.0
 10
-41.983699999999999
 20
29.581000000000003
 30
0.0
 10
-42.104600000000005
 20
29.460100000000001
 30
0.0
 10
-42.104600000000005
 20
29.3108
 30
0.0
  0
SPLINE
  5
5D
100
AcDbEntity
  8
Ebene 1
370
    35
100
AcDbSpline
210
0.0
220
0.0
230
1.0
 70
     0
 71
     3
 72
     8
 73
     4
 74
     0
 42
0.0000000001
 43
0.0000000001
 40
0.0
 40
0.0
 40
0.0
 40
0.0
 40
1.0
 40
1.0
 40
1.0
 40
1.0
 10
-41.834400000000002
 20
28.616
 30
0.0
 10
-41.834400000000002
 20
28.616
 30
0.0
 10
-42.104600000000005
 20
28.616
 30
0.0
 10
-42.104600000000005
 20
28.616
 30
0.0
  0
SPLINE
  5
5E
100
AcDbEntity
  8
Ebene 1
370
    35
100
AcDbSpline
210
0.0
220
0.0
230
1.0
 70
     0
 71
     3
 72
     8
 73
     4
 74
     0
 42
0.0000000001
 43
0.0000000001
 40
0.0
 40
0.0
 40
0.0
 40
0.0
 40
1.0
 40
1.0
 40
1.0
 40
1.0
 10
-41.834400000000002
 20
27.651
 30
0.0
 10
-41.834400000000002
 20
27.651
 30
0.0
 10
-41.834400000000002
 20
29.3108
 30
0.0
 10
-41.834400000000002
 20
29.3108
 30
0.0
  0
SPLINE
  5
5F
100
AcDbEntity
  8
Ebene 1
370
    35
100
AcDbSpline
210
0.0
220
0.0
230
1.0
 70
     0
 71
     3
 72
     8
 73
     4
 74
     0
 42
0.0000000001
 43
0.0000000001
 40
0.0
 40
0.0
 40
0.0
 40
0.0
 40
1.0
 40
1.0
 40
1.0
 40
1.0
 10
-41.5642
 20
27.651
 30
0.0
 10
-41.5642
 20
27.651
 30
0.0
 10
-41.5642
 20
29.3108
 30
0.0
 10
-41.5642
 20
29.3108
 30
0.0
  0
SPLINE
  5
60
100
AcDbEntity
  8
Ebene 1
370
    35
100
AcDbSpline
210
0.0
220
0.0
230
1.0
 70
     0
 71
     3
 72
     8
 73
     4
 74
     0
 42
0.0000000001
 43
0.0000000001
 40
0.0
 40
0.0
 40
0.0
 40
0.0
 40
1.0
 40
1.0
 40
1.0
 40
1.0
 10
-42.104600000000005
 20
28.616
 30
0.0
 10
-42.104600000000005
 20
28.616
 30
0.0
 10
-42.104600000000005
 20
29.3108
 30
0.0
 10
-42.104600000000005
 20
29.3108
 30
0.0
  0
SPLINE
  5
61
100
AcDbEntity
  8
Ebene 1
370
    35
100
AcDbSpline
210
0.0
220
0.0
230
1.0
 70
     0
 71
     3
 72
     8
 73
     4
 74
     0
 42
0.0000000001
 43
0.0000000001
 40
0.0
 40
0.0
 40
0.0
 40
0.0
 40
1.0
 40
1.0
 40
1.0
 40
1.0
 10
-36.044400000000003
 20
25.642100000000003
 30
0.0
 10
-36.044400000000003
 20
25.642100000000003
 30
0.0
 10
-36.777799999999999
 20
25.642100000000003
 30
0.0
 10
-36.777799999999999
 20
25.642100000000003
 30
0.0
  0
SPLINE
  5
62
100
AcDbEntity
  8
Ebene 1
370
    35
100
AcDbSpline
210
0.0
220
0.0
230
1.0
 70
     0
 71
     3
 72
     8
 73
     4
 74
     0
 42
0.0000000001
 43
0.0000000001
 40
0.0
 40
0.0
 40
0.0
 40
0.0
 40
1.0
 40
1.0
 40
1.0
 40
1.0
 10
-36.970800000000004
 20
27.072000000000003
 30
0.0
 10
-36.970800000000004
 20
27.072000000000003
 30
0.0
 10
-36.970800000000004
 20
26.1053
 30
0.0
 10
-36.970800000000004
 20
26.1053
 30
0.0
  0
SPLINE
  5
63
100
AcDbEntity
  8
Ebene 1
370
    35
100
AcDbSpline
210
0.0
220
0.0
230
1.0
 70
     0
 71
     3
 72
    12
 73
     8
 74
     0
 42
0.0000000001
 43
0.0000000001
 40
0.0
 40
0.0
 40
0.0
 40
0.0
 40
0.5
 40
0.5
 40
0.5
 40
0.5
 40
1.0
 40
1.0
 40
1.0
 40
1.0
 10
3.7521
 20
29.3108
 30
0.0
 10
3.7521
 20
29.460100000000001
 30
0.0
 10
3.6311
 20
29.581000000000003
 30
0.0
 10
3.4818000000000002
 20
29.581000000000003
 30
0.0
 10
3.4818000000000002
 20
29.581000000000003
 30
0.0
 10
3.3327
 20
29.581000000000003
 30
0.0
 10
3.2116000000000002
 20
29.460100000000001
 30
0.0
 10
3.2116000000000002
 20
29.3108
 30
0.0
  0
SPLINE
  5
64
100
AcDbEntity
  8
Ebene 1
370
    35
100
AcDbSpline
210
0.0
220
0.0
230
1.0
 70
     0
 71
     3
 72
     8
 73
     4
 74
     0
 42
0.0000000001
 43
0.0000000001
 40
0.0
 40
0.0
 40
0.0
 40
0.0
 40
1.0
 40
1.0
 40
1.0
 40
1.0
 10
-37.241100000000003
 20
27.072000000000003
 30
0.0
 10
-37.241100000000003
 20
27.072000000000003
 30
0.0
 10
-37.241100000000003
 20
26.1053
 30
0.0
 10
-37.241100000000003
 20
26.1053
 30
0.0
  0
SPLINE
  5
65
100
AcDbEntity
  8
Ebene 1
370
    35
100
AcDbSpline
210
0.0
220
0.0
230
1.0
 70
     0
 71
     3
 72
     8
 73
     4
 74
     0
 42
0.0000000001
 43
0.0000000001
 40
0.0
 40
0.0
 40
0.0
 40
0.0
 40
1.0
 40
1.0
 40
1.0
 40
1.0
 10
3.4818000000000002
 20
28.616
 30
0.0
 10
3.4818000000000002
 20
28.616
 30
0.0
 10
3.7521
 20
28.616
 30
0.0
 10
3.7521
 20
28.616
 30
0.0
  0
SPLINE
  5
66
100
AcDbEntity
  8
Ebene 1
370
    35
100
AcDbSpline
210
0.0
220
0.0
230
1.0
 70
     0
 71
     3
 72
     8
 73
     4
 74
     0
 42
0.0000000001
 43
0.0000000001
 40
0.0
 40
0.0
 40
0.0
 40
0.0
 40
1.0
 40
1.0
 40
1.0
 40
1.0
 10
3.4818000000000002
 20
27.651
 30
0.0
 10
3.4818000000000002
 20
27.651
 30
0.0
 10
3.4818000000000002
 20
29.3108
 30
0.0
 10
3.4818000000000002
 20
29.3108
 30
0.0
  0
SPLINE
  5
67
100
AcDbEntity
  8
Ebene 1
370
    35
100
AcDbSpline
210
0.0
220
0.0
230
1.0
 70
     0
 71
     3
 72
     8
 73
     4
 74
     0
 42
0.0000000001
 43
0.0000000001
 40
0.0
 40
0.0
 40
0.0
 40
0.0
 40
1.0
 40
1.0
 40
1.0
 40
1.0
 10
-0.5325
 20
27.458000000000002
 30
0.0
 10
-0.5325
 20
27.458000000000002
 30
0.0
 10
-19.176300000000001
 20
27.458000000000002
 30
0.0
 10
-19.176300000000001
 20
27.458000000000002
 30
0.0
  0
SPLINE
  5
68
100
AcDbEntity
  8
Ebene 1
370
    35
100
AcDbSpline
210
0.0
220
0.0
230
1.0
 70
     0
 71
     3
 72
     8
 73
     4
 74
     0
 42
0.0000000001
 43
0.0000000001
 40
0.0
 40
0.0
 40
0.0
 40
0.0
 40
1.0
 40
1.0
 40
1.0
 40
1.0
 10
-41.834400000000002
 20
29.581000000000003
 30
0.0
 10
-41.834400000000002
 20
29.581000000000003
 30
0.0
 10
-19.176300000000001
 20
29.581000000000003
 30
0.0
 10
-19.176300000000001
 20
29.581000000000003
 30
0.0
  0
SPLINE
  5
69
100
AcDbEntity
  8
Ebene 1
370
    35
100
AcDbSpline
210
0.0
220
0.0
230
1.0
 70
     0
 71
     3
 72
     8
 73
     4
 74
     0
 42
0.0000000001
 43
0.0000000001
 40
0.0
 40
0.0
 40
0.0
 40
0.0
 40
1.0
 40
1.0
 40
1.0
 40
1.0
 10
-41.371200000000002
 20
27.458000000000002
 30
0.0
 10
-41.371200000000002
 20
27.458000000000002
 30
0.0
 10
-37.3568
 20
27.458000000000002
 30
0.0
 10
-37.3568
 20
27.458000000000002
 30
0.0
  0
SPLINE
  5
6A
100
AcDbEntity
  8
Ebene 1
370
    35
100
AcDbSpline
210
0.0
220
0.0
230
1.0
 70
     0
 71
     3
 72
     8
 73
     4
 74
     0
 42
0.0000000001
 43
0.0000000001
 40
0.0
 40
0.0
 40
0.0
 40
0.0
 40
1.0
 40
1.0
 40
1.0
 40
1.0
 10
-19.176300000000001
 20
25.912300000000002
 30
0.0
 10
-19.176300000000001
 20
25.912300000000002
 30
0.0
 10
-36.044400000000003
 20
25.912300000000002
 30
0.0
 10
-36.044400000000003
 20
25.912300000000002
 30
0.0
  0
SPLINE
  5
6B
100
AcDbEntity
  8
Ebene 1
370
    35
100
AcDbSpline
210
0.0
220
0.0
230
1.0
 70
     0
 71
     3
 72
     8
 73
     4
 74
     0
 42
0.0000000001
 43
0.0000000001
 40
0.0
 40
0.0
 40
0.0
 40
0.0
 40
1.0
 40
1.0
 40
1.0
 40
1.0
 10
3.2116000000000002
 20
27.651
 30
0.0
 10
3.2116000000000002
 20
27.651
 30
0.0
 10
3.2116000000000002
 20
29.3108
 30
0.0
 10
3.2116000000000002
 20
29.3108
 30
0.0
  0
SPLINE
  5
6C
100
AcDbEntity
  8
Ebene 1
370
    35
100
AcDbSpline
210
0.0
220
0.0
230
1.0
 70
     0
 71
     3
 72
     8
 73
     4
 74
     0
 42
0.0000000001
 43
0.0000000001
 40
0.0
 40
0.0
 40
0.0
 40
0.0
 40
1.0
 40
1.0
 40
1.0
 40
1.0
 10
-37.3568
 20
27.458000000000002
 30
0.0
 10
-37.3568
 20
27.458000000000002
 30
0.0
 10
-19.176300000000001
 20
27.458000000000002
 30
0.0
 10
-19.176300000000001
 20
27.458000000000002
 30
0.0
  0
SPLINE
  5
6D
100
AcDbEntity
  8
Ebene 1
370
    35
100
AcDbSpline
210
0.0
220
0.0
230
1.0
 70
     0
 71
     3
 72
     8
 73
     4
 74
     0
 42
0.0000000001
 43
0.0000000001
 40
0.0
 40
0.0
 40
0.0
 40
0.0
 40
1.0
 40
1.0
 40
1.0
 40
1.0
 10
-36.044400000000003
 20
25.912300000000002
 30
0.0
 10
-36.044400000000003
 20
25.912300000000002
 30
0.0
 10
-36.777799999999999
 20
25.912300000000002
 30
0.0
 10
-36.777799999999999
 20
25.912300000000002
 30
0.0
  0
SPLINE
  5
6E
100
AcDbEntity
  8
Ebene 1
370
    35
100
AcDbSpline
210
0.0
220
0.0
230
1.0
 70
     0
 71
     3
 72
     8
 73
     4
 74
     0
 42
0.0000000001
 43
0.0000000001
 40
0.0
 40
0.0
 40
0.0
 40
0.0
 40
1.0
 40
1.0
 40
1.0
 40
1.0
 10
-2.3082000000000003
 20
25.912300000000002
 30
0.0
 10
-2.3082000000000003
 20
25.912300000000002
 30
0.0
 10
-1.5747
 20
25.912300000000002
 30
0.0
 10
-1.5747
 20
25.912300000000002
 30
0.0
  0
SPLINE
  5
6F
100
AcDbEntity
  8
Ebene 1
370
    35
100
AcDbSpline
210
0.0
220
0.0
230
1.0
 70
     0
 71
     3
 72
     8
 73
     4
 74
     0
 42
0.0000000001
 43
0.0000000001
 40
0.0
 40
0.0
 40
0.0
 40
0.0
 40
1.0
 40
1.0
 40
1.0
 40
1.0
 10
3.7521
 20
28.616
 30
0.0
 10
3.7521
 20
28.616
 30
0.0
 10
3.7521
 20
29.3108
 30
0.0
 10
3.7521
 20
29.3108
 30
0.0
  0
SPLINE
  5
70
100
AcDbEntity
  8
Ebene 1
370
    35
100
AcDbSpline
210
0.0
220
0.0
230
1.0
 70
     0
 71
     3
 72
     8
 73
     4
 74
     0
 42
0.0000000001
 43
0.0000000001
 40
0.0
 40
0.0
 40
0.0
 40
0.0
 40
1.0
 40
1.0
 40
1.0
 40
1.0
 10
-2.3082000000000003
 20
25.642100000000003
 30
0.0
 10
-2.3082000000000003
 20
25.642100000000003
 30
0.0
 10
-1.5747
 20
25.642100000000003
 30
0.0
 10
-1.5747
 20
25.642100000000003
 30
0.0
  0
SPLINE
  5
71
100
AcDbEntity
  8
Ebene 1
370
    35
100
AcDbSpline
210
0.0
220
0.0
230
1.0
 70
     0
 71
     3
 72
     8
 73
     4
 74
     0
 42
0.0000000001
 43
0.0000000001
 40
0.0
 40
0.0
 40
0.0
 40
0.0
 40
1.0
 40
1.0
 40
1.0
 40
1.0
 10
-19.176300000000001
 20
25.912300000000002
 30
0.0
 10
-19.176300000000001
 20
25.912300000000002
 30
0.0
 10
-2.3082000000000003
 20
25.912300000000002
 30
0.0
 10
-2.3082000000000003
 20
25.912300000000002
 30
0.0
  0
SPLINE
  5
72
100
AcDbEntity
  8
Ebene 1
370
    35
100
AcDbSpline
210
0.0
220
0.0
230
1.0
 70
     0
 71
     3
 72
     8
 73
     4
 74
     0
 42
0.0000000001
 43
0.0000000001
 40
0.0
 40
0.0
 40
0.0
 40
0.0
 40
1.0
 40
1.0
 40
1.0
 40
1.0
 10
-1.3817000000000002
 20
27.072000000000003
 30
0.0
 10
-1.3817000000000002
 20
27.072000000000003
 30
0.0
 10
-1.3817000000000002
 20
26.1053
 30
0.0
 10
-1.3817000000000002
 20
26.1053
 30
0.0
  0
SPLINE
  5
73
100
AcDbEntity
  8
Ebene 1
370
    35
100
AcDbSpline
210
0.0
220
0.0
230
1.0
 70
     0
 71
     3
 72
     8
 73
     4
 74
     0
 42
0.0000000001
 43
0.0000000001
 40
0.0
 40
0.0
 40
0.0
 40
0.0
 40
1.0
 40
1.0
 40
1.0
 40
1.0
 10
-1.1115000000000002
 20
27.072000000000003
 30
0.0
 10
-1.1115000000000002
 20
27.072000000000003
 30
0.0
 10
-1.1115000000000002
 20
26.1053
 30
0.0
 10
-1.1115000000000002
 20
26.1053
 30
0.0
  0
SPLINE
  5
74
100
AcDbEntity
  8
Ebene 1
370
    35
100
AcDbSpline
210
0.0
220
0.0
230
1.0
 70
     0
 71
     3
 72
     8
 73
     4
 74
     0
 42
0.0000000001
 43
0.0000000001
 40
0.0
 40
0.0
 40
0.0
 40
0.0
 40
1.0
 40
1.0
 40
1.0
 40
1.0
 10
1.8606
 20
27.458000000000002
 30
0.0
 10
1.8606
 20
27.458000000000002
 30
0.0
 10
1.8606
 20
27.458000000000002
 30
0.0
 10
1.8606
 20
27.458000000000002
 30
0.0
  0
SPLINE
  5
75
100
AcDbEntity
  8
Ebene 1
370
    35
100
AcDbSpline
210
0.0
220
0.0
230
1.0
 70
     0
 71
     3
 72
     8
 73
     4
 74
     0
 42
0.0000000001
 43
0.0000000001
 40
0.0
 40
0.0
 40
0.0
 40
0.0
 40
1.0
 40
1.0
 40
1.0
 40
1.0
 10
-3.5433000000000003
 20
27.458000000000002
 30
0.0
 10
-3.5433000000000003
 20
27.458000000000002
 30
0.0
 10
-3.5433000000000003
 20
27.458000000000002
 30
0.0
 10
-3.5433000000000003
 20
27.458000000000002
 30
0.0
  0
SPLINE
  5
76
100
AcDbEntity
  8
Ebene 1
370
    35
100
AcDbSpline
210
0.0
220
0.0
230
1.0
 70
     0
 71
     3
 72
     8
 73
     4
 74
     0
 42
0.0000000001
 43
0.0000000001
 40
0.0
 40
0.0
 40
0.0
 40
0.0
 40
1.0
 40
1.0
 40
1.0
 40
1.0
 10
-3.5433000000000003
 20
27.458000000000002
 30
0.0
 10
-3.5433000000000003
 20
27.458000000000002
 30
0.0
 10
-3.5433000000000003
 20
27.458000000000002
 30
0.0
 10
-3.5433000000000003
 20
27.458000000000002
 30
0.0
  0
SPLINE
  5
77
100
AcDbEntity
  8
Ebene 1
370
    35
100
AcDbSpline
210
0.0
220
0.0
230
1.0
 70
     0
 71
     3
 72
     8
 73
     4
 74
     0
 42
0.0000000001
 43
0.0000000001
 40
0.0
 40
0.0
 40
0.0
 40
0.0
 40
1.0
 40
1.0
 40
1.0
 40
1.0
 10
1.8606
 20
27.458000000000002
 30
0.0
 10
1.8606
 20
27.458000000000002
 30
0.0
 10
1.8606
 20
27.458000000000002
 30
0.0
 10
1.8606
 20
27.458000000000002
 30
0.0
  0
SPLINE
  5
78
100
AcDbEntity
  8
Ebene 1
370
    35
100
AcDbSpline
210
0.0
220
0.0
230
1.0
 70
     0
 71
     3
 72
     8
 73
     4
 74
     0
 42
0.0000000001
 43
0.0000000001
 40
0.0
 40
0.0
 40
0.0
 40
0.0
 40
1.0
 40
1.0
 40
1.0
 40
1.0
 10
1.6676
 20
27.651
 30
0.0
 10
1.6676
 20
27.651
 30
0.0
 10
-3.3503000000000003
 20
27.651
 30
0.0
 10
-3.3503000000000003
 20
27.651
 30
0.0
  0
SPLINE
  5
79
100
AcDbEntity
  8
Ebene 1
370
    35
100
AcDbSpline
210
0.0
220
0.0
230
1.0
 70
     0
 71
     3
 72
     8
 73
     4
 74
     0
 42
0.0000000001
 43
0.0000000001
 40
0.0
 40
0.0
 40
0.0
 40
0.0
 40
1.0
 40
1.0
 40
1.0
 40
1.0
 10
-36.970800000000004
 20
27.068200000000001
 30
0.0
 10
-36.970800000000004
 20
27.068200000000001
 30
0.0
 10
-36.970800000000004
 20
26.1053
 30
0.0
 10
-36.970800000000004
 20
26.1053
 30
0.0
  0
SPLINE
  5
7A
100
AcDbEntity
  8
Ebene 1
370
    35
100
AcDbSpline
210
0.0
220
0.0
230
1.0
 70
     0
 71
     3
 72
     8
 73
     4
 74
     0
 42
0.0000000001
 43
0.0000000001
 40
0.0
 40
0.0
 40
0.0
 40
0.0
 40
1.0
 40
1.0
 40
1.0
 40
1.0
 10
-40.213200000000001
 20
27.458000000000002
 30
0.0
 10
-40.213200000000001
 20
27.458000000000002
 30
0.0
 10
-40.213200000000001
 20
27.458000000000002
 30
0.0
 10
-40.213200000000001
 20
27.458000000000002
 30
0.0
  0
SPLINE
  5
7B
100
AcDbEntity
  8
Ebene 1
370
    35
100
AcDbSpline
210
0.0
220
0.0
230
1.0
 70
     0
 71
     3
 72
     8
 73
     4
 74
     0
 42
0.0000000001
 43
0.0000000001
 40
0.0
 40
0.0
 40
0.0
 40
0.0
 40
1.0
 40
1.0
 40
1.0
 40
1.0
 10
-34.8093
 20
27.458000000000002
 30
0.0
 10
-34.8093
 20
27.458000000000002
 30
0.0
 10
-34.8093
 20
27.458000000000002
 30
0.0
 10
-34.8093
 20
27.458000000000002
 30
0.0
  0
SPLINE
  5
7C
100
AcDbEntity
  8
Ebene 1
370
    35
100
AcDbSpline
210
0.0
220
0.0
230
1.0
 70
     0
 71
     3
 72
     8
 73
     4
 74
     0
 42
0.0000000001
 43
0.0000000001
 40
0.0
 40
0.0
 40
0.0
 40
0.0
 40
1.0
 40
1.0
 40
1.0
 40
1.0
 10
-40.213200000000001
 20
27.458000000000002
 30
0.0
 10
-40.213200000000001
 20
27.458000000000002
 30
0.0
 10
-40.213200000000001
 20
27.458000000000002
 30
0.0
 10
-40.213200000000001
 20
27.458000000000002
 30
0.0
  0
SPLINE
  5
7D
100
AcDbEntity
  8
Ebene 1
370
    35
100
AcDbSpline
210
0.0
220
0.0
230
1.0
 70
     0
 71
     3
 72
     8
 73
     4
 74
     0
 42
0.0000000001
 43
0.0000000001
 40
0.0
 40
0.0
 40
0.0
 40
0.0
 40
1.0
 40
1.0
 40
1.0
 40
1.0
 10
-40.020200000000003
 20
27.651
 30
0.0
 10
-40.020200000000003
 20
27.651
 30
0.0
 10
-35.002299999999998
 20
27.651
 30
0.0
 10
-35.002299999999998
 20
27.651
 30
0.0
  0
SPLINE
  5
7E
100
AcDbEntity
  8
Ebene 1
370
    35
100
AcDbSpline
210
0.0
220
0.0
230
1.0
 70
     0
 71
     3
 72
     8
 73
     4
 74
     0
 42
0.0000000001
 43
0.0000000001
 40
0.0
 40
0.0
 40
0.0
 40
0.0
 40
1.0
 40
1.0
 40
1.0
 40
1.0
 10
-35.446000000000005
 20
22.203200000000002
 30
0.0
 10
-35.446000000000005
 20
22.203200000000002
 30
0.0
 10
-19.176300000000001
 20
22.203200000000002
 30
0.0
 10
-19.176300000000001
 20
22.203200000000002
 30
0.0
  0
SPLINE
  5
7F
100
AcDbEntity
  8
Ebene 1
370
    35
100
AcDbSpline
210
0.0
220
0.0
230
1.0
 70
     0
 71
     3
 72
     8
 73
     4
 74
     0
 42
0.0000000001
 43
0.0000000001
 40
0.0
 40
0.0
 40
0.0
 40
0.0
 40
1.0
 40
1.0
 40
1.0
 40
1.0
 10
-35.683
 20
22.064500000000002
 30
0.0
 10
-35.683
 20
22.064500000000002
 30
0.0
 10
-19.176300000000001
 20
22.064500000000002
 30
0.0
 10
-19.176300000000001
 20
22.064500000000002
 30
0.0
  0
SPLINE
  5
80
100
AcDbEntity
  8
Ebene 1
370
    35
100
AcDbSpline
210
0.0
220
0.0
230
1.0
 70
     0
 71
     3
 72
    12
 73
     8
 74
     0
 42
0.0000000001
 43
0.0000000001
 40
0.0
 40
0.0
 40
0.0
 40
0.0
 40
0.5
 40
0.5
 40
0.5
 40
0.5
 40
1.0
 40
1.0
 40
1.0
 40
1.0
 10
-35.841799999999999
 20
23.7121
 30
0.0
 10
-35.942500000000003
 20
23.7121
 30
0.0
 10
-36.036900000000003
 20
23.663
 30
0.0
 10
-36.094700000000003
 20
23.580500000000001
 30
0.0
 10
-36.094700000000003
 20
23.580500000000001
 30
0.0
 10
-36.152500000000003
 20
23.498000000000001
 30
0.0
 10
-36.166400000000003
 20
23.392400000000002
 30
0.0
 10
-36.131900000000002
 20
23.297700000000003
 30
0.0
  0
SPLINE
  5
81
100
AcDbEntity
  8
Ebene 1
370
    35
100
AcDbSpline
210
0.0
220
0.0
230
1.0
 70
     0
 71
     3
 72
     8
 73
     4
 74
     0
 42
0.0000000001
 43
0.0000000001
 40
0.0
 40
0.0
 40
0.0
 40
0.0
 40
1.0
 40
1.0
 40
1.0
 40
1.0
 10
-19.176300000000001
 20
23.4419
 30
0.0
 10
-19.176300000000001
 20
23.4419
 30
0.0
 10
-35.896900000000002
 20
23.4419
 30
0.0
 10
-35.896900000000002
 20
23.4419
 30
0.0
  0
SPLINE
  5
82
100
AcDbEntity
  8
Ebene 1
370
    35
100
AcDbSpline
210
0.0
220
0.0
230
1.0
 70
     0
 71
     3
 72
     8
 73
     4
 74
     0
 42
0.0000000001
 43
0.0000000001
 40
0.0
 40
0.0
 40
0.0
 40
0.0
 40
1.0
 40
1.0
 40
1.0
 40
1.0
 10
-2.9065000000000003
 20
22.203200000000002
 30
0.0
 10
-2.9065000000000003
 20
22.203200000000002
 30
0.0
 10
-19.176300000000001
 20
22.203200000000002
 30
0.0
 10
-19.176300000000001
 20
22.203200000000002
 30
0.0
  0
SPLINE
  5
83
100
AcDbEntity
  8
Ebene 1
370
    35
100
AcDbSpline
210
0.0
220
0.0
230
1.0
 70
     0
 71
     3
 72
     8
 73
     4
 74
     0
 42
0.0000000001
 43
0.0000000001
 40
0.0
 40
0.0
 40
0.0
 40
0.0
 40
1.0
 40
1.0
 40
1.0
 40
1.0
 10
-2.6694
 20
22.064500000000002
 30
0.0
 10
-2.6694
 20
22.064500000000002
 30
0.0
 10
-19.176300000000001
 20
22.064500000000002
 30
0.0
 10
-19.176300000000001
 20
22.064500000000002
 30
0.0
  0
SPLINE
  5
84
100
AcDbEntity
  8
Ebene 1
370
    35
100
AcDbSpline
210
0.0
220
0.0
230
1.0
 70
     0
 71
     3
 72
    12
 73
     8
 74
     0
 42
0.0000000001
 43
0.0000000001
 40
0.0
 40
0.0
 40
0.0
 40
0.0
 40
0.5
 40
0.5
 40
0.5
 40
0.5
 40
1.0
 40
1.0
 40
1.0
 40
1.0
 10
-2.2204999999999999
 20
23.297700000000003
 30
0.0
 10
-2.1867000000000001
 20
23.390700000000002
 30
0.0
 10
-2.1995
 20
23.494500000000002
 30
0.0
 10
-2.2551000000000001
 20
23.5764
 30
0.0
 10
-2.2551000000000001
 20
23.5764
 30
0.0
 10
-2.3106
 20
23.6585
 30
0.0
 10
-2.4022000000000001
 20
23.7088
 30
0.0
 10
-2.5012000000000003
 20
23.712
 30
0.0
  0
SPLINE
  5
85
100
AcDbEntity
  8
Ebene 1
370
    35
100
AcDbSpline
210
0.0
220
0.0
230
1.0
 70
     0
 71
     3
 72
     8
 73
     4
 74
     0
 42
0.0000000001
 43
0.0000000001
 40
0.0
 40
0.0
 40
0.0
 40
0.0
 40
1.0
 40
1.0
 40
1.0
 40
1.0
 10
-19.176300000000001
 20
23.4419
 30
0.0
 10
-19.176300000000001
 20
23.4419
 30
0.0
 10
-2.4557000000000002
 20
23.4419
 30
0.0
 10
-2.4557000000000002
 20
23.4419
 30
0.0
  0
SPLINE
  5
86
100
AcDbEntity
  8
Ebene 1
370
    35
100
AcDbSpline
210
0.0
220
0.0
230
1.0
 70
     0
 71
     3
 72
     8
 73
     4
 74
     0
 42
0.0000000001
 43
0.0000000001
 40
0.0
 40
0.0
 40
0.0
 40
0.0
 40
1.0
 40
1.0
 40
1.0
 40
1.0
 10
-35.683
 20
22.064500000000002
 30
0.0
 10
-35.683
 20
22.064500000000002
 30
0.0
 10
-35.446000000000005
 20
22.203200000000002
 30
0.0
 10
-35.446000000000005
 20
22.203200000000002
 30
0.0
  0
SPLINE
  5
87
100
AcDbEntity
  8
Ebene 1
370
    35
100
AcDbSpline
210
0.0
220
0.0
230
1.0
 70
     0
 71
     3
 72
     8
 73
     4
 74
     0
 42
0.0000000001
 43
0.0000000001
 40
0.0
 40
0.0
 40
0.0
 40
0.0
 40
1.0
 40
1.0
 40
1.0
 40
1.0
 10
-36.131900000000002
 20
23.297700000000003
 30
0.0
 10
-36.131900000000002
 20
23.297700000000003
 30
0.0
 10
-35.683
 20
22.064500000000002
 30
0.0
 10
-35.683
 20
22.064500000000002
 30
0.0
  0
SPLINE
  5
88
100
AcDbEntity
  8
Ebene 1
370
    35
100
AcDbSpline
210
0.0
220
0.0
230
1.0
 70
     0
 71
     3
 72
     8
 73
     4
 74
     0
 42
0.0000000001
 43
0.0000000001
 40
0.0
 40
0.0
 40
0.0
 40
0.0
 40
1.0
 40
1.0
 40
1.0
 40
1.0
 10
-35.896900000000002
 20
23.4419
 30
0.0
 10
-35.896900000000002
 20
23.4419
 30
0.0
 10
-35.446000000000005
 20
22.203200000000002
 30
0.0
 10
-35.446000000000005
 20
22.203200000000002
 30
0.0
  0
SPLINE
  5
89
100
AcDbEntity
  8
Ebene 1
370
    35
100
AcDbSpline
210
0.0
220
0.0
230
1.0
 70
     0
 71
     3
 72
     8
 73
     4
 74
     0
 42
0.0000000001
 43
0.0000000001
 40
0.0
 40
0.0
 40
0.0
 40
0.0
 40
1.0
 40
1.0
 40
1.0
 40
1.0
 10
-2.6694
 20
22.064500000000002
 30
0.0
 10
-2.6694
 20
22.064500000000002
 30
0.0
 10
-2.9065000000000003
 20
22.203200000000002
 30
0.0
 10
-2.9065000000000003
 20
22.203200000000002
 30
0.0
  0
SPLINE
  5
8A
100
AcDbEntity
  8
Ebene 1
370
    35
100
AcDbSpline
210
0.0
220
0.0
230
1.0
 70
     0
 71
     3
 72
     8
 73
     4
 74
     0
 42
0.0000000001
 43
0.0000000001
 40
0.0
 40
0.0
 40
0.0
 40
0.0
 40
1.0
 40
1.0
 40
1.0
 40
1.0
 10
-2.2204999999999999
 20
23.297700000000003
 30
0.0
 10
-2.2204999999999999
 20
23.297700000000003
 30
0.0
 10
-2.6694
 20
22.064500000000002
 30
0.0
 10
-2.6694
 20
22.064500000000002
 30
0.0
  0
SPLINE
  5
8B
100
AcDbEntity
  8
Ebene 1
370
    35
100
AcDbSpline
210
0.0
220
0.0
230
1.0
 70
     0
 71
     3
 72
     8
 73
     4
 74
     0
 42
0.0000000001
 43
0.0000000001
 40
0.0
 40
0.0
 40
0.0
 40
0.0
 40
1.0
 40
1.0
 40
1.0
 40
1.0
 10
-2.4557000000000002
 20
23.4419
 30
0.0
 10
-2.4557000000000002
 20
23.4419
 30
0.0
 10
-2.9065000000000003
 20
22.203200000000002
 30
0.0
 10
-2.9065000000000003
 20
22.203200000000002
 30
0.0
  0
SPLINE
  5
8C
100
AcDbEntity
  8
Ebene 1
370
    20
  6
New Line1
100
AcDbSpline
210
0.0
220
0.0
230
1.0
 70
     0
 71
     3
 72
     8
 73
     4
 74
     0
 42
0.0000000001
 43
0.0000000001
 40
0.0
 40
0.0
 40
0.0
 40
0.0
 40
1.0
 40
1.0
 40
1.0
 40
1.0
 10
-19.176300000000001
 20
29.581000000000003
 30
0.0
 10
-19.176300000000001
 20
29.581000000000003
 30
0.0
 10
-19.176300000000001
 20
8.4652000000000012
 30
0.0
 10
-19.176300000000001
 20
8.4652000000000012
 30
0.0
  0
SPLINE
  5
8E
100
AcDbEntity
  8
Ebene 1
370
    20
100
AcDbSpline
210
0.0
220
0.0
230
1.0
 70
     0
 71
     3
 72
     8
 73
     4
 74
     0
 42
0.0000000001
 43
0.0000000001
 40
0.0
 40
0.0
 40
0.0
 40
0.0
 40
1.0
 40
1.0
 40
1.0
 40
1.0
 10
-29.466900000000003
 20
45.561199999999999
 30
0.0
 10
-29.466900000000003
 20
45.561199999999999
 30
0.0
 10
-35.256900000000002
 20
45.561199999999999
 30
0.0
 10
-35.256900000000002
 20
45.561199999999999
 30
0.0
  0
SPLINE
  5
8F
100
AcDbEntity
  8
Ebene 1
370
    20
100
AcDbSpline
210
0.0
220
0.0
230
1.0
 70
     0
 71
     3
 72
     8
 73
     4
 74
     0
 42
0.0000000001
 43
0.0000000001
 40
0.0
 40
0.0
 40
0.0
 40
0.0
 40
1.0
 40
1.0
 40
1.0
 40
1.0
 10
-29.466900000000003
 20
45.561199999999999
 30
0.0
 10
-29.466900000000003
 20
45.561199999999999
 30
0.0
 10
-29.466900000000003
 20
51.351100000000002
 30
0.0
 10
-29.466900000000003
 20
51.351100000000002
 30
0.0
  0
SPLINE
  5
90
100
AcDbEntity
  8
Ebene 1
370
    20
100
AcDbSpline
210
0.0
220
0.0
230
1.0
 70
     0
 71
     3
 72
     8
 73
     4
 74
     0
 42
0.0000000001
 43
0.0000000001
 40
0.0
 40
0.0
 40
0.0
 40
0.0
 40
1.0
 40
1.0
 40
1.0
 40
1.0
 10
-29.466900000000003
 20
51.351100000000002
 30
0.0
 10
-29.466900000000003
 20
51.351100000000002
 30
0.0
 10
-35.256900000000002
 20
51.351100000000002
 30
0.0
 10
-35.256900000000002
 20
51.351100000000002
 30
0.0
  0
SPLINE
  5
91
100
AcDbEntity
  8
Ebene 1
370
    20
100
AcDbSpline
210
0.0
220
0.0
230
1.0
 70
     0
 71
     3
 72
     8
 73
     4
 74
     0
 42
0.0000000001
 43
0.0000000001
 40
0.0
 40
0.0
 40
0.0
 40
0.0
 40
1.0
 40
1.0
 40
1.0
 40
1.0
 10
-35.256900000000002
 20
45.561199999999999
 30
0.0
 10
-35.256900000000002
 20
45.561199999999999
 30
0.0
 10
-35.256900000000002
 20
51.351100000000002
 30
0.0
 10
-35.256900000000002
 20
51.351100000000002
 30
0.0
  0
SPLINE
  5
92
100
AcDbEntity
  8
Ebene 1
370
    20
100
AcDbSpline
210
0.0
220
0.0
230
1.0
 70
     0
 71
     3
 72
     8
 73
     4
 74
     0
 42
0.0000000001
 43
0.0000000001
 40
0.0
 40
0.0
 40
0.0
 40
0.0
 40
1.0
 40
1.0
 40
1.0
 40
1.0
 10
-2.1579999999999999
 20
8.4652000000000012
 30
0.0
 10
-2.1579999999999999
 20
8.4652000000000012
 30
0.0
 10
-1.512
 20
9.1111000000000004
 30
0.0
 10
-1.512
 20
9.1111000000000004
 30
0.0
  0
SPLINE
  5
93
100
AcDbEntity
  8
Ebene 1
370
    20
100
AcDbSpline
210
0.0
220
0.0
230
1.0
 70
     0
 71
     3
 72
     8
 73
     4
 74
     0
 42
0.0000000001
 43
0.0000000001
 40
0.0
 40
0.0
 40
0.0
 40
0.0
 40
1.0
 40
1.0
 40
1.0
 40
1.0
 10
-2.2503000000000002
 20
9.4647000000000006
 30
0.0
 10
-2.2503000000000002
 20
9.4647000000000006
 30
0.0
 10
-1.4783000000000002
 20
10.236700000000001
 30
0.0
 10
-1.4783000000000002
 20
10.236700000000001
 30
0.0
  0
SPLINE
  5
94
100
AcDbEntity
  8
Ebene 1
370
    20
100
AcDbSpline
210
0.0
220
0.0
230
1.0
 70
     0
 71
     3
 72
     8
 73
     4
 74
     0
 42
0.0000000001
 43
0.0000000001
 40
0.0
 40
0.0
 40
0.0
 40
0.0
 40
1.0
 40
1.0
 40
1.0
 40
1.0
 10
-2.2503000000000002
 20
10.5565
 30
0.0
 10
-2.2503000000000002
 20
10.5565
 30
0.0
 10
-1.4783000000000002
 20
11.3285
 30
0.0
 10
-1.4783000000000002
 20
11.3285
 30
0.0
  0
SPLINE
  5
95
100
AcDbEntity
  8
Ebene 1
370
    20
100
AcDbSpline
210
0.0
220
0.0
230
1.0
 70
     0
 71
     3
 72
     8
 73
     4
 74
     0
 42
0.0000000001
 43
0.0000000001
 40
0.0
 40
0.0
 40
0.0
 40
0.0
 40
1.0
 40
1.0
 40
1.0
 40
1.0
 10
-2.2503000000000002
 20
11.648200000000001
 30
0.0
 10
-2.2503000000000002
 20
11.648200000000001
 30
0.0
 10
-1.4783000000000002
 20
12.420200000000001
 30
0.0
 10
-1.4783000000000002
 20
12.420200000000001
 30
0.0
  0
SPLINE
  5
96
100
AcDbEntity
  8
Ebene 1
370
    20
100
AcDbSpline
210
0.0
220
0.0
230
1.0
 70
     0
 71
     3
 72
     8
 73
     4
 74
     0
 42
0.0000000001
 43
0.0000000001
 40
0.0
 40
0.0
 40
0.0
 40
0.0
 40
1.0
 40
1.0
 40
1.0
 40
1.0
 10
-2.2503000000000002
 20
12.74
 30
0.0
 10
-2.2503000000000002
 20
12.74
 30
0.0
 10
-1.4783000000000002
 20
13.512
 30
0.0
 10
-1.4783000000000002
 20
13.512
 30
0.0
  0
SPLINE
  5
97
100
AcDbEntity
  8
Ebene 1
370
    20
100
AcDbSpline
210
0.0
220
0.0
230
1.0
 70
     0
 71
     3
 72
     8
 73
     4
 74
     0
 42
0.0000000001
 43
0.0000000001
 40
0.0
 40
0.0
 40
0.0
 40
0.0
 40
1.0
 40
1.0
 40
1.0
 40
1.0
 10
-2.2503000000000002
 20
13.831800000000001
 30
0.0
 10
-2.2503000000000002
 20
13.831800000000001
 30
0.0
 10
-1.4783000000000002
 20
14.603800000000001
 30
0.0
 10
-1.4783000000000002
 20
14.603800000000001
 30
0.0
  0
SPLINE
  5
98
100
AcDbEntity
  8
Ebene 1
370
    20
100
AcDbSpline
210
0.0
220
0.0
230
1.0
 70
     0
 71
     3
 72
     8
 73
     4
 74
     0
 42
0.0000000001
 43
0.0000000001
 40
0.0
 40
0.0
 40
0.0
 40
0.0
 40
1.0
 40
1.0
 40
1.0
 40
1.0
 10
-2.2503000000000002
 20
14.923500000000001
 30
0.0
 10
-2.2503000000000002
 20
14.923500000000001
 30
0.0
 10
-1.4783000000000002
 20
15.695500000000001
 30
0.0
 10
-1.4783000000000002
 20
15.695500000000001
 30
0.0
  0
SPLINE
  5
99
100
AcDbEntity
  8
Ebene 1
370
    20
100
AcDbSpline
210
0.0
220
0.0
230
1.0
 70
     0
 71
     3
 72
     8
 73
     4
 74
     0
 42
0.0000000001
 43
0.0000000001
 40
0.0
 40
0.0
 40
0.0
 40
0.0
 40
1.0
 40
1.0
 40
1.0
 40
1.0
 10
-2.2503000000000002
 20
16.0153
 30
0.0
 10
-2.2503000000000002
 20
16.0153
 30
0.0
 10
-1.4783000000000002
 20
16.787300000000002
 30
0.0
 10
-1.4783000000000002
 20
16.787300000000002
 30
0.0
  0
SPLINE
  5
9A
100
AcDbEntity
  8
Ebene 1
370
    20
100
AcDbSpline
210
0.0
220
0.0
230
1.0
 70
     0
 71
     3
 72
     8
 73
     4
 74
     0
 42
0.0000000001
 43
0.0000000001
 40
0.0
 40
0.0
 40
0.0
 40
0.0
 40
1.0
 40
1.0
 40
1.0
 40
1.0
 10
-2.2503000000000002
 20
17.107099999999999
 30
0.0
 10
-2.2503000000000002
 20
17.107099999999999
 30
0.0
 10
-1.4783000000000002
 20
17.879100000000001
 30
0.0
 10
-1.4783000000000002
 20
17.879100000000001
 30
0.0
  0
SPLINE
  5
9B
100
AcDbEntity
  8
Ebene 1
370
    20
100
AcDbSpline
210
0.0
220
0.0
230
1.0
 70
     0
 71
     3
 72
     8
 73
     4
 74
     0
 42
0.0000000001
 43
0.0000000001
 40
0.0
 40
0.0
 40
0.0
 40
0.0
 40
1.0
 40
1.0
 40
1.0
 40
1.0
 10
-2.2503000000000002
 20
18.198800000000002
 30
0.0
 10
-2.2503000000000002
 20
18.198800000000002
 30
0.0
 10
-1.4783000000000002
 20
18.970800000000001
 30
0.0
 10
-1.4783000000000002
 20
18.970800000000001
 30
0.0
  0
SPLINE
  5
9C
100
AcDbEntity
  8
Ebene 1
370
    20
100
AcDbSpline
210
0.0
220
0.0
230
1.0
 70
     0
 71
     3
 72
     8
 73
     4
 74
     0
 42
0.0000000001
 43
0.0000000001
 40
0.0
 40
0.0
 40
0.0
 40
0.0
 40
1.0
 40
1.0
 40
1.0
 40
1.0
 10
-2.2503000000000002
 20
19.290600000000001
 30
0.0
 10
-2.2503000000000002
 20
19.290600000000001
 30
0.0
 10
-1.4783000000000002
 20
20.0626
 30
0.0
 10
-1.4783000000000002
 20
20.0626
 30
0.0
  0
SPLINE
  5
9D
100
AcDbEntity
  8
Ebene 1
370
    20
100
AcDbSpline
210
0.0
220
0.0
230
1.0
 70
     0
 71
     3
 72
     8
 73
     4
 74
     0
 42
0.0000000001
 43
0.0000000001
 40
0.0
 40
0.0
 40
0.0
 40
0.0
 40
1.0
 40
1.0
 40
1.0
 40
1.0
 10
-2.2503000000000002
 20
20.382400000000001
 30
0.0
 10
-2.2503000000000002
 20
20.382400000000001
 30
0.0
 10
-1.4783000000000002
 20
21.154400000000003
 30
0.0
 10
-1.4783000000000002
 20
21.154400000000003
 30
0.0
  0
SPLINE
  5
9E
100
AcDbEntity
  8
Ebene 1
370
    20
100
AcDbSpline
210
0.0
220
0.0
230
1.0
 70
     0
 71
     3
 72
     8
 73
     4
 74
     0
 42
0.0000000001
 43
0.0000000001
 40
0.0
 40
0.0
 40
0.0
 40
0.0
 40
1.0
 40
1.0
 40
1.0
 40
1.0
 10
-2.2503000000000002
 20
21.4742
 30
0.0
 10
-2.2503000000000002
 20
21.4742
 30
0.0
 10
-1.4783000000000002
 20
22.246200000000002
 30
0.0
 10
-1.4783000000000002
 20
22.246200000000002
 30
0.0
  0
SPLINE
  5
9F
100
AcDbEntity
  8
Ebene 1
370
    20
100
AcDbSpline
210
0.0
220
0.0
230
1.0
 70
     0
 71
     3
 72
     8
 73
     4
 74
     0
 42
0.0000000001
 43
0.0000000001
 40
0.0
 40
0.0
 40
0.0
 40
0.0
 40
1.0
 40
1.0
 40
1.0
 40
1.0
 10
-2.2503000000000002
 20
22.565900000000003
 30
0.0
 10
-2.2503000000000002
 20
22.565900000000003
 30
0.0
 10
-1.4783000000000002
 20
23.337900000000001
 30
0.0
 10
-1.4783000000000002
 20
23.337900000000001
 30
0.0
  0
SPLINE
  5
A0
100
AcDbEntity
  8
Ebene 1
370
    20
100
AcDbSpline
210
0.0
220
0.0
230
1.0
 70
     0
 71
     3
 72
     8
 73
     4
 74
     0
 42
0.0000000001
 43
0.0000000001
 40
0.0
 40
0.0
 40
0.0
 40
0.0
 40
1.0
 40
1.0
 40
1.0
 40
1.0
 10
-2.2503000000000002
 20
23.657700000000002
 30
0.0
 10
-2.2503000000000002
 20
23.657700000000002
 30
0.0
 10
-1.4783000000000002
 20
24.4297
 30
0.0
 10
-1.4783000000000002
 20
24.4297
 30
0.0
  0
SPLINE
  5
A1
100
AcDbEntity
  8
Ebene 1
370
    20
100
AcDbSpline
210
0.0
220
0.0
230
1.0
 70
     0
 71
     3
 72
     8
 73
     4
 74
     0
 42
0.0000000001
 43
0.0000000001
 40
0.0
 40
0.0
 40
0.0
 40
0.0
 40
1.0
 40
1.0
 40
1.0
 40
1.0
 10
-2.3286000000000002
 20
24.671100000000003
 30
0.0
 10
-2.3286000000000002
 20
24.671100000000003
 30
0.0
 10
-1.4783000000000002
 20
25.5215
 30
0.0
 10
-1.4783000000000002
 20
25.5215
 30
0.0
  0
SPLINE
  5
A2
100
AcDbEntity
  8
Ebene 1
370
    20
100
AcDbSpline
210
0.0
220
0.0
230
1.0
 70
     0
 71
     3
 72
     8
 73
     4
 74
     0
 42
0.0000000001
 43
0.0000000001
 40
0.0
 40
0.0
 40
0.0
 40
0.0
 40
1.0
 40
1.0
 40
1.0
 40
1.0
 10
-36.7577
 20
8.8021000000000011
 30
0.0
 10
-36.7577
 20
8.8021000000000011
 30
0.0
 10
-36.1023
 20
9.4573999999999998
 30
0.0
 10
-36.1023
 20
9.4573999999999998
 30
0.0
  0
SPLINE
  5
A3
100
AcDbEntity
  8
Ebene 1
370
    20
100
AcDbSpline
210
0.0
220
0.0
230
1.0
 70
     0
 71
     3
 72
     8
 73
     4
 74
     0
 42
0.0000000001
 43
0.0000000001
 40
0.0
 40
0.0
 40
0.0
 40
0.0
 40
1.0
 40
1.0
 40
1.0
 40
1.0
 10
-36.874300000000005
 20
9.7773000000000003
 30
0.0
 10
-36.874300000000005
 20
9.7773000000000003
 30
0.0
 10
-36.1023
 20
10.549300000000001
 30
0.0
 10
-36.1023
 20
10.549300000000001
 30
0.0
  0
SPLINE
  5
A4
100
AcDbEntity
  8
Ebene 1
370
    20
100
AcDbSpline
210
0.0
220
0.0
230
1.0
 70
     0
 71
     3
 72
     8
 73
     4
 74
     0
 42
0.0000000001
 43
0.0000000001
 40
0.0
 40
0.0
 40
0.0
 40
0.0
 40
1.0
 40
1.0
 40
1.0
 40
1.0
 10
-36.874300000000005
 20
10.869
 30
0.0
 10
-36.874300000000005
 20
10.869
 30
0.0
 10
-36.1023
 20
11.641
 30
0.0
 10
-36.1023
 20
11.641
 30
0.0
  0
SPLINE
  5
A5
100
AcDbEntity
  8
Ebene 1
370
    20
100
AcDbSpline
210
0.0
220
0.0
230
1.0
 70
     0
 71
     3
 72
     8
 73
     4
 74
     0
 42
0.0000000001
 43
0.0000000001
 40
0.0
 40
0.0
 40
0.0
 40
0.0
 40
1.0
 40
1.0
 40
1.0
 40
1.0
 10
-36.874300000000005
 20
11.960700000000001
 30
0.0
 10
-36.874300000000005
 20
11.960700000000001
 30
0.0
 10
-36.1023
 20
12.732700000000001
 30
0.0
 10
-36.1023
 20
12.732700000000001
 30
0.0
  0
SPLINE
  5
A6
100
AcDbEntity
  8
Ebene 1
370
    20
100
AcDbSpline
210
0.0
220
0.0
230
1.0
 70
     0
 71
     3
 72
     8
 73
     4
 74
     0
 42
0.0000000001
 43
0.0000000001
 40
0.0
 40
0.0
 40
0.0
 40
0.0
 40
1.0
 40
1.0
 40
1.0
 40
1.0
 10
-36.874300000000005
 20
13.0526
 30
0.0
 10
-36.874300000000005
 20
13.0526
 30
0.0
 10
-36.1023
 20
13.8246
 30
0.0
 10
-36.1023
 20
13.8246
 30
0.0
  0
SPLINE
  5
A7
100
AcDbEntity
  8
Ebene 1
370
    20
100
AcDbSpline
210
0.0
220
0.0
230
1.0
 70
     0
 71
     3
 72
     8
 73
     4
 74
     0
 42
0.0000000001
 43
0.0000000001
 40
0.0
 40
0.0
 40
0.0
 40
0.0
 40
1.0
 40
1.0
 40
1.0
 40
1.0
 10
-36.874300000000005
 20
14.144300000000001
 30
0.0
 10
-36.874300000000005
 20
14.144300000000001
 30
0.0
 10
-36.1023
 20
14.916300000000001
 30
0.0
 10
-36.1023
 20
14.916300000000001
 30
0.0
  0
SPLINE
  5
A8
100
AcDbEntity
  8
Ebene 1
370
    20
100
AcDbSpline
210
0.0
220
0.0
230
1.0
 70
     0
 71
     3
 72
     8
 73
     4
 74
     0
 42
0.0000000001
 43
0.0000000001
 40
0.0
 40
0.0
 40
0.0
 40
0.0
 40
1.0
 40
1.0
 40
1.0
 40
1.0
 10
-36.874300000000005
 20
15.236000000000001
 30
0.0
 10
-36.874300000000005
 20
15.236000000000001
 30
0.0
 10
-36.1023
 20
16.007999999999999
 30
0.0
 10
-36.1023
 20
16.007999999999999
 30
0.0
  0
SPLINE
  5
A9
100
AcDbEntity
  8
Ebene 1
370
    20
100
AcDbSpline
210
0.0
220
0.0
230
1.0
 70
     0
 71
     3
 72
     8
 73
     4
 74
     0
 42
0.0000000001
 43
0.0000000001
 40
0.0
 40
0.0
 40
0.0
 40
0.0
 40
1.0
 40
1.0
 40
1.0
 40
1.0
 10
-36.874300000000005
 20
16.3279
 30
0.0
 10
-36.874300000000005
 20
16.3279
 30
0.0
 10
-36.1023
 20
17.099900000000002
 30
0.0
 10
-36.1023
 20
17.099900000000002
 30
0.0
  0
SPLINE
  5
AA
100
AcDbEntity
  8
Ebene 1
370
    20
100
AcDbSpline
210
0.0
220
0.0
230
1.0
 70
     0
 71
     3
 72
     8
 73
     4
 74
     0
 42
0.0000000001
 43
0.0000000001
 40
0.0
 40
0.0
 40
0.0
 40
0.0
 40
1.0
 40
1.0
 40
1.0
 40
1.0
 10
-36.874300000000005
 20
17.419599999999999
 30
0.0
 10
-36.874300000000005
 20
17.419599999999999
 30
0.0
 10
-36.1023
 20
18.191600000000001
 30
0.0
 10
-36.1023
 20
18.191600000000001
 30
0.0
  0
SPLINE
  5
AB
100
AcDbEntity
  8
Ebene 1
370
    20
100
AcDbSpline
210
0.0
220
0.0
230
1.0
 70
     0
 71
     3
 72
     8
 73
     4
 74
     0
 42
0.0000000001
 43
0.0000000001
 40
0.0
 40
0.0
 40
0.0
 40
0.0
 40
1.0
 40
1.0
 40
1.0
 40
1.0
 10
-36.874300000000005
 20
18.511300000000002
 30
0.0
 10
-36.874300000000005
 20
18.511300000000002
 30
0.0
 10
-36.1023
 20
19.283300000000001
 30
0.0
 10
-36.1023
 20
19.283300000000001
 30
0.0
  0
SPLINE
  5
AC
100
AcDbEntity
  8
Ebene 1
370
    20
100
AcDbSpline
210
0.0
220
0.0
230
1.0
 70
     0
 71
     3
 72
     8
 73
     4
 74
     0
 42
0.0000000001
 43
0.0000000001
 40
0.0
 40
0.0
 40
0.0
 40
0.0
 40
1.0
 40
1.0
 40
1.0
 40
1.0
 10
-36.874300000000005
 20
19.603200000000001
 30
0.0
 10
-36.874300000000005
 20
19.603200000000001
 30
0.0
 10
-36.1023
 20
20.3752
 30
0.0
 10
-36.1023
 20
20.3752
 30
0.0
  0
SPLINE
  5
AD
100
AcDbEntity
  8
Ebene 1
370
    20
100
AcDbSpline
210
0.0
220
0.0
230
1.0
 70
     0
 71
     3
 72
     8
 73
     4
 74
     0
 42
0.0000000001
 43
0.0000000001
 40
0.0
 40
0.0
 40
0.0
 40
0.0
 40
1.0
 40
1.0
 40
1.0
 40
1.0
 10
-36.874300000000005
 20
20.694900000000001
 30
0.0
 10
-36.874300000000005
 20
20.694900000000001
 30
0.0
 10
-36.1023
 20
21.466900000000003
 30
0.0
 10
-36.1023
 20
21.466900000000003
 30
0.0
  0
SPLINE
  5
AE
100
AcDbEntity
  8
Ebene 1
370
    20
100
AcDbSpline
210
0.0
220
0.0
230
1.0
 70
     0
 71
     3
 72
     8
 73
     4
 74
     0
 42
0.0000000001
 43
0.0000000001
 40
0.0
 40
0.0
 40
0.0
 40
0.0
 40
1.0
 40
1.0
 40
1.0
 40
1.0
 10
-36.874300000000005
 20
21.7866
 30
0.0
 10
-36.874300000000005
 20
21.7866
 30
0.0
 10
-36.1023
 20
22.558600000000002
 30
0.0
 10
-36.1023
 20
22.558600000000002
 30
0.0
  0
SPLINE
  5
AF
100
AcDbEntity
  8
Ebene 1
370
    20
100
AcDbSpline
210
0.0
220
0.0
230
1.0
 70
     0
 71
     3
 72
     8
 73
     4
 74
     0
 42
0.0000000001
 43
0.0000000001
 40
0.0
 40
0.0
 40
0.0
 40
0.0
 40
1.0
 40
1.0
 40
1.0
 40
1.0
 10
-36.874300000000005
 20
22.878500000000003
 30
0.0
 10
-36.874300000000005
 20
22.878500000000003
 30
0.0
 10
-36.1023
 20
23.650500000000001
 30
0.0
 10
-36.1023
 20
23.650500000000001
 30
0.0
  0
SPLINE
  5
B0
100
AcDbEntity
  8
Ebene 1
370
    20
100
AcDbSpline
210
0.0
220
0.0
230
1.0
 70
     0
 71
     3
 72
     8
 73
     4
 74
     0
 42
0.0000000001
 43
0.0000000001
 40
0.0
 40
0.0
 40
0.0
 40
0.0
 40
1.0
 40
1.0
 40
1.0
 40
1.0
 10
-36.874300000000005
 20
23.970200000000002
 30
0.0
 10
-36.874300000000005
 20
23.970200000000002
 30
0.0
 10
-36.0488
 20
24.7957
 30
0.0
 10
-36.0488
 20
24.7957
 30
0.0
  0
SPLINE
  5
B1
100
AcDbEntity
  8
Ebene 1
370
    20
100
AcDbSpline
210
0.0
220
0.0
230
1.0
 70
     0
 71
     3
 72
     8
 73
     4
 74
     0
 42
0.0000000001
 43
0.0000000001
 40
0.0
 40
0.0
 40
0.0
 40
0.0
 40
1.0
 40
1.0
 40
1.0
 40
1.0
 10
-36.874300000000005
 20
25.062000000000001
 30
0.0
 10
-36.874300000000005
 20
25.062000000000001
 30
0.0
 10
-36.294200000000004
 20
25.642100000000003
 30
0.0
 10
-36.294200000000004
 20
25.642100000000003
 30
0.0
  0
SPLINE
  5
B2
100
AcDbEntity
  8
Ebene 1
370
    35
100
AcDbSpline
210
0.0
220
0.0
230
1.0
 70
     0
 71
     3
 72
     8
 73
     4
 74
     0
 42
0.0000000001
 43
0.0000000001
 40
0.0
 40
0.0
 40
0.0
 40
0.0
 40
1.0
 40
1.0
 40
1.0
 40
1.0
 10
-2.7213000000000003
 20
22.094799999999999
 30
0.0
 10
-2.7213000000000003
 20
22.094799999999999
 30
0.0
 10
-2.6224000000000003
 20
22.1938
 30
0.0
 10
-2.6224000000000003
 20
22.1938
 30
0.0
  0
SPLINE
  5
B3
100
AcDbEntity
  8
Ebene 1
370
    35
100
AcDbSpline
210
0.0
220
0.0
230
1.0
 70
     0
 71
     3
 72
     8
 73
     4
 74
     0
 42
0.0000000001
 43
0.0000000001
 40
0.0
 40
0.0
 40
0.0
 40
0.0
 40
1.0
 40
1.0
 40
1.0
 40
1.0
 10
2.3715999999999999
 20
27.187800000000003
 30
0.0
 10
2.3715999999999999
 20
27.187800000000003
 30
0.0
 10
2.6419000000000001
 20
27.458000000000002
 30
0.0
 10
2.6419000000000001
 20
27.458000000000002
 30
0.0
  0
SPLINE
  5
B4
100
AcDbEntity
  8
Ebene 1
370
    35
100
AcDbSpline
210
0.0
220
0.0
230
1.0
 70
     0
 71
     3
 72
     8
 73
     4
 74
     0
 42
0.0000000001
 43
0.0000000001
 40
0.0
 40
0.0
 40
0.0
 40
0.0
 40
1.0
 40
1.0
 40
1.0
 40
1.0
 10
3.2116000000000002
 20
28.027800000000003
 30
0.0
 10
3.2116000000000002
 20
28.027800000000003
 30
0.0
 10
3.4818000000000002
 20
28.298000000000002
 30
0.0
 10
3.4818000000000002
 20
28.298000000000002
 30
0.0
  0
SPLINE
  5
B5
100
AcDbEntity
  8
Ebene 1
370
    35
100
AcDbSpline
210
0.0
220
0.0
230
1.0
 70
     0
 71
     3
 72
     8
 73
     4
 74
     0
 42
0.0000000001
 43
0.0000000001
 40
0.0
 40
0.0
 40
0.0
 40
0.0
 40
1.0
 40
1.0
 40
1.0
 40
1.0
 10
-2.4660000000000002
 20
23.4419
 30
0.0
 10
-2.4660000000000002
 20
23.4419
 30
0.0
 10
-2.2894000000000001
 20
23.618600000000001
 30
0.0
 10
-2.2894000000000001
 20
23.618600000000001
 30
0.0
  0
SPLINE
  5
B6
100
AcDbEntity
  8
Ebene 1
370
    35
100
AcDbSpline
210
0.0
220
0.0
230
1.0
 70
     0
 71
     3
 72
     8
 73
     4
 74
     0
 42
0.0000000001
 43
0.0000000001
 40
0.0
 40
0.0
 40
0.0
 40
0.0
 40
1.0
 40
1.0
 40
1.0
 40
1.0
 10
1.2799
 20
27.187800000000003
 30
0.0
 10
1.2799
 20
27.187800000000003
 30
0.0
 10
1.5501
 20
27.458000000000002
 30
0.0
 10
1.5501
 20
27.458000000000002
 30
0.0
  0
SPLINE
  5
B7
100
AcDbEntity
  8
Ebene 1
370
    35
100
AcDbSpline
210
0.0
220
0.0
230
1.0
 70
     0
 71
     3
 72
     8
 73
     4
 74
     0
 42
0.0000000001
 43
0.0000000001
 40
0.0
 40
0.0
 40
0.0
 40
0.0
 40
1.0
 40
1.0
 40
1.0
 40
1.0
 10
3.2116000000000002
 20
29.119600000000002
 30
0.0
 10
3.2116000000000002
 20
29.119600000000002
 30
0.0
 10
3.6293000000000002
 20
29.537200000000002
 30
0.0
 10
3.6293000000000002
 20
29.537200000000002
 30
0.0
  0
SPLINE
  5
B8
100
AcDbEntity
  8
Ebene 1
370
    35
100
AcDbSpline
210
0.0
220
0.0
230
1.0
 70
     0
 71
     3
 72
     8
 73
     4
 74
     0
 42
0.0000000001
 43
0.0000000001
 40
0.0
 40
0.0
 40
0.0
 40
0.0
 40
1.0
 40
1.0
 40
1.0
 40
1.0
 10
-2.7713000000000001
 20
24.228300000000001
 30
0.0
 10
-2.7713000000000001
 20
24.228300000000001
 30
0.0
 10
-2.5012000000000003
 20
24.4986
 30
0.0
 10
-2.5012000000000003
 20
24.4986
 30
0.0
  0
SPLINE
  5
B9
100
AcDbEntity
  8
Ebene 1
370
    35
100
AcDbSpline
210
0.0
220
0.0
230
1.0
 70
     0
 71
     3
 72
     8
 73
     4
 74
     0
 42
0.0000000001
 43
0.0000000001
 40
0.0
 40
0.0
 40
0.0
 40
0.0
 40
1.0
 40
1.0
 40
1.0
 40
1.0
 10
0.1882
 20
27.187800000000003
 30
0.0
 10
0.1882
 20
27.187800000000003
 30
0.0
 10
0.4584
 20
27.458000000000002
 30
0.0
 10
0.4584
 20
27.458000000000002
 30
0.0
  0
SPLINE
  5
BA
100
AcDbEntity
  8
Ebene 1
370
    35
100
AcDbSpline
210
0.0
220
0.0
230
1.0
 70
     0
 71
     3
 72
     8
 73
     4
 74
     0
 42
0.0000000001
 43
0.0000000001
 40
0.0
 40
0.0
 40
0.0
 40
0.0
 40
1.0
 40
1.0
 40
1.0
 40
1.0
 10
-2.7713000000000001
 20
25.3202
 30
0.0
 10
-2.7713000000000001
 20
25.3202
 30
0.0
 10
-2.1791
 20
25.912300000000002
 30
0.0
 10
-2.1791
 20
25.912300000000002
 30
0.0
  0
SPLINE
  5
BB
100
AcDbEntity
  8
Ebene 1
370
    35
100
AcDbSpline
210
0.0
220
0.0
230
1.0
 70
     0
 71
     3
 72
     8
 73
     4
 74
     0
 42
0.0000000001
 43
0.0000000001
 40
0.0
 40
0.0
 40
0.0
 40
0.0
 40
1.0
 40
1.0
 40
1.0
 40
1.0
 10
-1.3817000000000002
 20
26.709700000000002
 30
0.0
 10
-1.3817000000000002
 20
26.709700000000002
 30
0.0
 10
-1.1115000000000002
 20
26.98
 30
0.0
 10
-1.1115000000000002
 20
26.98
 30
0.0
  0
SPLINE
  5
BC
100
AcDbEntity
  8
Ebene 1
370
    35
100
AcDbSpline
210
0.0
220
0.0
230
1.0
 70
     0
 71
     3
 72
     8
 73
     4
 74
     0
 42
0.0000000001
 43
0.0000000001
 40
0.0
 40
0.0
 40
0.0
 40
0.0
 40
1.0
 40
1.0
 40
1.0
 40
1.0
 10
-0.9037000000000001
 20
27.187800000000003
 30
0.0
 10
-0.9037000000000001
 20
27.187800000000003
 30
0.0
 10
-0.6335000000000001
 20
27.458000000000002
 30
0.0
 10
-0.6335000000000001
 20
27.458000000000002
 30
0.0
  0
SPLINE
  5
BD
100
AcDbEntity
  8
Ebene 1
370
    35
100
AcDbSpline
210
0.0
220
0.0
230
1.0
 70
     0
 71
     3
 72
     8
 73
     4
 74
     0
 42
0.0000000001
 43
0.0000000001
 40
0.0
 40
0.0
 40
0.0
 40
0.0
 40
1.0
 40
1.0
 40
1.0
 40
1.0
 10
-35.926900000000003
 20
22.734200000000001
 30
0.0
 10
-35.926900000000003
 20
22.734200000000001
 30
0.0
 10
-35.716000000000001
 20
22.945
 30
0.0
 10
-35.716000000000001
 20
22.945
 30
0.0
  0
SPLINE
  5
BE
100
AcDbEntity
  8
Ebene 1
370
    35
100
AcDbSpline
210
0.0
220
0.0
230
1.0
 70
     0
 71
     3
 72
     8
 73
     4
 74
     0
 42
0.0000000001
 43
0.0000000001
 40
0.0
 40
0.0
 40
0.0
 40
0.0
 40
1.0
 40
1.0
 40
1.0
 40
1.0
 10
-35.851400000000005
 20
23.901400000000002
 30
0.0
 10
-35.851400000000005
 20
23.901400000000002
 30
0.0
 10
-35.581299999999999
 20
24.171600000000002
 30
0.0
 10
-35.581299999999999
 20
24.171600000000002
 30
0.0
  0
SPLINE
  5
BF
100
AcDbEntity
  8
Ebene 1
370
    35
100
AcDbSpline
210
0.0
220
0.0
230
1.0
 70
     0
 71
     3
 72
     8
 73
     4
 74
     0
 42
0.0000000001
 43
0.0000000001
 40
0.0
 40
0.0
 40
0.0
 40
0.0
 40
1.0
 40
1.0
 40
1.0
 40
1.0
 10
-35.851400000000005
 20
24.993100000000002
 30
0.0
 10
-35.851400000000005
 20
24.993100000000002
 30
0.0
 10
-35.581299999999999
 20
25.263300000000001
 30
0.0
 10
-35.581299999999999
 20
25.263300000000001
 30
0.0
  0
SPLINE
  5
C0
100
AcDbEntity
  8
Ebene 1
370
    35
100
AcDbSpline
210
0.0
220
0.0
230
1.0
 70
     0
 71
     3
 72
     8
 73
     4
 74
     0
 42
0.0000000001
 43
0.0000000001
 40
0.0
 40
0.0
 40
0.0
 40
0.0
 40
1.0
 40
1.0
 40
1.0
 40
1.0
 10
-36.294200000000004
 20
25.642100000000003
 30
0.0
 10
-36.294200000000004
 20
25.642100000000003
 30
0.0
 10
-36.024500000000003
 20
25.911900000000003
 30
0.0
 10
-36.024500000000003
 20
25.911900000000003
 30
0.0
  0
SPLINE
  5
C1
100
AcDbEntity
  8
Ebene 1
370
    35
100
AcDbSpline
210
0.0
220
0.0
230
1.0
 70
     0
 71
     3
 72
     8
 73
     4
 74
     0
 42
0.0000000001
 43
0.0000000001
 40
0.0
 40
0.0
 40
0.0
 40
0.0
 40
1.0
 40
1.0
 40
1.0
 40
1.0
 10
-37.169699999999999
 20
25.8584
 30
0.0
 10
-37.169699999999999
 20
25.8584
 30
0.0
 10
-36.965900000000005
 20
26.062200000000001
 30
0.0
 10
-36.965900000000005
 20
26.062200000000001
 30
0.0
  0
SPLINE
  5
C2
100
AcDbEntity
  8
Ebene 1
370
    35
100
AcDbSpline
210
0.0
220
0.0
230
1.0
 70
     0
 71
     3
 72
     8
 73
     4
 74
     0
 42
0.0000000001
 43
0.0000000001
 40
0.0
 40
0.0
 40
0.0
 40
0.0
 40
1.0
 40
1.0
 40
1.0
 40
1.0
 10
-37.241100000000003
 20
26.878900000000002
 30
0.0
 10
-37.241100000000003
 20
26.878900000000002
 30
0.0
 10
-36.9773
 20
27.142600000000002
 30
0.0
 10
-36.9773
 20
27.142600000000002
 30
0.0
  0
SPLINE
  5
C3
100
AcDbEntity
  8
Ebene 1
370
    35
100
AcDbSpline
210
0.0
220
0.0
230
1.0
 70
     0
 71
     3
 72
     8
 73
     4
 74
     0
 42
0.0000000001
 43
0.0000000001
 40
0.0
 40
0.0
 40
0.0
 40
0.0
 40
1.0
 40
1.0
 40
1.0
 40
1.0
 10
-38.023900000000005
 20
27.187800000000003
 30
0.0
 10
-38.023900000000005
 20
27.187800000000003
 30
0.0
 10
-37.753599999999999
 20
27.458000000000002
 30
0.0
 10
-37.753599999999999
 20
27.458000000000002
 30
0.0
  0
SPLINE
  5
C4
100
AcDbEntity
  8
Ebene 1
370
    35
100
AcDbSpline
210
0.0
220
0.0
230
1.0
 70
     0
 71
     3
 72
     8
 73
     4
 74
     0
 42
0.0000000001
 43
0.0000000001
 40
0.0
 40
0.0
 40
0.0
 40
0.0
 40
1.0
 40
1.0
 40
1.0
 40
1.0
 10
-39.115600000000001
 20
27.187800000000003
 30
0.0
 10
-39.115600000000001
 20
27.187800000000003
 30
0.0
 10
-38.845400000000005
 20
27.458000000000002
 30
0.0
 10
-38.845400000000005
 20
27.458000000000002
 30
0.0
  0
SPLINE
  5
C5
100
AcDbEntity
  8
Ebene 1
370
    35
100
AcDbSpline
210
0.0
220
0.0
230
1.0
 70
     0
 71
     3
 72
     8
 73
     4
 74
     0
 42
0.0000000001
 43
0.0000000001
 40
0.0
 40
0.0
 40
0.0
 40
0.0
 40
1.0
 40
1.0
 40
1.0
 40
1.0
 10
-40.207300000000004
 20
27.187800000000003
 30
0.0
 10
-40.207300000000004
 20
27.187800000000003
 30
0.0
 10
-39.937100000000001
 20
27.458000000000002
 30
0.0
 10
-39.937100000000001
 20
27.458000000000002
 30
0.0
  0
SPLINE
  5
C6
100
AcDbEntity
  8
Ebene 1
370
    35
100
AcDbSpline
210
0.0
220
0.0
230
1.0
 70
     0
 71
     3
 72
     8
 73
     4
 74
     0
 42
0.0000000001
 43
0.0000000001
 40
0.0
 40
0.0
 40
0.0
 40
0.0
 40
1.0
 40
1.0
 40
1.0
 40
1.0
 10
-41.299199999999999
 20
27.187800000000003
 30
0.0
 10
-41.299199999999999
 20
27.187800000000003
 30
0.0
 10
-41.0289
 20
27.458000000000002
 30
0.0
 10
-41.0289
 20
27.458000000000002
 30
0.0
  0
SPLINE
  5
C7
100
AcDbEntity
  8
Ebene 1
370
    35
100
AcDbSpline
210
0.0
220
0.0
230
1.0
 70
     0
 71
     3
 72
     8
 73
     4
 74
     0
 42
0.0000000001
 43
0.0000000001
 40
0.0
 40
0.0
 40
0.0
 40
0.0
 40
1.0
 40
1.0
 40
1.0
 40
1.0
 10
-41.834400000000002
 20
27.744300000000003
 30
0.0
 10
-41.834400000000002
 20
27.744300000000003
 30
0.0
 10
-41.5642
 20
28.014500000000002
 30
0.0
 10
-41.5642
 20
28.014500000000002
 30
0.0
  0
SPLINE
  5
C8
100
AcDbEntity
  8
Ebene 1
370
    35
100
AcDbSpline
210
0.0
220
0.0
230
1.0
 70
     0
 71
     3
 72
     8
 73
     4
 74
     0
 42
0.0000000001
 43
0.0000000001
 40
0.0
 40
0.0
 40
0.0
 40
0.0
 40
1.0
 40
1.0
 40
1.0
 40
1.0
 10
-42.054500000000004
 20
28.616
 30
0.0
 10
-42.054500000000004
 20
28.616
 30
0.0
 10
-41.5642
 20
29.106200000000001
 30
0.0
 10
-41.5642
 20
29.106200000000001
 30
0.0
  0
SPLINE
  5
C9
100
AcDbEntity
  8
Ebene 1
370
    35
100
AcDbSpline
210
0.0
220
0.0
230
1.0
 70
     0
 71
     3
 72
    12
 73
     8
 74
     0
 42
0.0000000001
 43
0.0000000001
 40
0.0
 40
0.0
 40
0.0
 40
0.0
 40
0.5
 40
0.5
 40
0.5
 40
0.5
 40
1.0
 40
1.0
 40
1.0
 40
1.0
 10
81.743099999999998
 20
-3.3647
 30
0.0
 10
81.947800000000001
 20
-3.3647
 30
0.0
 10
82.144100000000009
 20
-3.2833000000000001
 30
0.0
 10
82.289000000000001
 20
-3.1386000000000003
 30
0.0
 10
82.289000000000001
 20
-3.1386000000000003
 30
0.0
 10
82.433700000000002
 20
-2.9939
 30
0.0
 10
82.515000000000001
 20
-2.7975000000000003
 30
0.0
 10
82.515000000000001
 20
-2.5927000000000002
 30
0.0
  0
SPLINE
  5
CA
100
AcDbEntity
  8
Ebene 1
370
    35
100
AcDbSpline
210
0.0
220
0.0
230
1.0
 70
     0
 71
     3
 72
     8
 73
     4
 74
     0
 42
0.0000000001
 43
0.0000000001
 40
0.0
 40
0.0
 40
0.0
 40
0.0
 40
1.0
 40
1.0
 40
1.0
 40
1.0
 10
37.739200000000004
 20
-2.5927000000000002
 30
0.0
 10
37.739200000000004
 20
-3.0191000000000003
 30
0.0
 10
38.084800000000001
 20
-3.3647
 30
0.0
 10
38.511200000000002
 20
-3.3647
 30
0.0
  0
SPLINE
  5
CB
100
AcDbEntity
  8
Ebene 1
370
    35
100
AcDbSpline
210
0.0
220
0.0
230
1.0
 70
     0
 71
     3
 72
     8
 73
     4
 74
     0
 42
0.0000000001
 43
0.0000000001
 40
0.0
 40
0.0
 40
0.0
 40
0.0
 40
1.0
 40
1.0
 40
1.0
 40
1.0
 10
38.511200000000002
 20
41.411000000000001
 30
0.0
 10
38.084800000000001
 20
41.411000000000001
 30
0.0
 10
37.739200000000004
 20
41.065300000000001
 30
0.0
 10
37.739200000000004
 20
40.639099999999999
 30
0.0
  0
SPLINE
  5
CC
100
AcDbEntity
  8
Ebene 1
370
    35
100
AcDbSpline
210
0.0
220
0.0
230
1.0
 70
     0
 71
     3
 72
     8
 73
     4
 74
     0
 42
0.0000000001
 43
0.0000000001
 40
0.0
 40
0.0
 40
0.0
 40
0.0
 40
1.0
 40
1.0
 40
1.0
 40
1.0
 10
82.515000000000001
 20
40.639099999999999
 30
0.0
 10
82.515000000000001
 20
41.065300000000001
 30
0.0
 10
82.16940000000001
 20
41.411000000000001
 30
0.0
 10
81.743099999999998
 20
41.411000000000001
 30
0.0
  0
SPLINE
  5
CD
100
AcDbEntity
  8
Ebene 1
370
    35
100
AcDbSpline
210
0.0
220
0.0
230
1.0
 70
     0
 71
     3
 72
     8
 73
     4
 74
     0
 42
0.0000000001
 43
0.0000000001
 40
0.0
 40
0.0
 40
0.0
 40
0.0
 40
1.0
 40
1.0
 40
1.0
 40
1.0
 10
37.198799999999999
 20
-2.5927000000000002
 30
0.0
 10
37.198799999999999
 20
-3.3175000000000003
 30
0.0
 10
37.786300000000004
 20
-3.9051
 30
0.0
 10
38.511200000000002
 20
-3.9051
 30
0.0
  0
SPLINE
  5
CE
100
AcDbEntity
  8
Ebene 1
370
    35
100
AcDbSpline
210
0.0
220
0.0
230
1.0
 70
     0
 71
     3
 72
     8
 73
     4
 74
     0
 42
0.0000000001
 43
0.0000000001
 40
0.0
 40
0.0
 40
0.0
 40
0.0
 40
1.0
 40
1.0
 40
1.0
 40
1.0
 10
38.511200000000002
 20
41.9514
 30
0.0
 10
37.786300000000004
 20
41.9514
 30
0.0
 10
37.198799999999999
 20
41.363800000000005
 30
0.0
 10
37.198799999999999
 20
40.639099999999999
 30
0.0
  0
SPLINE
  5
CF
100
AcDbEntity
  8
Ebene 1
370
    35
100
AcDbSpline
210
0.0
220
0.0
230
1.0
 70
     0
 71
     3
 72
     8
 73
     4
 74
     0
 42
0.0000000001
 43
0.0000000001
 40
0.0
 40
0.0
 40
0.0
 40
0.0
 40
1.0
 40
1.0
 40
1.0
 40
1.0
 10
83.055400000000006
 20
40.639099999999999
 30
0.0
 10
83.055400000000006
 20
41.363800000000005
 30
0.0
 10
82.467799999999997
 20
41.9514
 30
0.0
 10
81.743099999999998
 20
41.9514
 30
0.0
  0
SPLINE
  5
D0
100
AcDbEntity
  8
Ebene 1
370
    35
100
AcDbSpline
210
0.0
220
0.0
230
1.0
 70
     0
 71
     3
 72
    12
 73
     8
 74
     0
 42
0.0000000001
 43
0.0000000001
 40
0.0
 40
0.0
 40
0.0
 40
0.0
 40
0.5
 40
0.5
 40
0.5
 40
0.5
 40
1.0
 40
1.0
 40
1.0
 40
1.0
 10
81.743099999999998
 20
-3.9051
 30
0.0
 10
82.091099999999997
 20
-3.9051
 30
0.0
 10
82.424900000000008
 20
-3.7668000000000004
 30
0.0
 10
82.671000000000006
 20
-3.5208000000000004
 30
0.0
 10
82.671000000000006
 20
-3.5208000000000004
 30
0.0
 10
82.917200000000008
 20
-3.2746
 30
0.0
 10
83.055400000000006
 20
-2.9408000000000003
 30
0.0
 10
83.055400000000006
 20
-2.5927000000000002
 30
0.0
  0
SPLINE
  5
D1
100
AcDbEntity
  8
Ebene 1
370
    35
100
AcDbSpline
210
0.0
220
0.0
230
1.0
 70
     0
 71
     3
 72
    12
 73
     8
 74
     0
 42
0.0000000001
 43
0.0000000001
 40
0.0
 40
0.0
 40
0.0
 40
0.0
 40
0.5
 40
0.5
 40
0.5
 40
0.5
 40
1.0
 40
1.0
 40
1.0
 40
1.0
 10
3.0186000000000002
 20
27.187800000000003
 30
0.0
 10
3.1415000000000002
 20
27.187800000000003
 30
0.0
 10
3.2593000000000001
 20
27.236600000000003
 30
0.0
 10
3.3462000000000001
 20
27.323500000000003
 30
0.0
 10
3.3462000000000001
 20
27.323500000000003
 30
0.0
 10
3.4331
 20
27.410300000000003
 30
0.0
 10
3.4818000000000002
 20
27.528200000000002
 30
0.0
 10
3.4818000000000002
 20
27.651
 30
0.0
  0
SPLINE
  5
D2
100
AcDbEntity
  8
Ebene 1
370
    35
100
AcDbSpline
210
0.0
220
0.0
230
1.0
 70
     0
 71
     3
 72
    12
 73
     8
 74
     0
 42
0.0000000001
 43
0.0000000001
 40
0.0
 40
0.0
 40
0.0
 40
0.0
 40
0.5
 40
0.5
 40
0.5
 40
0.5
 40
1.0
 40
1.0
 40
1.0
 40
1.0
 10
3.0186000000000002
 20
27.458000000000002
 30
0.0
 10
3.0698000000000003
 20
27.458000000000002
 30
0.0
 10
3.1189
 20
27.478300000000001
 30
0.0
 10
3.1551
 20
27.514500000000002
 30
0.0
 10
3.1551
 20
27.514500000000002
 30
0.0
 10
3.1913
 20
27.550700000000003
 30
0.0
 10
3.2116000000000002
 20
27.599800000000002
 30
0.0
 10
3.2116000000000002
 20
27.651
 30
0.0
  0
SPLINE
  5
D3
100
AcDbEntity
  8
Ebene 1
370
    35
100
AcDbSpline
210
0.0
220
0.0
230
1.0
 70
     0
 71
     3
 72
     8
 73
     4
 74
     0
 42
0.0000000001
 43
0.0000000001
 40
0.0
 40
0.0
 40
0.0
 40
0.0
 40
1.0
 40
1.0
 40
1.0
 40
1.0
 10
-41.834400000000002
 20
27.651
 30
0.0
 10
-41.834400000000002
 20
27.395200000000003
 30
0.0
 10
-41.627000000000002
 20
27.187800000000003
 30
0.0
 10
-41.371200000000002
 20
27.187800000000003
 30
0.0
  0
SPLINE
  5
D4
100
AcDbEntity
  8
Ebene 1
370
    35
100
AcDbSpline
210
0.0
220
0.0
230
1.0
 70
     0
 71
     3
 72
     8
 73
     4
 74
     0
 42
0.0000000001
 43
0.0000000001
 40
0.0
 40
0.0
 40
0.0
 40
0.0
 40
1.0
 40
1.0
 40
1.0
 40
1.0
 10
-41.5642
 20
27.651
 30
0.0
 10
-41.5642
 20
27.544500000000003
 30
0.0
 10
-41.477800000000002
 20
27.458000000000002
 30
0.0
 10
-41.371200000000002
 20
27.458000000000002
 30
0.0
  0
SPLINE
  5
D5
100
AcDbEntity
  8
Ebene 1
370
    35
100
AcDbSpline
210
0.0
220
0.0
230
1.0
 70
     0
 71
     3
 72
     8
 73
     4
 74
     0
 42
0.0000000001
 43
0.0000000001
 40
0.0
 40
0.0
 40
0.0
 40
0.0
 40
1.0
 40
1.0
 40
1.0
 40
1.0
 10
-36.970800000000004
 20
26.1053
 30
0.0
 10
-36.970800000000004
 20
25.998699999999999
 30
0.0
 10
-36.884399999999999
 20
25.912300000000002
 30
0.0
 10
-36.777799999999999
 20
25.912300000000002
 30
0.0
  0
SPLINE
  5
D6
100
AcDbEntity
  8
Ebene 1
370
    35
100
AcDbSpline
210
0.0
220
0.0
230
1.0
 70
     0
 71
     3
 72
     8
 73
     4
 74
     0
 42
0.0000000001
 43
0.0000000001
 40
0.0
 40
0.0
 40
0.0
 40
0.0
 40
1.0
 40
1.0
 40
1.0
 40
1.0
 10
-37.241100000000003
 20
26.1053
 30
0.0
 10
-37.241100000000003
 20
25.849500000000003
 30
0.0
 10
-37.033700000000003
 20
25.642100000000003
 30
0.0
 10
-36.777799999999999
 20
25.642100000000003
 30
0.0
  0
SPLINE
  5
D7
100
AcDbEntity
  8
Ebene 1
370
    35
100
AcDbSpline
210
0.0
220
0.0
230
1.0
 70
     0
 71
     3
 72
    12
 73
     8
 74
     0
 42
0.0000000001
 43
0.0000000001
 40
0.0
 40
0.0
 40
0.0
 40
0.0
 40
0.5
 40
0.5
 40
0.5
 40
0.5
 40
1.0
 40
1.0
 40
1.0
 40
1.0
 10
-1.5747
 20
25.912300000000002
 30
0.0
 10
-1.5235000000000001
 20
25.912300000000002
 30
0.0
 10
-1.4744000000000002
 20
25.932700000000001
 30
0.0
 10
-1.4382000000000001
 20
25.968900000000001
 30
0.0
 10
-1.4382000000000001
 20
25.968900000000001
 30
0.0
 10
-1.4020000000000001
 20
26.005000000000003
 30
0.0
 10
-1.3817000000000002
 20
26.054100000000002
 30
0.0
 10
-1.3817000000000002
 20
26.1053
 30
0.0
  0
SPLINE
  5
D8
100
AcDbEntity
  8
Ebene 1
370
    35
100
AcDbSpline
210
0.0
220
0.0
230
1.0
 70
     0
 71
     3
 72
    12
 73
     8
 74
     0
 42
0.0000000001
 43
0.0000000001
 40
0.0
 40
0.0
 40
0.0
 40
0.0
 40
0.5
 40
0.5
 40
0.5
 40
0.5
 40
1.0
 40
1.0
 40
1.0
 40
1.0
 10
-1.5747
 20
25.642100000000003
 30
0.0
 10
-1.4519
 20
25.642100000000003
 30
0.0
 10
-1.3340000000000001
 20
25.691000000000003
 30
0.0
 10
-1.2472000000000001
 20
25.777800000000003
 30
0.0
 10
-1.2472000000000001
 20
25.777800000000003
 30
0.0
 10
-1.1603000000000001
 20
25.864700000000003
 30
0.0
 10
-1.1115000000000002
 20
25.982500000000002
 30
0.0
 10
-1.1115000000000002
 20
26.1053
 30
0.0
  0
SPLINE
  5
D9
100
AcDbEntity
  8
Ebene 1
370
    35
100
AcDbSpline
210
0.0
220
0.0
230
1.0
 70
     0
 71
     3
 72
     8
 73
     4
 74
     0
 42
0.0000000001
 43
0.0000000001
 40
0.0
 40
0.0
 40
0.0
 40
0.0
 40
1.0
 40
1.0
 40
1.0
 40
1.0
 10
-3.3503000000000003
 20
27.651
 30
0.0
 10
-3.4569000000000001
 20
27.651
 30
0.0
 10
-3.5433000000000003
 20
27.564700000000002
 30
0.0
 10
-3.5433000000000003
 20
27.458000000000002
 30
0.0
  0
SPLINE
  5
DA
100
AcDbEntity
  8
Ebene 1
370
    35
100
AcDbSpline
210
0.0
220
0.0
230
1.0
 70
     0
 71
     3
 72
     8
 73
     4
 74
     0
 42
0.0000000001
 43
0.0000000001
 40
0.0
 40
0.0
 40
0.0
 40
0.0
 40
1.0
 40
1.0
 40
1.0
 40
1.0
 10
1.8606
 20
27.458000000000002
 30
0.0
 10
1.8606
 20
27.564700000000002
 30
0.0
 10
1.7743
 20
27.651
 30
0.0
 10
1.6676
 20
27.651
 30
0.0
  0
SPLINE
  5
DB
100
AcDbEntity
  8
Ebene 1
370
    35
100
AcDbSpline
210
0.0
220
0.0
230
1.0
 70
     0
 71
     3
 72
     8
 73
     4
 74
     0
 42
0.0000000001
 43
0.0000000001
 40
0.0
 40
0.0
 40
0.0
 40
0.0
 40
1.0
 40
1.0
 40
1.0
 40
1.0
 10
-34.8093
 20
27.458000000000002
 30
0.0
 10
-34.8093
 20
27.564700000000002
 30
0.0
 10
-34.895600000000002
 20
27.651
 30
0.0
 10
-35.002299999999998
 20
27.651
 30
0.0
  0
SPLINE
  5
DC
100
AcDbEntity
  8
Ebene 1
370
    35
100
AcDbSpline
210
0.0
220
0.0
230
1.0
 70
     0
 71
     3
 72
     8
 73
     4
 74
     0
 42
0.0000000001
 43
0.0000000001
 40
0.0
 40
0.0
 40
0.0
 40
0.0
 40
1.0
 40
1.0
 40
1.0
 40
1.0
 10
-40.020200000000003
 20
27.651
 30
0.0
 10
-40.126800000000003
 20
27.651
 30
0.0
 10
-40.213200000000001
 20
27.564700000000002
 30
0.0
 10
-40.213200000000001
 20
27.458000000000002
 30
0.0
  0
SPLINE
  5
DD
100
AcDbEntity
  8
Ebene 1
370
    35
100
AcDbSpline
210
0.0
220
0.0
230
1.0
 70
     0
 71
     3
 72
     8
 73
     4
 74
     0
 42
0.0000000001
 43
0.0000000001
 40
0.0
 40
0.0
 40
0.0
 40
0.0
 40
1.0
 40
1.0
 40
1.0
 40
1.0
 10
-0.9957
 20
27.458000000000002
 30
0.0
 10
-1.2089000000000001
 20
27.458000000000002
 30
0.0
 10
-1.3817000000000002
 20
27.2852
 30
0.0
 10
-1.3817000000000002
 20
27.072000000000003
 30
0.0
  0
SPLINE
  5
DE
100
AcDbEntity
  8
Ebene 1
370
    35
100
AcDbSpline
210
0.0
220
0.0
230
1.0
 70
     0
 71
     3
 72
     8
 73
     4
 74
     0
 42
0.0000000001
 43
0.0000000001
 40
0.0
 40
0.0
 40
0.0
 40
0.0
 40
1.0
 40
1.0
 40
1.0
 40
1.0
 10
-0.9957
 20
27.187800000000003
 30
0.0
 10
-1.0596000000000001
 20
27.187800000000003
 30
0.0
 10
-1.1115000000000002
 20
27.135900000000003
 30
0.0
 10
-1.1115000000000002
 20
27.072000000000003
 30
0.0
  0
SPLINE
  5
DF
100
AcDbEntity
  8
Ebene 1
370
    35
100
AcDbSpline
210
0.0
220
0.0
230
1.0
 70
     0
 71
     3
 72
     8
 73
     4
 74
     0
 42
0.0000000001
 43
0.0000000001
 40
0.0
 40
0.0
 40
0.0
 40
0.0
 40
1.0
 40
1.0
 40
1.0
 40
1.0
 10
-37.241100000000003
 20
27.072000000000003
 30
0.0
 10
-37.241100000000003
 20
27.135900000000003
 30
0.0
 10
-37.2928
 20
27.187800000000003
 30
0.0
 10
-37.3568
 20
27.187800000000003
 30
0.0
  0
SPLINE
  5
E0
100
AcDbEntity
  8
Ebene 1
370
    35
100
AcDbSpline
210
0.0
220
0.0
230
1.0
 70
     0
 71
     3
 72
     8
 73
     4
 74
     0
 42
0.0000000001
 43
0.0000000001
 40
0.0
 40
0.0
 40
0.0
 40
0.0
 40
1.0
 40
1.0
 40
1.0
 40
1.0
 10
-36.970800000000004
 20
27.072000000000003
 30
0.0
 10
-36.970800000000004
 20
27.2852
 30
0.0
 10
-37.143599999999999
 20
27.458000000000002
 30
0.0
 10
-37.3568
 20
27.458000000000002
 30
0.0
  0
SPLINE
  5
E1
100
AcDbEntity
  8
Ebene 1
370
    35
100
AcDbSpline
210
0.0
220
0.0
230
1.0
 70
     1
 71
     3
 72
    20
 73
    16
 74
     0
 42
0.0000000001
 43
0.0000000001
 40
0.0
 40
0.0
 40
0.0
 40
0.0
 40
0.25
 40
0.25
 40
0.25
 40
0.25
 40
0.5
 40
0.5
 40
0.5
 40
0.5
 40
0.75
 40
0.75
 40
0.75
 40
0.75
 40
1.0
 40
1.0
 40
1.0
 40
1.0
 10
76.995199999999997
 20
19.023099999999999
 30
0.0
 10
76.995199999999997
 20
28.339100000000002
 30
0.0
 10
69.443100000000001
 20
35.891200000000005
 30
0.0
 10
60.127100000000006
 20
35.891200000000005
 30
0.0
 10
60.127100000000006
 20
35.891200000000005
 30
0.0
 10
50.811
 20
35.891200000000005
 30
0.0
 10
43.259
 20
28.339100000000002
 30
0.0
 10
43.259
 20
19.023099999999999
 30
0.0
 10
43.259
 20
19.023099999999999
 30
0.0
 10
43.259
 20
9.7071000000000005
 30
0.0
 10
50.811
 20
2.1550000000000002
 30
0.0
 10
60.127100000000006
 20
2.1550000000000002
 30
0.0
 10
60.127100000000006
 20
2.1550000000000002
 30
0.0
 10
69.443100000000001
 20
2.1550000000000002
 30
0.0
 10
76.995199999999997
 20
9.7071000000000005
 30
0.0
 10
76.995199999999997
 20
19.023099999999999
 30
0.0
  0
SPLINE
  5
E2
100
AcDbEntity
  8
Ebene 1
370
    20
100
AcDbSpline
210
0.0
220
0.0
230
1.0
 70
     0
 71
     3
 72
    20
 73
    16
 74
     0
 42
0.0000000001
 43
0.0000000001
 40
0.0
 40
0.0
 40
0.0
 40
0.0
 40
0.25
 40
0.25
 40
0.25
 40
0.25
 40
0.5
 40
0.5
 40
0.5
 40
0.5
 40
0.75
 40
0.75
 40
0.75
 40
0.75
 40
1.0
 40
1.0
 40
1.0
 40
1.0
 10
41.792200000000001
 20
-0.4697
 30
0.0
 10
42.260600000000004
 20
-0.4697
 30
0.0
 10
42.6828
 20
-0.1875
 30
0.0
 10
42.862000000000002
 20
0.2451
 30
0.0
 10
42.862000000000002
 20
0.2451
 30
0.0
 10
43.0413
 20
0.6779000000000001
 30
0.0
 10
42.942100000000003
 20
1.1759000000000002
 30
0.0
 10
42.610900000000001
 20
1.5071000000000001
 30
0.0
 10
42.610900000000001
 20
1.5071000000000001
 30
0.0
 10
42.279800000000002
 20
1.8383
 30
0.0
 10
41.781700000000001
 20
1.9374
 30
0.0
 10
41.3491
 20
1.7581
 30
0.0
 10
41.3491
 20
1.7581
 30
0.0
 10
40.9163
 20
1.5789
 30
0.0
 10
40.6342
 20
1.1566000000000001
 30
0.0
 10
40.6342
 20
0.6883
 30
0.0
  0
SPLINE
  5
E3
100
AcDbEntity
  8
Ebene 1
370
    20
100
AcDbSpline
210
0.0
220
0.0
230
1.0
 70
     0
 71
     3
 72
    20
 73
    16
 74
     0
 42
0.0000000001
 43
0.0000000001
 40
0.0
 40
0.0
 40
0.0
 40
0.0
 40
0.25
 40
0.25
 40
0.25
 40
0.25
 40
0.5
 40
0.5
 40
0.5
 40
0.5
 40
0.75
 40
0.75
 40
0.75
 40
0.75
 40
1.0
 40
1.0
 40
1.0
 40
1.0
 10
78.462100000000007
 20
36.200099999999999
 30
0.0
 10
78.930500000000009
 20
36.200099999999999
 30
0.0
 10
79.352699999999999
 20
36.482199999999999
 30
0.0
 10
79.531900000000007
 20
36.914900000000003
 30
0.0
 10
79.531900000000007
 20
36.914900000000003
 30
0.0
 10
79.711200000000005
 20
37.3476
 30
0.0
 10
79.612000000000009
 20
37.845600000000005
 30
0.0
 10
79.280799999999999
 20
38.1768
 30
0.0
 10
79.280799999999999
 20
38.1768
 30
0.0
 10
78.949700000000007
 20
38.508099999999999
 30
0.0
 10
78.451599999999999
 20
38.607199999999999
 30
0.0
 10
78.019000000000005
 20
38.427900000000001
 30
0.0
 10
78.019000000000005
 20
38.427900000000001
 30
0.0
 10
77.586200000000005
 20
38.248699999999999
 30
0.0
 10
77.304100000000005
 20
37.826300000000003
 30
0.0
 10
77.304100000000005
 20
37.3581
 30
0.0
  0
SPLINE
  5
E4
100
AcDbEntity
  8
Ebene 1
370
    35
100
AcDbSpline
210
0.0
220
0.0
230
1.0
 70
     1
 71
     3
 72
    20
 73
    16
 74
     0
 42
0.0000000001
 43
0.0000000001
 40
0.0
 40
0.0
 40
0.0
 40
0.0
 40
0.25
 40
0.25
 40
0.25
 40
0.25
 40
0.5
 40
0.5
 40
0.5
 40
0.5
 40
0.75
 40
0.75
 40
0.75
 40
0.75
 40
1.0
 40
1.0
 40
1.0
 40
1.0
 10
78.307699999999997
 20
19.023099999999999
 30
0.0
 10
78.307699999999997
 20
29.064
 30
0.0
 10
70.168000000000006
 20
37.203600000000002
 30
0.0
 10
60.127100000000006
 20
37.203600000000002
 30
0.0
 10
60.127100000000006
 20
37.203600000000002
 30
0.0
 10
50.086300000000001
 20
37.203600000000002
 30
0.0
 10
41.9465
 20
29.064
 30
0.0
 10
41.9465
 20
19.023099999999999
 30
0.0
 10
41.9465
 20
19.023099999999999
 30
0.0
 10
41.9465
 20
8.9823000000000004
 30
0.0
 10
50.086300000000001
 20
0.8427
 30
0.0
 10
60.127100000000006
 20
0.8427
 30
0.0
 10
60.127100000000006
 20
0.8427
 30
0.0
 10
70.168000000000006
 20
0.8427
 30
0.0
 10
78.307699999999997
 20
8.9823000000000004
 30
0.0
 10
78.307699999999997
 20
19.023099999999999
 30
0.0
  0
SPLINE
  5
E5
100
AcDbEntity
  8
Ebene 1
370
    20
100
AcDbSpline
210
0.0
220
0.0
230
1.0
 70
     0
 71
     3
 72
     8
 73
     4
 74
     0
 42
0.0000000001
 43
0.0000000001
 40
0.0
 40
0.0
 40
0.0
 40
0.0
 40
1.0
 40
1.0
 40
1.0
 40
1.0
 10
-42.104600000000005
 20
29.3108
 30
0.0
 10
-42.104600000000005
 20
29.3108
 30
0.0
 10
-42.104600000000005
 20
48.469300000000004
 30
0.0
 10
-42.104600000000005
 20
48.469300000000004
 30
0.0
  0
SPLINE
  5
E6
100
AcDbEntity
  8
Ebene 1
370
    20
100
AcDbSpline
210
0.0
220
0.0
230
1.0
 70
     0
 71
     3
 72
     8
 73
     4
 74
     0
 42
0.0000000001
 43
0.0000000001
 40
0.0
 40
0.0
 40
0.0
 40
0.0
 40
1.0
 40
1.0
 40
1.0
 40
1.0
 10
3.7521
 20
29.3108
 30
0.0
 10
3.7521
 20
29.3108
 30
0.0
 10
3.7521
 20
48.469300000000004
 30
0.0
 10
3.7521
 20
48.469300000000004
 30
0.0
  0
SPLINE
  5
E7
100
AcDbEntity
  8
Ebene 1
370
    20
100
AcDbSpline
210
0.0
220
0.0
230
1.0
 70
     0
 71
     3
 72
     8
 73
     4
 74
     0
 42
0.0000000001
 43
0.0000000001
 40
0.0
 40
0.0
 40
0.0
 40
0.0
 40
1.0
 40
1.0
 40
1.0
 40
1.0
 10
-42.104600000000005
 20
41.9846
 30
0.0
 10
-42.104600000000005
 20
41.9846
 30
0.0
 10
3.7521
 20
41.9846
 30
0.0
 10
3.7521
 20
41.9846
 30
0.0
  0
SPLINE
  5
E8
100
AcDbEntity
  8
Ebene 1
370
    20
100
AcDbSpline
210
0.0
220
0.0
230
1.0
 70
     0
 71
     3
 72
     8
 73
     4
 74
     0
 42
0.0000000001
 43
0.0000000001
 40
0.0
 40
0.0
 40
0.0
 40
0.0
 40
1.0
 40
1.0
 40
1.0
 40
1.0
 10
-31.389100000000003
 20
43.395200000000003
 30
0.0
 10
-31.389100000000003
 20
43.395200000000003
 30
0.0
 10
-42.104600000000005
 20
41.9846
 30
0.0
 10
-42.104600000000005
 20
41.9846
 30
0.0
  0
SPLINE
  5
E9
100
AcDbEntity
  8
Ebene 1
370
    20
100
AcDbSpline
210
0.0
220
0.0
230
1.0
 70
     0
 71
     3
 72
     8
 73
     4
 74
     0
 42
0.0000000001
 43
0.0000000001
 40
0.0
 40
0.0
 40
0.0
 40
0.0
 40
1.0
 40
1.0
 40
1.0
 40
1.0
 10
-42.104600000000005
 20
41.9846
 30
0.0
 10
-42.104600000000005
 20
41.9846
 30
0.0
 10
-31.389100000000003
 20
40.573799999999999
 30
0.0
 10
-31.389100000000003
 20
40.573799999999999
 30
0.0
  0
SPLINE
  5
EA
100
AcDbEntity
  8
Ebene 1
370
    20
100
AcDbSpline
210
0.0
220
0.0
230
1.0
 70
     0
 71
     3
 72
     8
 73
     4
 74
     0
 42
0.0000000001
 43
0.0000000001
 40
0.0
 40
0.0
 40
0.0
 40
0.0
 40
1.0
 40
1.0
 40
1.0
 40
1.0
 10
-31.389100000000003
 20
40.573799999999999
 30
0.0
 10
-31.389100000000003
 20
40.573799999999999
 30
0.0
 10
-31.389100000000003
 20
43.395200000000003
 30
0.0
 10
-31.389100000000003
 20
43.395200000000003
 30
0.0
  0
SPLINE
  5
EB
100
AcDbEntity
  8
Ebene 1
370
    20
100
AcDbSpline
210
0.0
220
0.0
230
1.0
 70
     0
 71
     3
 72
     8
 73
     4
 74
     0
 42
0.0000000001
 43
0.0000000001
 40
0.0
 40
0.0
 40
0.0
 40
0.0
 40
1.0
 40
1.0
 40
1.0
 40
1.0
 10
-31.365100000000002
 20
43.028500000000001
 30
0.0
 10
-31.365100000000002
 20
43.028500000000001
 30
0.0
 10
-39.294499999999999
 20
41.9846
 30
0.0
 10
-39.294499999999999
 20
41.9846
 30
0.0
  0
SPLINE
  5
EC
100
AcDbEntity
  8
Ebene 1
370
    20
100
AcDbSpline
210
0.0
220
0.0
230
1.0
 70
     0
 71
     3
 72
     8
 73
     4
 74
     0
 42
0.0000000001
 43
0.0000000001
 40
0.0
 40
0.0
 40
0.0
 40
0.0
 40
1.0
 40
1.0
 40
1.0
 40
1.0
 10
-39.294499999999999
 20
41.9846
 30
0.0
 10
-39.294499999999999
 20
41.9846
 30
0.0
 10
-31.365100000000002
 20
40.940600000000003
 30
0.0
 10
-31.365100000000002
 20
40.940600000000003
 30
0.0
  0
SPLINE
  5
ED
100
AcDbEntity
  8
Ebene 1
370
    20
100
AcDbSpline
210
0.0
220
0.0
230
1.0
 70
     0
 71
     3
 72
     8
 73
     4
 74
     0
 42
0.0000000001
 43
0.0000000001
 40
0.0
 40
0.0
 40
0.0
 40
0.0
 40
1.0
 40
1.0
 40
1.0
 40
1.0
 10
-31.341100000000001
 20
42.661700000000003
 30
0.0
 10
-31.341100000000001
 20
42.661700000000003
 30
0.0
 10
-36.484500000000004
 20
41.9846
 30
0.0
 10
-36.484500000000004
 20
41.9846
 30
0.0
  0
SPLINE
  5
EE
100
AcDbEntity
  8
Ebene 1
370
    20
100
AcDbSpline
210
0.0
220
0.0
230
1.0
 70
     0
 71
     3
 72
     8
 73
     4
 74
     0
 42
0.0000000001
 43
0.0000000001
 40
0.0
 40
0.0
 40
0.0
 40
0.0
 40
1.0
 40
1.0
 40
1.0
 40
1.0
 10
-36.484500000000004
 20
41.9846
 30
0.0
 10
-36.484500000000004
 20
41.9846
 30
0.0
 10
-31.341100000000001
 20
41.307400000000001
 30
0.0
 10
-31.341100000000001
 20
41.307400000000001
 30
0.0
  0
SPLINE
  5
EF
100
AcDbEntity
  8
Ebene 1
370
    20
100
AcDbSpline
210
0.0
220
0.0
230
1.0
 70
     0
 71
     3
 72
     8
 73
     4
 74
     0
 42
0.0000000001
 43
0.0000000001
 40
0.0
 40
0.0
 40
0.0
 40
0.0
 40
1.0
 40
1.0
 40
1.0
 40
1.0
 10
-31.3169
 20
42.294900000000005
 30
0.0
 10
-31.3169
 20
42.294900000000005
 30
0.0
 10
-33.674399999999999
 20
41.9846
 30
0.0
 10
-33.674399999999999
 20
41.9846
 30
0.0
  0
SPLINE
  5
F0
100
AcDbEntity
  8
Ebene 1
370
    20
100
AcDbSpline
210
0.0
220
0.0
230
1.0
 70
     0
 71
     3
 72
     8
 73
     4
 74
     0
 42
0.0000000001
 43
0.0000000001
 40
0.0
 40
0.0
 40
0.0
 40
0.0
 40
1.0
 40
1.0
 40
1.0
 40
1.0
 10
-33.674399999999999
 20
41.9846
 30
0.0
 10
-33.674399999999999
 20
41.9846
 30
0.0
 10
-31.3169
 20
41.674100000000003
 30
0.0
 10
-31.3169
 20
41.674100000000003
 30
0.0
  0
SPLINE
  5
F1
100
AcDbEntity
  8
Ebene 1
370
    20
100
AcDbSpline
210
0.0
220
0.0
230
1.0
 70
     0
 71
     3
 72
     8
 73
     4
 74
     0
 42
0.0000000001
 43
0.0000000001
 40
0.0
 40
0.0
 40
0.0
 40
0.0
 40
1.0
 40
1.0
 40
1.0
 40
1.0
 10
-6.9635000000000007
 20
40.573799999999999
 30
0.0
 10
-6.9635000000000007
 20
40.573799999999999
 30
0.0
 10
3.7521
 20
41.9846
 30
0.0
 10
3.7521
 20
41.9846
 30
0.0
  0
SPLINE
  5
F2
100
AcDbEntity
  8
Ebene 1
370
    20
100
AcDbSpline
210
0.0
220
0.0
230
1.0
 70
     0
 71
     3
 72
     8
 73
     4
 74
     0
 42
0.0000000001
 43
0.0000000001
 40
0.0
 40
0.0
 40
0.0
 40
0.0
 40
1.0
 40
1.0
 40
1.0
 40
1.0
 10
3.7521
 20
41.9846
 30
0.0
 10
3.7521
 20
41.9846
 30
0.0
 10
-6.9635000000000007
 20
43.395200000000003
 30
0.0
 10
-6.9635000000000007
 20
43.395200000000003
 30
0.0
  0
SPLINE
  5
F3
100
AcDbEntity
  8
Ebene 1
370
    20
100
AcDbSpline
210
0.0
220
0.0
230
1.0
 70
     0
 71
     3
 72
     8
 73
     4
 74
     0
 42
0.0000000001
 43
0.0000000001
 40
0.0
 40
0.0
 40
0.0
 40
0.0
 40
1.0
 40
1.0
 40
1.0
 40
1.0
 10
-6.9635000000000007
 20
43.395200000000003
 30
0.0
 10
-6.9635000000000007
 20
43.395200000000003
 30
0.0
 10
-6.9635000000000007
 20
40.573799999999999
 30
0.0
 10
-6.9635000000000007
 20
40.573799999999999
 30
0.0
  0
SPLINE
  5
F4
100
AcDbEntity
  8
Ebene 1
370
    20
100
AcDbSpline
210
0.0
220
0.0
230
1.0
 70
     0
 71
     3
 72
     8
 73
     4
 74
     0
 42
0.0000000001
 43
0.0000000001
 40
0.0
 40
0.0
 40
0.0
 40
0.0
 40
1.0
 40
1.0
 40
1.0
 40
1.0
 10
-6.9875000000000007
 20
40.940600000000003
 30
0.0
 10
-6.9875000000000007
 20
40.940600000000003
 30
0.0
 10
0.9420000000000001
 20
41.9846
 30
0.0
 10
0.9420000000000001
 20
41.9846
 30
0.0
  0
SPLINE
  5
F5
100
AcDbEntity
  8
Ebene 1
370
    20
100
AcDbSpline
210
0.0
220
0.0
230
1.0
 70
     0
 71
     3
 72
     8
 73
     4
 74
     0
 42
0.0000000001
 43
0.0000000001
 40
0.0
 40
0.0
 40
0.0
 40
0.0
 40
1.0
 40
1.0
 40
1.0
 40
1.0
 10
0.9420000000000001
 20
41.9846
 30
0.0
 10
0.9420000000000001
 20
41.9846
 30
0.0
 10
-6.9875000000000007
 20
43.028500000000001
 30
0.0
 10
-6.9875000000000007
 20
43.028500000000001
 30
0.0
  0
SPLINE
  5
F6
100
AcDbEntity
  8
Ebene 1
370
    20
100
AcDbSpline
210
0.0
220
0.0
230
1.0
 70
     0
 71
     3
 72
     8
 73
     4
 74
     0
 42
0.0000000001
 43
0.0000000001
 40
0.0
 40
0.0
 40
0.0
 40
0.0
 40
1.0
 40
1.0
 40
1.0
 40
1.0
 10
-7.0115000000000007
 20
41.307400000000001
 30
0.0
 10
-7.0115000000000007
 20
41.307400000000001
 30
0.0
 10
-1.8681000000000001
 20
41.9846
 30
0.0
 10
-1.8681000000000001
 20
41.9846
 30
0.0
  0
SPLINE
  5
F7
100
AcDbEntity
  8
Ebene 1
370
    20
100
AcDbSpline
210
0.0
220
0.0
230
1.0
 70
     0
 71
     3
 72
     8
 73
     4
 74
     0
 42
0.0000000001
 43
0.0000000001
 40
0.0
 40
0.0
 40
0.0
 40
0.0
 40
1.0
 40
1.0
 40
1.0
 40
1.0
 10
-1.8681000000000001
 20
41.9846
 30
0.0
 10
-1.8681000000000001
 20
41.9846
 30
0.0
 10
-7.0115000000000007
 20
42.661700000000003
 30
0.0
 10
-7.0115000000000007
 20
42.661700000000003
 30
0.0
  0
SPLINE
  5
F8
100
AcDbEntity
  8
Ebene 1
370
    20
100
AcDbSpline
210
0.0
220
0.0
230
1.0
 70
     0
 71
     3
 72
     8
 73
     4
 74
     0
 42
0.0000000001
 43
0.0000000001
 40
0.0
 40
0.0
 40
0.0
 40
0.0
 40
1.0
 40
1.0
 40
1.0
 40
1.0
 10
-7.0355000000000008
 20
41.674100000000003
 30
0.0
 10
-7.0355000000000008
 20
41.674100000000003
 30
0.0
 10
-4.6781000000000006
 20
41.9846
 30
0.0
 10
-4.6781000000000006
 20
41.9846
 30
0.0
  0
SPLINE
  5
F9
100
AcDbEntity
  8
Ebene 1
370
    20
100
AcDbSpline
210
0.0
220
0.0
230
1.0
 70
     0
 71
     3
 72
     8
 73
     4
 74
     0
 42
0.0000000001
 43
0.0000000001
 40
0.0
 40
0.0
 40
0.0
 40
0.0
 40
1.0
 40
1.0
 40
1.0
 40
1.0
 10
-4.6781000000000006
 20
41.9846
 30
0.0
 10
-4.6781000000000006
 20
41.9846
 30
0.0
 10
-7.0355000000000008
 20
42.294900000000005
 30
0.0
 10
-7.0355000000000008
 20
42.294900000000005
 30
0.0
  0
SPLINE
  5
FA
100
AcDbEntity
  8
Ebene 1
370
    20
100
AcDbSpline
210
0.0
220
0.0
230
1.0
 70
     0
 71
     3
 72
     8
 73
     4
 74
     0
 42
0.0000000001
 43
0.0000000001
 40
0.0
 40
0.0
 40
0.0
 40
0.0
 40
1.0
 40
1.0
 40
1.0
 40
1.0
 10
-41.371200000000002
 20
27.187800000000003
 30
0.0
 10
-41.371200000000002
 20
27.187800000000003
 30
0.0
 10
-58.5916
 20
27.187800000000003
 30
0.0
 10
-58.5916
 20
27.187800000000003
 30
0.0
  0
SPLINE
  5
FB
100
AcDbEntity
  8
Ebene 1
370
    20
100
AcDbSpline
210
0.0
220
0.0
230
1.0
 70
     0
 71
     3
 72
     8
 73
     4
 74
     0
 42
0.0000000001
 43
0.0000000001
 40
0.0
 40
0.0
 40
0.0
 40
0.0
 40
1.0
 40
1.0
 40
1.0
 40
1.0
 10
-41.834400000000002
 20
29.581000000000003
 30
0.0
 10
-41.834400000000002
 20
29.581000000000003
 30
0.0
 10
-58.5916
 20
29.581000000000003
 30
0.0
 10
-58.5916
 20
29.581000000000003
 30
0.0
  0
SPLINE
  5
FC
100
AcDbEntity
  8
Ebene 1
370
    20
100
AcDbSpline
210
0.0
220
0.0
230
1.0
 70
     0
 71
     3
 72
     8
 73
     4
 74
     0
 42
0.0000000001
 43
0.0000000001
 40
0.0
 40
0.0
 40
0.0
 40
0.0
 40
1.0
 40
1.0
 40
1.0
 40
1.0
 10
-50.696000000000005
 20
16.4724
 30
0.0
 10
-50.696000000000005
 20
16.4724
 30
0.0
 10
-52.1068
 20
27.187800000000003
 30
0.0
 10
-52.1068
 20
27.187800000000003
 30
0.0
  0
SPLINE
  5
FD
100
AcDbEntity
  8
Ebene 1
370
    20
100
AcDbSpline
210
0.0
220
0.0
230
1.0
 70
     0
 71
     3
 72
     8
 73
     4
 74
     0
 42
0.0000000001
 43
0.0000000001
 40
0.0
 40
0.0
 40
0.0
 40
0.0
 40
1.0
 40
1.0
 40
1.0
 40
1.0
 10
-52.1068
 20
27.187800000000003
 30
0.0
 10
-52.1068
 20
27.187800000000003
 30
0.0
 10
-53.517600000000002
 20
16.4724
 30
0.0
 10
-53.517600000000002
 20
16.4724
 30
0.0
  0
SPLINE
  5
FE
100
AcDbEntity
  8
Ebene 1
370
    20
100
AcDbSpline
210
0.0
220
0.0
230
1.0
 70
     0
 71
     3
 72
     8
 73
     4
 74
     0
 42
0.0000000001
 43
0.0000000001
 40
0.0
 40
0.0
 40
0.0
 40
0.0
 40
1.0
 40
1.0
 40
1.0
 40
1.0
 10
-53.517600000000002
 20
16.4724
 30
0.0
 10
-53.517600000000002
 20
16.4724
 30
0.0
 10
-50.696000000000005
 20
16.4724
 30
0.0
 10
-50.696000000000005
 20
16.4724
 30
0.0
  0
SPLINE
  5
FF
100
AcDbEntity
  8
Ebene 1
370
    20
100
AcDbSpline
210
0.0
220
0.0
230
1.0
 70
     0
 71
     3
 72
     8
 73
     4
 74
     0
 42
0.0000000001
 43
0.0000000001
 40
0.0
 40
0.0
 40
0.0
 40
0.0
 40
1.0
 40
1.0
 40
1.0
 40
1.0
 10
-51.062899999999999
 20
16.4482
 30
0.0
 10
-51.062899999999999
 20
16.4482
 30
0.0
 10
-52.1068
 20
24.377800000000001
 30
0.0
 10
-52.1068
 20
24.377800000000001
 30
0.0
  0
SPLINE
  5
100
100
AcDbEntity
  8
Ebene 1
370
    20
100
AcDbSpline
210
0.0
220
0.0
230
1.0
 70
     0
 71
     3
 72
     8
 73
     4
 74
     0
 42
0.0000000001
 43
0.0000000001
 40
0.0
 40
0.0
 40
0.0
 40
0.0
 40
1.0
 40
1.0
 40
1.0
 40
1.0
 10
-52.1068
 20
24.377800000000001
 30
0.0
 10
-52.1068
 20
24.377800000000001
 30
0.0
 10
-53.150700000000001
 20
16.4482
 30
0.0
 10
-53.150700000000001
 20
16.4482
 30
0.0
  0
SPLINE
  5
101
100
AcDbEntity
  8
Ebene 1
370
    20
100
AcDbSpline
210
0.0
220
0.0
230
1.0
 70
     0
 71
     3
 72
     8
 73
     4
 74
     0
 42
0.0000000001
 43
0.0000000001
 40
0.0
 40
0.0
 40
0.0
 40
0.0
 40
1.0
 40
1.0
 40
1.0
 40
1.0
 10
-51.429600000000001
 20
16.424199999999999
 30
0.0
 10
-51.429600000000001
 20
16.424199999999999
 30
0.0
 10
-52.1068
 20
21.567600000000002
 30
0.0
 10
-52.1068
 20
21.567600000000002
 30
0.0
  0
SPLINE
  5
102
100
AcDbEntity
  8
Ebene 1
370
    20
100
AcDbSpline
210
0.0
220
0.0
230
1.0
 70
     0
 71
     3
 72
     8
 73
     4
 74
     0
 42
0.0000000001
 43
0.0000000001
 40
0.0
 40
0.0
 40
0.0
 40
0.0
 40
1.0
 40
1.0
 40
1.0
 40
1.0
 10
-52.1068
 20
21.567600000000002
 30
0.0
 10
-52.1068
 20
21.567600000000002
 30
0.0
 10
-52.784000000000006
 20
16.424199999999999
 30
0.0
 10
-52.784000000000006
 20
16.424199999999999
 30
0.0
  0
SPLINE
  5
103
100
AcDbEntity
  8
Ebene 1
370
    20
100
AcDbSpline
210
0.0
220
0.0
230
1.0
 70
     0
 71
     3
 72
     8
 73
     4
 74
     0
 42
0.0000000001
 43
0.0000000001
 40
0.0
 40
0.0
 40
0.0
 40
0.0
 40
1.0
 40
1.0
 40
1.0
 40
1.0
 10
-51.796500000000002
 20
16.400200000000002
 30
0.0
 10
-51.796500000000002
 20
16.400200000000002
 30
0.0
 10
-52.1068
 20
18.7576
 30
0.0
 10
-52.1068
 20
18.7576
 30
0.0
  0
SPLINE
  5
104
100
AcDbEntity
  8
Ebene 1
370
    20
100
AcDbSpline
210
0.0
220
0.0
230
1.0
 70
     0
 71
     3
 72
     8
 73
     4
 74
     0
 42
0.0000000001
 43
0.0000000001
 40
0.0
 40
0.0
 40
0.0
 40
0.0
 40
1.0
 40
1.0
 40
1.0
 40
1.0
 10
-52.1068
 20
18.7576
 30
0.0
 10
-52.1068
 20
18.7576
 30
0.0
 10
-52.417100000000005
 20
16.400200000000002
 30
0.0
 10
-52.417100000000005
 20
16.400200000000002
 30
0.0
  0
SPLINE
  5
105
100
AcDbEntity
  8
Ebene 1
370
    20
100
AcDbSpline
210
0.0
220
0.0
230
1.0
 70
     0
 71
     3
 72
     8
 73
     4
 74
     0
 42
0.0000000001
 43
0.0000000001
 40
0.0
 40
0.0
 40
0.0
 40
0.0
 40
1.0
 40
1.0
 40
1.0
 40
1.0
 10
-53.517600000000002
 20
40.296500000000002
 30
0.0
 10
-53.517600000000002
 20
40.296500000000002
 30
0.0
 10
-52.1068
 20
29.581000000000003
 30
0.0
 10
-52.1068
 20
29.581000000000003
 30
0.0
  0
SPLINE
  5
106
100
AcDbEntity
  8
Ebene 1
370
    20
100
AcDbSpline
210
0.0
220
0.0
230
1.0
 70
     0
 71
     3
 72
     8
 73
     4
 74
     0
 42
0.0000000001
 43
0.0000000001
 40
0.0
 40
0.0
 40
0.0
 40
0.0
 40
1.0
 40
1.0
 40
1.0
 40
1.0
 10
-52.1068
 20
29.581000000000003
 30
0.0
 10
-52.1068
 20
29.581000000000003
 30
0.0
 10
-50.696000000000005
 20
40.296500000000002
 30
0.0
 10
-50.696000000000005
 20
40.296500000000002
 30
0.0
  0
SPLINE
  5
107
100
AcDbEntity
  8
Ebene 1
370
    20
100
AcDbSpline
210
0.0
220
0.0
230
1.0
 70
     0
 71
     3
 72
     8
 73
     4
 74
     0
 42
0.0000000001
 43
0.0000000001
 40
0.0
 40
0.0
 40
0.0
 40
0.0
 40
1.0
 40
1.0
 40
1.0
 40
1.0
 10
-50.696000000000005
 20
40.296500000000002
 30
0.0
 10
-50.696000000000005
 20
40.296500000000002
 30
0.0
 10
-53.517600000000002
 20
40.296500000000002
 30
0.0
 10
-53.517600000000002
 20
40.296500000000002
 30
0.0
  0
SPLINE
  5
108
100
AcDbEntity
  8
Ebene 1
370
    20
100
AcDbSpline
210
0.0
220
0.0
230
1.0
 70
     0
 71
     3
 72
     8
 73
     4
 74
     0
 42
0.0000000001
 43
0.0000000001
 40
0.0
 40
0.0
 40
0.0
 40
0.0
 40
1.0
 40
1.0
 40
1.0
 40
1.0
 10
-53.150700000000001
 20
40.320500000000003
 30
0.0
 10
-53.150700000000001
 20
40.320500000000003
 30
0.0
 10
-52.1068
 20
32.390999999999998
 30
0.0
 10
-52.1068
 20
32.390999999999998
 30
0.0
  0
SPLINE
  5
109
100
AcDbEntity
  8
Ebene 1
370
    20
100
AcDbSpline
210
0.0
220
0.0
230
1.0
 70
     0
 71
     3
 72
     8
 73
     4
 74
     0
 42
0.0000000001
 43
0.0000000001
 40
0.0
 40
0.0
 40
0.0
 40
0.0
 40
1.0
 40
1.0
 40
1.0
 40
1.0
 10
-52.1068
 20
32.390999999999998
 30
0.0
 10
-52.1068
 20
32.390999999999998
 30
0.0
 10
-51.062899999999999
 20
40.320500000000003
 30
0.0
 10
-51.062899999999999
 20
40.320500000000003
 30
0.0
  0
SPLINE
  5
10A
100
AcDbEntity
  8
Ebene 1
370
    20
100
AcDbSpline
210
0.0
220
0.0
230
1.0
 70
     0
 71
     3
 72
     8
 73
     4
 74
     0
 42
0.0000000001
 43
0.0000000001
 40
0.0
 40
0.0
 40
0.0
 40
0.0
 40
1.0
 40
1.0
 40
1.0
 40
1.0
 10
-52.784000000000006
 20
40.3446
 30
0.0
 10
-52.784000000000006
 20
40.3446
 30
0.0
 10
-52.1068
 20
35.2012
 30
0.0
 10
-52.1068
 20
35.2012
 30
0.0
  0
SPLINE
  5
10B
100
AcDbEntity
  8
Ebene 1
370
    20
100
AcDbSpline
210
0.0
220
0.0
230
1.0
 70
     0
 71
     3
 72
     8
 73
     4
 74
     0
 42
0.0000000001
 43
0.0000000001
 40
0.0
 40
0.0
 40
0.0
 40
0.0
 40
1.0
 40
1.0
 40
1.0
 40
1.0
 10
-52.1068
 20
35.2012
 30
0.0
 10
-52.1068
 20
35.2012
 30
0.0
 10
-51.429600000000001
 20
40.3446
 30
0.0
 10
-51.429600000000001
 20
40.3446
 30
0.0
  0
SPLINE
  5
10C
100
AcDbEntity
  8
Ebene 1
370
    20
100
AcDbSpline
210
0.0
220
0.0
230
1.0
 70
     0
 71
     3
 72
     8
 73
     4
 74
     0
 42
0.0000000001
 43
0.0000000001
 40
0.0
 40
0.0
 40
0.0
 40
0.0
 40
1.0
 40
1.0
 40
1.0
 40
1.0
 10
-52.417100000000005
 20
40.368600000000001
 30
0.0
 10
-52.417100000000005
 20
40.368600000000001
 30
0.0
 10
-52.1068
 20
38.011200000000002
 30
0.0
 10
-52.1068
 20
38.011200000000002
 30
0.0
  0
SPLINE
  5
10D
100
AcDbEntity
  8
Ebene 1
370
    20
100
AcDbSpline
210
0.0
220
0.0
230
1.0
 70
     0
 71
     3
 72
     8
 73
     4
 74
     0
 42
0.0000000001
 43
0.0000000001
 40
0.0
 40
0.0
 40
0.0
 40
0.0
 40
1.0
 40
1.0
 40
1.0
 40
1.0
 10
-52.1068
 20
38.011200000000002
 30
0.0
 10
-52.1068
 20
38.011200000000002
 30
0.0
 10
-51.796500000000002
 20
40.368600000000001
 30
0.0
 10
-51.796500000000002
 20
40.368600000000001
 30
0.0
  0
SPLINE
  5
10E
100
AcDbEntity
  8
Ebene 1
370
    20
100
AcDbSpline
210
0.0
220
0.0
230
1.0
 70
     0
 71
     3
 72
     8
 73
     4
 74
     0
 42
0.0000000001
 43
0.0000000001
 40
0.0
 40
0.0
 40
0.0
 40
0.0
 40
1.0
 40
1.0
 40
1.0
 40
1.0
 10
-52.1068
 20
-9.3862000000000005
 30
0.0
 10
-52.1068
 20
-9.3862000000000005
 30
0.0
 10
-52.1068
 20
44.7121
 30
0.0
 10
-52.1068
 20
44.7121
 30
0.0
  0
SPLINE
  5
10F
100
AcDbEntity
  8
Ebene 1
370
    20
100
AcDbSpline
210
0.0
220
0.0
230
1.0
 70
     0
 71
     3
 72
     8
 73
     4
 74
     0
 42
0.0000000001
 43
0.0000000001
 40
0.0
 40
0.0
 40
0.0
 40
0.0
 40
1.0
 40
1.0
 40
1.0
 40
1.0
 10
-1.6850000000000001
 20
8.4652000000000012
 30
0.0
 10
-1.6850000000000001
 20
8.4652000000000012
 30
0.0
 10
18.523500000000002
 20
8.4652000000000012
 30
0.0
 10
18.523500000000002
 20
8.4652000000000012
 30
0.0
  0
SPLINE
  5
110
100
AcDbEntity
  8
Ebene 1
370
    20
100
AcDbSpline
210
0.0
220
0.0
230
1.0
 70
     0
 71
     3
 72
     8
 73
     4
 74
     0
 42
0.0000000001
 43
0.0000000001
 40
0.0
 40
0.0
 40
0.0
 40
0.0
 40
1.0
 40
1.0
 40
1.0
 40
1.0
 10
3.4818000000000002
 20
29.581000000000003
 30
0.0
 10
3.4818000000000002
 20
29.581000000000003
 30
0.0
 10
30.033700000000003
 20
29.581000000000003
 30
0.0
 10
30.033700000000003
 20
29.581000000000003
 30
0.0
  0
SPLINE
  5
111
100
AcDbEntity
  8
Ebene 1
370
    20
100
AcDbSpline
210
0.0
220
0.0
230
1.0
 70
     0
 71
     3
 72
     8
 73
     4
 74
     0
 42
0.0000000001
 43
0.0000000001
 40
0.0
 40
0.0
 40
0.0
 40
0.0
 40
1.0
 40
1.0
 40
1.0
 40
1.0
 10
27.118500000000001
 20
-0.4328
 30
0.0
 10
27.118500000000001
 20
-0.4328
 30
0.0
 10
25.707700000000003
 20
10.2826
 30
0.0
 10
25.707700000000003
 20
10.2826
 30
0.0
  0
SPLINE
  5
112
100
AcDbEntity
  8
Ebene 1
370
    20
100
AcDbSpline
210
0.0
220
0.0
230
1.0
 70
     0
 71
     3
 72
     8
 73
     4
 74
     0
 42
0.0000000001
 43
0.0000000001
 40
0.0
 40
0.0
 40
0.0
 40
0.0
 40
1.0
 40
1.0
 40
1.0
 40
1.0
 10
25.707700000000003
 20
10.2826
 30
0.0
 10
25.707700000000003
 20
10.2826
 30
0.0
 10
24.296900000000001
 20
-0.4328
 30
0.0
 10
24.296900000000001
 20
-0.4328
 30
0.0
  0
SPLINE
  5
113
100
AcDbEntity
  8
Ebene 1
370
    20
100
AcDbSpline
210
0.0
220
0.0
230
1.0
 70
     0
 71
     3
 72
     8
 73
     4
 74
     0
 42
0.0000000001
 43
0.0000000001
 40
0.0
 40
0.0
 40
0.0
 40
0.0
 40
1.0
 40
1.0
 40
1.0
 40
1.0
 10
24.296900000000001
 20
-0.4328
 30
0.0
 10
24.296900000000001
 20
-0.4328
 30
0.0
 10
27.118500000000001
 20
-0.4328
 30
0.0
 10
27.118500000000001
 20
-0.4328
 30
0.0
  0
SPLINE
  5
114
100
AcDbEntity
  8
Ebene 1
370
    20
100
AcDbSpline
210
0.0
220
0.0
230
1.0
 70
     0
 71
     3
 72
     8
 73
     4
 74
     0
 42
0.0000000001
 43
0.0000000001
 40
0.0
 40
0.0
 40
0.0
 40
0.0
 40
1.0
 40
1.0
 40
1.0
 40
1.0
 10
26.7516
 20
-0.4568
 30
0.0
 10
26.7516
 20
-0.4568
 30
0.0
 10
25.707700000000003
 20
7.4726000000000008
 30
0.0
 10
25.707700000000003
 20
7.4726000000000008
 30
0.0
  0
SPLINE
  5
115
100
AcDbEntity
  8
Ebene 1
370
    20
100
AcDbSpline
210
0.0
220
0.0
230
1.0
 70
     0
 71
     3
 72
     8
 73
     4
 74
     0
 42
0.0000000001
 43
0.0000000001
 40
0.0
 40
0.0
 40
0.0
 40
0.0
 40
1.0
 40
1.0
 40
1.0
 40
1.0
 10
25.707700000000003
 20
7.4726000000000008
 30
0.0
 10
25.707700000000003
 20
7.4726000000000008
 30
0.0
 10
24.663800000000002
 20
-0.4568
 30
0.0
 10
24.663800000000002
 20
-0.4568
 30
0.0
  0
SPLINE
  5
116
100
AcDbEntity
  8
Ebene 1
370
    20
100
AcDbSpline
210
0.0
220
0.0
230
1.0
 70
     0
 71
     3
 72
     8
 73
     4
 74
     0
 42
0.0000000001
 43
0.0000000001
 40
0.0
 40
0.0
 40
0.0
 40
0.0
 40
1.0
 40
1.0
 40
1.0
 40
1.0
 10
26.384900000000002
 20
-0.4808
 30
0.0
 10
26.384900000000002
 20
-0.4808
 30
0.0
 10
25.707700000000003
 20
4.6626000000000003
 30
0.0
 10
25.707700000000003
 20
4.6626000000000003
 30
0.0
  0
SPLINE
  5
117
100
AcDbEntity
  8
Ebene 1
370
    20
100
AcDbSpline
210
0.0
220
0.0
230
1.0
 70
     0
 71
     3
 72
     8
 73
     4
 74
     0
 42
0.0000000001
 43
0.0000000001
 40
0.0
 40
0.0
 40
0.0
 40
0.0
 40
1.0
 40
1.0
 40
1.0
 40
1.0
 10
25.707700000000003
 20
4.6626000000000003
 30
0.0
 10
25.707700000000003
 20
4.6626000000000003
 30
0.0
 10
25.0305
 20
-0.4808
 30
0.0
 10
25.0305
 20
-0.4808
 30
0.0
  0
SPLINE
  5
118
100
AcDbEntity
  8
Ebene 1
370
    20
100
AcDbSpline
210
0.0
220
0.0
230
1.0
 70
     0
 71
     3
 72
     8
 73
     4
 74
     0
 42
0.0000000001
 43
0.0000000001
 40
0.0
 40
0.0
 40
0.0
 40
0.0
 40
1.0
 40
1.0
 40
1.0
 40
1.0
 10
26.018000000000001
 20
-0.5049
 30
0.0
 10
26.018000000000001
 20
-0.5049
 30
0.0
 10
25.707700000000003
 20
1.8524
 30
0.0
 10
25.707700000000003
 20
1.8524
 30
0.0
  0
SPLINE
  5
119
100
AcDbEntity
  8
Ebene 1
370
    20
100
AcDbSpline
210
0.0
220
0.0
230
1.0
 70
     0
 71
     3
 72
     8
 73
     4
 74
     0
 42
0.0000000001
 43
0.0000000001
 40
0.0
 40
0.0
 40
0.0
 40
0.0
 40
1.0
 40
1.0
 40
1.0
 40
1.0
 10
25.707700000000003
 20
1.8524
 30
0.0
 10
25.707700000000003
 20
1.8524
 30
0.0
 10
25.397400000000001
 20
-0.5049
 30
0.0
 10
25.397400000000001
 20
-0.5049
 30
0.0
  0
SPLINE
  5
11A
100
AcDbEntity
  8
Ebene 1
370
    20
100
AcDbSpline
210
0.0
220
0.0
230
1.0
 70
     0
 71
     3
 72
     8
 73
     4
 74
     0
 42
0.0000000001
 43
0.0000000001
 40
0.0
 40
0.0
 40
0.0
 40
0.0
 40
1.0
 40
1.0
 40
1.0
 40
1.0
 10
24.296900000000001
 20
40.296500000000002
 30
0.0
 10
24.296900000000001
 20
40.296500000000002
 30
0.0
 10
25.707700000000003
 20
29.581000000000003
 30
0.0
 10
25.707700000000003
 20
29.581000000000003
 30
0.0
  0
SPLINE
  5
11B
100
AcDbEntity
  8
Ebene 1
370
    20
100
AcDbSpline
210
0.0
220
0.0
230
1.0
 70
     0
 71
     3
 72
     8
 73
     4
 74
     0
 42
0.0000000001
 43
0.0000000001
 40
0.0
 40
0.0
 40
0.0
 40
0.0
 40
1.0
 40
1.0
 40
1.0
 40
1.0
 10
25.707700000000003
 20
29.581000000000003
 30
0.0
 10
25.707700000000003
 20
29.581000000000003
 30
0.0
 10
27.118500000000001
 20
40.296500000000002
 30
0.0
 10
27.118500000000001
 20
40.296500000000002
 30
0.0
  0
SPLINE
  5
11C
100
AcDbEntity
  8
Ebene 1
370
    20
100
AcDbSpline
210
0.0
220
0.0
230
1.0
 70
     0
 71
     3
 72
     8
 73
     4
 74
     0
 42
0.0000000001
 43
0.0000000001
 40
0.0
 40
0.0
 40
0.0
 40
0.0
 40
1.0
 40
1.0
 40
1.0
 40
1.0
 10
27.118500000000001
 20
40.296500000000002
 30
0.0
 10
27.118500000000001
 20
40.296500000000002
 30
0.0
 10
24.296900000000001
 20
40.296500000000002
 30
0.0
 10
24.296900000000001
 20
40.296500000000002
 30
0.0
  0
SPLINE
  5
11D
100
AcDbEntity
  8
Ebene 1
370
    20
100
AcDbSpline
210
0.0
220
0.0
230
1.0
 70
     0
 71
     3
 72
     8
 73
     4
 74
     0
 42
0.0000000001
 43
0.0000000001
 40
0.0
 40
0.0
 40
0.0
 40
0.0
 40
1.0
 40
1.0
 40
1.0
 40
1.0
 10
24.663800000000002
 20
40.320500000000003
 30
0.0
 10
24.663800000000002
 20
40.320500000000003
 30
0.0
 10
25.707700000000003
 20
32.390999999999998
 30
0.0
 10
25.707700000000003
 20
32.390999999999998
 30
0.0
  0
SPLINE
  5
11E
100
AcDbEntity
  8
Ebene 1
370
    20
100
AcDbSpline
210
0.0
220
0.0
230
1.0
 70
     0
 71
     3
 72
     8
 73
     4
 74
     0
 42
0.0000000001
 43
0.0000000001
 40
0.0
 40
0.0
 40
0.0
 40
0.0
 40
1.0
 40
1.0
 40
1.0
 40
1.0
 10
25.707700000000003
 20
32.390999999999998
 30
0.0
 10
25.707700000000003
 20
32.390999999999998
 30
0.0
 10
26.7516
 20
40.320500000000003
 30
0.0
 10
26.7516
 20
40.320500000000003
 30
0.0
  0
SPLINE
  5
11F
100
AcDbEntity
  8
Ebene 1
370
    20
100
AcDbSpline
210
0.0
220
0.0
230
1.0
 70
     0
 71
     3
 72
     8
 73
     4
 74
     0
 42
0.0000000001
 43
0.0000000001
 40
0.0
 40
0.0
 40
0.0
 40
0.0
 40
1.0
 40
1.0
 40
1.0
 40
1.0
 10
25.0305
 20
40.3446
 30
0.0
 10
25.0305
 20
40.3446
 30
0.0
 10
25.707700000000003
 20
35.2012
 30
0.0
 10
25.707700000000003
 20
35.2012
 30
0.0
  0
SPLINE
  5
120
100
AcDbEntity
  8
Ebene 1
370
    20
100
AcDbSpline
210
0.0
220
0.0
230
1.0
 70
     0
 71
     3
 72
     8
 73
     4
 74
     0
 42
0.0000000001
 43
0.0000000001
 40
0.0
 40
0.0
 40
0.0
 40
0.0
 40
1.0
 40
1.0
 40
1.0
 40
1.0
 10
25.707700000000003
 20
35.2012
 30
0.0
 10
25.707700000000003
 20
35.2012
 30
0.0
 10
26.384900000000002
 20
40.3446
 30
0.0
 10
26.384900000000002
 20
40.3446
 30
0.0
  0
SPLINE
  5
121
100
AcDbEntity
  8
Ebene 1
370
    20
100
AcDbSpline
210
0.0
220
0.0
230
1.0
 70
     0
 71
     3
 72
     8
 73
     4
 74
     0
 42
0.0000000001
 43
0.0000000001
 40
0.0
 40
0.0
 40
0.0
 40
0.0
 40
1.0
 40
1.0
 40
1.0
 40
1.0
 10
25.397400000000001
 20
40.368600000000001
 30
0.0
 10
25.397400000000001
 20
40.368600000000001
 30
0.0
 10
25.707700000000003
 20
38.011200000000002
 30
0.0
 10
25.707700000000003
 20
38.011200000000002
 30
0.0
  0
SPLINE
  5
122
100
AcDbEntity
  8
Ebene 1
370
    20
100
AcDbSpline
210
0.0
220
0.0
230
1.0
 70
     0
 71
     3
 72
     8
 73
     4
 74
     0
 42
0.0000000001
 43
0.0000000001
 40
0.0
 40
0.0
 40
0.0
 40
0.0
 40
1.0
 40
1.0
 40
1.0
 40
1.0
 10
25.707700000000003
 20
38.011200000000002
 30
0.0
 10
25.707700000000003
 20
38.011200000000002
 30
0.0
 10
26.018000000000001
 20
40.368600000000001
 30
0.0
 10
26.018000000000001
 20
40.368600000000001
 30
0.0
  0
SPLINE
  5
123
100
AcDbEntity
  8
Ebene 1
370
    20
100
AcDbSpline
210
0.0
220
0.0
230
1.0
 70
     0
 71
     3
 72
     8
 73
     4
 74
     0
 42
0.0000000001
 43
0.0000000001
 40
0.0
 40
0.0
 40
0.0
 40
0.0
 40
1.0
 40
1.0
 40
1.0
 40
1.0
 10
25.707700000000003
 20
-6.6657999999999999
 30
0.0
 10
25.707700000000003
 20
-6.6657999999999999
 30
0.0
 10
25.707700000000003
 20
44.7121
 30
0.0
 10
25.707700000000003
 20
44.7121
 30
0.0
  0
SPLINE
  5
124
100
AcDbEntity
  8
Ebene 1
370
    20
100
AcDbSpline
210
0.0
220
0.0
230
1.0
 70
     0
 71
     3
 72
     8
 73
     4
 74
     0
 42
0.0000000001
 43
0.0000000001
 40
0.0
 40
0.0
 40
0.0
 40
0.0
 40
1.0
 40
1.0
 40
1.0
 40
1.0
 10
-36.874300000000005
 20
9.2371999999999996
 30
0.0
 10
-36.874300000000005
 20
9.2371999999999996
 30
0.0
 10
-36.874300000000005
 20
-12.944600000000001
 30
0.0
 10
-36.874300000000005
 20
-12.944600000000001
 30
0.0
  0
SPLINE
  5
125
100
AcDbEntity
  8
Ebene 1
370
    20
100
AcDbSpline
210
0.0
220
0.0
230
1.0
 70
     0
 71
     3
 72
     8
 73
     4
 74
     0
 42
0.0000000001
 43
0.0000000001
 40
0.0
 40
0.0
 40
0.0
 40
0.0
 40
1.0
 40
1.0
 40
1.0
 40
1.0
 10
-1.4783000000000002
 20
9.2371999999999996
 30
0.0
 10
-1.4783000000000002
 20
9.2371999999999996
 30
0.0
 10
-1.4783000000000002
 20
-12.944600000000001
 30
0.0
 10
-1.4783000000000002
 20
-12.944600000000001
 30
0.0
  0
SPLINE
  5
126
100
AcDbEntity
  8
Ebene 1
370
    20
100
AcDbSpline
210
0.0
220
0.0
230
1.0
 70
     0
 71
     3
 72
     8
 73
     4
 74
     0
 42
0.0000000001
 43
0.0000000001
 40
0.0
 40
0.0
 40
0.0
 40
0.0
 40
1.0
 40
1.0
 40
1.0
 40
1.0
 10
-47.589800000000004
 20
-9.7000000000000011
 30
0.0
 10
-47.589800000000004
 20
-9.7000000000000011
 30
0.0
 10
-36.874300000000005
 20
-8.289200000000001
 30
0.0
 10
-36.874300000000005
 20
-8.289200000000001
 30
0.0
  0
SPLINE
  5
127
100
AcDbEntity
  8
Ebene 1
370
    20
100
AcDbSpline
210
0.0
220
0.0
230
1.0
 70
     0
 71
     3
 72
     8
 73
     4
 74
     0
 42
0.0000000001
 43
0.0000000001
 40
0.0
 40
0.0
 40
0.0
 40
0.0
 40
1.0
 40
1.0
 40
1.0
 40
1.0
 10
-36.874300000000005
 20
-8.289200000000001
 30
0.0
 10
-36.874300000000005
 20
-8.289200000000001
 30
0.0
 10
-47.589800000000004
 20
-6.8786000000000005
 30
0.0
 10
-47.589800000000004
 20
-6.8786000000000005
 30
0.0
  0
SPLINE
  5
128
100
AcDbEntity
  8
Ebene 1
370
    20
100
AcDbSpline
210
0.0
220
0.0
230
1.0
 70
     0
 71
     3
 72
     8
 73
     4
 74
     0
 42
0.0000000001
 43
0.0000000001
 40
0.0
 40
0.0
 40
0.0
 40
0.0
 40
1.0
 40
1.0
 40
1.0
 40
1.0
 10
-47.589800000000004
 20
-6.8786000000000005
 30
0.0
 10
-47.589800000000004
 20
-6.8786000000000005
 30
0.0
 10
-47.589800000000004
 20
-9.7000000000000011
 30
0.0
 10
-47.589800000000004
 20
-9.7000000000000011
 30
0.0
  0
SPLINE
  5
129
100
AcDbEntity
  8
Ebene 1
370
    20
100
AcDbSpline
210
0.0
220
0.0
230
1.0
 70
     0
 71
     3
 72
     8
 73
     4
 74
     0
 42
0.0000000001
 43
0.0000000001
 40
0.0
 40
0.0
 40
0.0
 40
0.0
 40
1.0
 40
1.0
 40
1.0
 40
1.0
 10
-47.613800000000005
 20
-9.3331
 30
0.0
 10
-47.613800000000005
 20
-9.3331
 30
0.0
 10
-39.684400000000004
 20
-8.289200000000001
 30
0.0
 10
-39.684400000000004
 20
-8.289200000000001
 30
0.0
  0
SPLINE
  5
12A
100
AcDbEntity
  8
Ebene 1
370
    20
100
AcDbSpline
210
0.0
220
0.0
230
1.0
 70
     0
 71
     3
 72
     8
 73
     4
 74
     0
 42
0.0000000001
 43
0.0000000001
 40
0.0
 40
0.0
 40
0.0
 40
0.0
 40
1.0
 40
1.0
 40
1.0
 40
1.0
 10
-39.684400000000004
 20
-8.289200000000001
 30
0.0
 10
-39.684400000000004
 20
-8.289200000000001
 30
0.0
 10
-47.613800000000005
 20
-7.2453000000000003
 30
0.0
 10
-47.613800000000005
 20
-7.2453000000000003
 30
0.0
  0
SPLINE
  5
12B
100
AcDbEntity
  8
Ebene 1
370
    20
100
AcDbSpline
210
0.0
220
0.0
230
1.0
 70
     0
 71
     3
 72
     8
 73
     4
 74
     0
 42
0.0000000001
 43
0.0000000001
 40
0.0
 40
0.0
 40
0.0
 40
0.0
 40
1.0
 40
1.0
 40
1.0
 40
1.0
 10
-47.637900000000002
 20
-8.9664000000000001
 30
0.0
 10
-47.637900000000002
 20
-8.9664000000000001
 30
0.0
 10
-42.494399999999999
 20
-8.289200000000001
 30
0.0
 10
-42.494399999999999
 20
-8.289200000000001
 30
0.0
  0
SPLINE
  5
12C
100
AcDbEntity
  8
Ebene 1
370
    20
100
AcDbSpline
210
0.0
220
0.0
230
1.0
 70
     0
 71
     3
 72
     8
 73
     4
 74
     0
 42
0.0000000001
 43
0.0000000001
 40
0.0
 40
0.0
 40
0.0
 40
0.0
 40
1.0
 40
1.0
 40
1.0
 40
1.0
 10
-42.494399999999999
 20
-8.289200000000001
 30
0.0
 10
-42.494399999999999
 20
-8.289200000000001
 30
0.0
 10
-47.637900000000002
 20
-7.6120000000000001
 30
0.0
 10
-47.637900000000002
 20
-7.6120000000000001
 30
0.0
  0
SPLINE
  5
12D
100
AcDbEntity
  8
Ebene 1
370
    20
100
AcDbSpline
210
0.0
220
0.0
230
1.0
 70
     0
 71
     3
 72
     8
 73
     4
 74
     0
 42
0.0000000001
 43
0.0000000001
 40
0.0
 40
0.0
 40
0.0
 40
0.0
 40
1.0
 40
1.0
 40
1.0
 40
1.0
 10
-47.661999999999999
 20
-8.5996000000000006
 30
0.0
 10
-47.661999999999999
 20
-8.5996000000000006
 30
0.0
 10
-45.304600000000001
 20
-8.289200000000001
 30
0.0
 10
-45.304600000000001
 20
-8.289200000000001
 30
0.0
  0
SPLINE
  5
12E
100
AcDbEntity
  8
Ebene 1
370
    20
100
AcDbSpline
210
0.0
220
0.0
230
1.0
 70
     0
 71
     3
 72
     8
 73
     4
 74
     0
 42
0.0000000001
 43
0.0000000001
 40
0.0
 40
0.0
 40
0.0
 40
0.0
 40
1.0
 40
1.0
 40
1.0
 40
1.0
 10
-45.304600000000001
 20
-8.289200000000001
 30
0.0
 10
-45.304600000000001
 20
-8.289200000000001
 30
0.0
 10
-47.661999999999999
 20
-7.9789000000000003
 30
0.0
 10
-47.661999999999999
 20
-7.9789000000000003
 30
0.0
  0
SPLINE
  5
12F
100
AcDbEntity
  8
Ebene 1
370
    20
100
AcDbSpline
210
0.0
220
0.0
230
1.0
 70
     0
 71
     3
 72
     8
 73
     4
 74
     0
 42
0.0000000001
 43
0.0000000001
 40
0.0
 40
0.0
 40
0.0
 40
0.0
 40
1.0
 40
1.0
 40
1.0
 40
1.0
 10
9.2371999999999996
 20
-6.8786000000000005
 30
0.0
 10
9.2371999999999996
 20
-6.8786000000000005
 30
0.0
 10
-1.4783000000000002
 20
-8.289200000000001
 30
0.0
 10
-1.4783000000000002
 20
-8.289200000000001
 30
0.0
  0
SPLINE
  5
130
100
AcDbEntity
  8
Ebene 1
370
    20
100
AcDbSpline
210
0.0
220
0.0
230
1.0
 70
     0
 71
     3
 72
     8
 73
     4
 74
     0
 42
0.0000000001
 43
0.0000000001
 40
0.0
 40
0.0
 40
0.0
 40
0.0
 40
1.0
 40
1.0
 40
1.0
 40
1.0
 10
-1.4783000000000002
 20
-8.289200000000001
 30
0.0
 10
-1.4783000000000002
 20
-8.289200000000001
 30
0.0
 10
9.2371999999999996
 20
-9.7000000000000011
 30
0.0
 10
9.2371999999999996
 20
-9.7000000000000011
 30
0.0
  0
SPLINE
  5
131
100
AcDbEntity
  8
Ebene 1
370
    20
100
AcDbSpline
210
0.0
220
0.0
230
1.0
 70
     0
 71
     3
 72
     8
 73
     4
 74
     0
 42
0.0000000001
 43
0.0000000001
 40
0.0
 40
0.0
 40
0.0
 40
0.0
 40
1.0
 40
1.0
 40
1.0
 40
1.0
 10
9.2371999999999996
 20
-9.7000000000000011
 30
0.0
 10
9.2371999999999996
 20
-9.7000000000000011
 30
0.0
 10
9.2371999999999996
 20
-6.8786000000000005
 30
0.0
 10
9.2371999999999996
 20
-6.8786000000000005
 30
0.0
  0
SPLINE
  5
132
100
AcDbEntity
  8
Ebene 1
370
    20
100
AcDbSpline
210
0.0
220
0.0
230
1.0
 70
     0
 71
     3
 72
     8
 73
     4
 74
     0
 42
0.0000000001
 43
0.0000000001
 40
0.0
 40
0.0
 40
0.0
 40
0.0
 40
1.0
 40
1.0
 40
1.0
 40
1.0
 10
9.2612000000000005
 20
-7.2453000000000003
 30
0.0
 10
9.2612000000000005
 20
-7.2453000000000003
 30
0.0
 10
1.3319000000000001
 20
-8.289200000000001
 30
0.0
 10
1.3319000000000001
 20
-8.289200000000001
 30
0.0
  0
SPLINE
  5
133
100
AcDbEntity
  8
Ebene 1
370
    20
100
AcDbSpline
210
0.0
220
0.0
230
1.0
 70
     0
 71
     3
 72
     8
 73
     4
 74
     0
 42
0.0000000001
 43
0.0000000001
 40
0.0
 40
0.0
 40
0.0
 40
0.0
 40
1.0
 40
1.0
 40
1.0
 40
1.0
 10
1.3319000000000001
 20
-8.289200000000001
 30
0.0
 10
1.3319000000000001
 20
-8.289200000000001
 30
0.0
 10
9.2612000000000005
 20
-9.3331
 30
0.0
 10
9.2612000000000005
 20
-9.3331
 30
0.0
  0
SPLINE
  5
134
100
AcDbEntity
  8
Ebene 1
370
    20
100
AcDbSpline
210
0.0
220
0.0
230
1.0
 70
     0
 71
     3
 72
     8
 73
     4
 74
     0
 42
0.0000000001
 43
0.0000000001
 40
0.0
 40
0.0
 40
0.0
 40
0.0
 40
1.0
 40
1.0
 40
1.0
 40
1.0
 10
9.2853000000000012
 20
-7.6120000000000001
 30
0.0
 10
9.2853000000000012
 20
-7.6120000000000001
 30
0.0
 10
4.1419000000000006
 20
-8.289200000000001
 30
0.0
 10
4.1419000000000006
 20
-8.289200000000001
 30
0.0
  0
SPLINE
  5
135
100
AcDbEntity
  8
Ebene 1
370
    20
100
AcDbSpline
210
0.0
220
0.0
230
1.0
 70
     0
 71
     3
 72
     8
 73
     4
 74
     0
 42
0.0000000001
 43
0.0000000001
 40
0.0
 40
0.0
 40
0.0
 40
0.0
 40
1.0
 40
1.0
 40
1.0
 40
1.0
 10
4.1419000000000006
 20
-8.289200000000001
 30
0.0
 10
4.1419000000000006
 20
-8.289200000000001
 30
0.0
 10
9.2853000000000012
 20
-8.9664000000000001
 30
0.0
 10
9.2853000000000012
 20
-8.9664000000000001
 30
0.0
  0
SPLINE
  5
136
100
AcDbEntity
  8
Ebene 1
370
    20
100
AcDbSpline
210
0.0
220
0.0
230
1.0
 70
     0
 71
     3
 72
     8
 73
     4
 74
     0
 42
0.0000000001
 43
0.0000000001
 40
0.0
 40
0.0
 40
0.0
 40
0.0
 40
1.0
 40
1.0
 40
1.0
 40
1.0
 10
9.3093000000000004
 20
-7.9789000000000003
 30
0.0
 10
9.3093000000000004
 20
-7.9789000000000003
 30
0.0
 10
6.9519000000000002
 20
-8.289200000000001
 30
0.0
 10
6.9519000000000002
 20
-8.289200000000001
 30
0.0
  0
SPLINE
  5
137
100
AcDbEntity
  8
Ebene 1
370
    20
100
AcDbSpline
210
0.0
220
0.0
230
1.0
 70
     0
 71
     3
 72
     8
 73
     4
 74
     0
 42
0.0000000001
 43
0.0000000001
 40
0.0
 40
0.0
 40
0.0
 40
0.0
 40
1.0
 40
1.0
 40
1.0
 40
1.0
 10
6.9519000000000002
 20
-8.289200000000001
 30
0.0
 10
6.9519000000000002
 20
-8.289200000000001
 30
0.0
 10
9.3093000000000004
 20
-8.5996000000000006
 30
0.0
 10
9.3093000000000004
 20
-8.5996000000000006
 30
0.0
  0
SPLINE
  5
138
100
AcDbEntity
  8
Ebene 1
370
    20
100
AcDbSpline
210
0.0
220
0.0
230
1.0
 70
     0
 71
     3
 72
     8
 73
     4
 74
     0
 42
0.0000000001
 43
0.0000000001
 40
0.0
 40
0.0
 40
0.0
 40
0.0
 40
1.0
 40
1.0
 40
1.0
 40
1.0
 10
-52.005500000000005
 20
-8.289200000000001
 30
0.0
 10
-52.005500000000005
 20
-8.289200000000001
 30
0.0
 10
14.6974
 20
-8.289200000000001
 30
0.0
 10
14.6974
 20
-8.289200000000001
 30
0.0
  0
SPLINE
  5
139
100
AcDbEntity
  8
Ebene 1
370
    35
100
AcDbSpline
210
0.0
220
0.0
230
1.0
 70
     0
 71
     3
 72
     8
 73
     4
 74
     0
 42
0.0000000001
 43
0.0000000001
 40
0.0
 40
0.0
 40
0.0
 40
0.0
 40
1.0
 40
1.0
 40
1.0
 40
1.0
 10
-36.044400000000003
 20
25.912300000000002
 30
0.0
 10
-36.044400000000003
 20
25.912300000000002
 30
0.0
 10
-19.176300000000001
 20
25.912300000000002
 30
0.0
 10
-19.176300000000001
 20
25.912300000000002
 30
0.0
  0
SPLINE
  5
13A
100
AcDbEntity
  8
Ebene 1
370
    35
100
AcDbSpline
210
0.0
220
0.0
230
1.0
 70
     0
 71
     3
 72
     8
 73
     4
 74
     0
 42
0.0000000001
 43
0.0000000001
 40
0.0
 40
0.0
 40
0.0
 40
0.0
 40
1.0
 40
1.0
 40
1.0
 40
1.0
 10
-35.851400000000005
 20
25.449100000000001
 30
0.0
 10
-35.851400000000005
 20
25.449100000000001
 30
0.0
 10
-35.851400000000005
 20
23.7121
 30
0.0
 10
-35.851400000000005
 20
23.7121
 30
0.0
  0
SPLINE
  5
13B
100
AcDbEntity
  8
Ebene 1
370
    35
100
AcDbSpline
210
0.0
220
0.0
230
1.0
 70
     0
 71
     3
 72
     8
 73
     4
 74
     0
 42
0.0000000001
 43
0.0000000001
 40
0.0
 40
0.0
 40
0.0
 40
0.0
 40
1.0
 40
1.0
 40
1.0
 40
1.0
 10
-35.581299999999999
 20
25.449100000000001
 30
0.0
 10
-35.581299999999999
 20
25.449100000000001
 30
0.0
 10
-35.581299999999999
 20
23.4419
 30
0.0
 10
-35.581299999999999
 20
23.4419
 30
0.0
  0
SPLINE
  5
13C
100
AcDbEntity
  8
Ebene 1
370
    35
100
AcDbSpline
210
0.0
220
0.0
230
1.0
 70
     0
 71
     3
 72
     8
 73
     4
 74
     0
 42
0.0000000001
 43
0.0000000001
 40
0.0
 40
0.0
 40
0.0
 40
0.0
 40
1.0
 40
1.0
 40
1.0
 40
1.0
 10
-35.851400000000005
 20
25.449100000000001
 30
0.0
 10
-35.851400000000005
 20
25.555700000000002
 30
0.0
 10
-35.937800000000003
 20
25.642100000000003
 30
0.0
 10
-36.044400000000003
 20
25.642100000000003
 30
0.0
  0
SPLINE
  5
13D
100
AcDbEntity
  8
Ebene 1
370
    35
100
AcDbSpline
210
0.0
220
0.0
230
1.0
 70
     0
 71
     3
 72
     8
 73
     4
 74
     0
 42
0.0000000001
 43
0.0000000001
 40
0.0
 40
0.0
 40
0.0
 40
0.0
 40
1.0
 40
1.0
 40
1.0
 40
1.0
 10
-35.581299999999999
 20
25.449100000000001
 30
0.0
 10
-35.581299999999999
 20
25.705000000000002
 30
0.0
 10
-35.788600000000002
 20
25.912300000000002
 30
0.0
 10
-36.044400000000003
 20
25.912300000000002
 30
0.0
  0
SPLINE
  5
13E
100
AcDbEntity
  8
Ebene 1
370
    35
100
AcDbSpline
210
0.0
220
0.0
230
1.0
 70
     0
 71
     3
 72
     8
 73
     4
 74
     0
 42
0.0000000001
 43
0.0000000001
 40
0.0
 40
0.0
 40
0.0
 40
0.0
 40
1.0
 40
1.0
 40
1.0
 40
1.0
 10
-2.3082000000000003
 20
25.912300000000002
 30
0.0
 10
-2.3082000000000003
 20
25.912300000000002
 30
0.0
 10
-19.176300000000001
 20
25.912300000000002
 30
0.0
 10
-19.176300000000001
 20
25.912300000000002
 30
0.0
  0
SPLINE
  5
13F
100
AcDbEntity
  8
Ebene 1
370
    35
100
AcDbSpline
210
0.0
220
0.0
230
1.0
 70
     0
 71
     3
 72
     8
 73
     4
 74
     0
 42
0.0000000001
 43
0.0000000001
 40
0.0
 40
0.0
 40
0.0
 40
0.0
 40
1.0
 40
1.0
 40
1.0
 40
1.0
 10
-2.5012000000000003
 20
25.449100000000001
 30
0.0
 10
-2.5012000000000003
 20
25.449100000000001
 30
0.0
 10
-2.5012000000000003
 20
23.7121
 30
0.0
 10
-2.5012000000000003
 20
23.7121
 30
0.0
  0
SPLINE
  5
140
100
AcDbEntity
  8
Ebene 1
370
    35
100
AcDbSpline
210
0.0
220
0.0
230
1.0
 70
     0
 71
     3
 72
     8
 73
     4
 74
     0
 42
0.0000000001
 43
0.0000000001
 40
0.0
 40
0.0
 40
0.0
 40
0.0
 40
1.0
 40
1.0
 40
1.0
 40
1.0
 10
-2.7713000000000001
 20
25.449100000000001
 30
0.0
 10
-2.7713000000000001
 20
25.449100000000001
 30
0.0
 10
-2.7713000000000001
 20
23.4419
 30
0.0
 10
-2.7713000000000001
 20
23.4419
 30
0.0
  0
SPLINE
  5
141
100
AcDbEntity
  8
Ebene 1
370
    35
100
AcDbSpline
210
0.0
220
0.0
230
1.0
 70
     0
 71
     3
 72
     8
 73
     4
 74
     0
 42
0.0000000001
 43
0.0000000001
 40
0.0
 40
0.0
 40
0.0
 40
0.0
 40
1.0
 40
1.0
 40
1.0
 40
1.0
 10
-2.3082000000000003
 20
25.642100000000003
 30
0.0
 10
-2.4147000000000003
 20
25.642100000000003
 30
0.0
 10
-2.5012000000000003
 20
25.555700000000002
 30
0.0
 10
-2.5012000000000003
 20
25.449100000000001
 30
0.0
  0
SPLINE
  5
142
100
AcDbEntity
  8
Ebene 1
370
    35
100
AcDbSpline
210
0.0
220
0.0
230
1.0
 70
     0
 71
     3
 72
     8
 73
     4
 74
     0
 42
0.0000000001
 43
0.0000000001
 40
0.0
 40
0.0
 40
0.0
 40
0.0
 40
1.0
 40
1.0
 40
1.0
 40
1.0
 10
-2.3082000000000003
 20
25.912300000000002
 30
0.0
 10
-2.5639000000000003
 20
25.912300000000002
 30
0.0
 10
-2.7713000000000001
 20
25.705000000000002
 30
0.0
 10
-2.7713000000000001
 20
25.449100000000001
 30
0.0
  0
SPLINE
  5
144
100
AcDbEntity
  8
LC-001-002-----0
370
    35
100
AcDbSpline
210
0.0
220
0.0
230
1.0
 70
     0
 71
     3
 72
     8
 73
     4
 74
     0
 42
0.0000000001
 43
0.0000000001
 40
0.0
 40
0.0
 40
0.0
 40
0.0
 40
1.0
 40
1.0
 40
1.0
 40
1.0
 10
-35.982800000000005
 20
25.549800000000001
 30
0.0
 10
-35.982800000000005
 20
25.549800000000001
 30
0.0
 10
-35.982800000000005
 20
8.3640000000000008
 30
0.0
 10
-35.982800000000005
 20
8.3640000000000008
 30
0.0
  0
SPLINE
  5
146
100
AcDbEntity
  8
LC-005-001-----0
370
    20
100
AcDbSpline
210
0.0
220
0.0
230
1.0
 70
     0
 71
     3
 72
     8
 73
     4
 74
     0
 42
0.0000000001
 43
0.0000000001
 40
0.0
 40
0.0
 40
0.0
 40
0.0
 40
1.0
 40
1.0
 40
1.0
 40
1.0
 10
12.337200000000001
 20
10.526400000000001
 30
0.0
 10
12.337200000000001
 20
10.526400000000001
 30
0.0
 10
-35.966700000000003
 20
10.526400000000001
 30
0.0
 10
-35.966700000000003
 20
10.526400000000001
 30
0.0
  0
SPLINE
  5
147
100
AcDbEntity
  8
LC-005-001-----0
370
    20
100
AcDbSpline
210
0.0
220
0.0
230
1.0
 70
     0
 71
     3
 72
     8
 73
     4
 74
     0
 42
0.0000000001
 43
0.0000000001
 40
0.0
 40
0.0
 40
0.0
 40
0.0
 40
1.0
 40
1.0
 40
1.0
 40
1.0
 10
12.337200000000001
 20
10.526400000000001
 30
0.0
 10
12.337200000000001
 20
10.526400000000001
 30
0.0
 10
29.707500000000003
 20
10.526400000000001
 30
0.0
 10
29.707500000000003
 20
10.526400000000001
 30
0.0
  0
SPLINE
  5
148
100
AcDbEntity
  8
LC-005-001-----0
370
    20
100
AcDbSpline
210
0.0
220
0.0
230
1.0
 70
     0
 71
     3
 72
     8
 73
     4
 74
     0
 42
0.0000000001
 43
0.0000000001
 40
0.0
 40
0.0
 40
0.0
 40
0.0
 40
1.0
 40
1.0
 40
1.0
 40
1.0
 10
14.356400000000001
 20
-2.1191
 30
0.0
 10
14.356400000000001
 20
-2.1191
 30
0.0
 10
12.9457
 20
8.5964000000000009
 30
0.0
 10
12.9457
 20
8.5964000000000009
 30
0.0
  0
SPLINE
  5
149
100
AcDbEntity
  8
LC-005-001-----0
370
    20
100
AcDbSpline
210
0.0
220
0.0
230
1.0
 70
     0
 71
     3
 72
     8
 73
     4
 74
     0
 42
0.0000000001
 43
0.0000000001
 40
0.0
 40
0.0
 40
0.0
 40
0.0
 40
1.0
 40
1.0
 40
1.0
 40
1.0
 10
12.9457
 20
8.5964000000000009
 30
0.0
 10
12.9457
 20
8.5964000000000009
 30
0.0
 10
11.5349
 20
-2.1191
 30
0.0
 10
11.5349
 20
-2.1191
 30
0.0
  0
SPLINE
  5
14A
100
AcDbEntity
  8
LC-005-001-----0
370
    20
100
AcDbSpline
210
0.0
220
0.0
230
1.0
 70
     0
 71
     3
 72
     8
 73
     4
 74
     0
 42
0.0000000001
 43
0.0000000001
 40
0.0
 40
0.0
 40
0.0
 40
0.0
 40
1.0
 40
1.0
 40
1.0
 40
1.0
 10
11.5349
 20
-2.1191
 30
0.0
 10
11.5349
 20
-2.1191
 30
0.0
 10
14.356400000000001
 20
-2.1191
 30
0.0
 10
14.356400000000001
 20
-2.1191
 30
0.0
  0
SPLINE
  5
14B
100
AcDbEntity
  8
LC-005-001-----0
370
    20
100
AcDbSpline
210
0.0
220
0.0
230
1.0
 70
     0
 71
     3
 72
     8
 73
     4
 74
     0
 42
0.0000000001
 43
0.0000000001
 40
0.0
 40
0.0
 40
0.0
 40
0.0
 40
1.0
 40
1.0
 40
1.0
 40
1.0
 10
13.989600000000001
 20
-2.1431
 30
0.0
 10
13.989600000000001
 20
-2.1431
 30
0.0
 10
12.9457
 20
5.7863000000000007
 30
0.0
 10
12.9457
 20
5.7863000000000007
 30
0.0
  0
SPLINE
  5
14C
100
AcDbEntity
  8
LC-005-001-----0
370
    20
100
AcDbSpline
210
0.0
220
0.0
230
1.0
 70
     0
 71
     3
 72
     8
 73
     4
 74
     0
 42
0.0000000001
 43
0.0000000001
 40
0.0
 40
0.0
 40
0.0
 40
0.0
 40
1.0
 40
1.0
 40
1.0
 40
1.0
 10
12.9457
 20
5.7863000000000007
 30
0.0
 10
12.9457
 20
5.7863000000000007
 30
0.0
 10
11.9018
 20
-2.1431
 30
0.0
 10
11.9018
 20
-2.1431
 30
0.0
  0
SPLINE
  5
14D
100
AcDbEntity
  8
LC-005-001-----0
370
    20
100
AcDbSpline
210
0.0
220
0.0
230
1.0
 70
     0
 71
     3
 72
     8
 73
     4
 74
     0
 42
0.0000000001
 43
0.0000000001
 40
0.0
 40
0.0
 40
0.0
 40
0.0
 40
1.0
 40
1.0
 40
1.0
 40
1.0
 10
13.622900000000001
 20
-2.1671
 30
0.0
 10
13.622900000000001
 20
-2.1671
 30
0.0
 10
12.9457
 20
2.9763000000000002
 30
0.0
 10
12.9457
 20
2.9763000000000002
 30
0.0
  0
SPLINE
  5
14E
100
AcDbEntity
  8
LC-005-001-----0
370
    20
100
AcDbSpline
210
0.0
220
0.0
230
1.0
 70
     0
 71
     3
 72
     8
 73
     4
 74
     0
 42
0.0000000001
 43
0.0000000001
 40
0.0
 40
0.0
 40
0.0
 40
0.0
 40
1.0
 40
1.0
 40
1.0
 40
1.0
 10
12.9457
 20
2.9763000000000002
 30
0.0
 10
12.9457
 20
2.9763000000000002
 30
0.0
 10
12.268500000000001
 20
-2.1671
 30
0.0
 10
12.268500000000001
 20
-2.1671
 30
0.0
  0
SPLINE
  5
14F
100
AcDbEntity
  8
LC-005-001-----0
370
    20
100
AcDbSpline
210
0.0
220
0.0
230
1.0
 70
     0
 71
     3
 72
     8
 73
     4
 74
     0
 42
0.0000000001
 43
0.0000000001
 40
0.0
 40
0.0
 40
0.0
 40
0.0
 40
1.0
 40
1.0
 40
1.0
 40
1.0
 10
13.256
 20
-2.1913
 30
0.0
 10
13.256
 20
-2.1913
 30
0.0
 10
12.9457
 20
0.1661
 30
0.0
 10
12.9457
 20
0.1661
 30
0.0
  0
SPLINE
  5
150
100
AcDbEntity
  8
LC-005-001-----0
370
    20
100
AcDbSpline
210
0.0
220
0.0
230
1.0
 70
     0
 71
     3
 72
     8
 73
     4
 74
     0
 42
0.0000000001
 43
0.0000000001
 40
0.0
 40
0.0
 40
0.0
 40
0.0
 40
1.0
 40
1.0
 40
1.0
 40
1.0
 10
12.9457
 20
0.1661
 30
0.0
 10
12.9457
 20
0.1661
 30
0.0
 10
12.635300000000001
 20
-2.1913
 30
0.0
 10
12.635300000000001
 20
-2.1913
 30
0.0
  0
SPLINE
  5
151
100
AcDbEntity
  8
LC-005-001-----0
370
    20
100
AcDbSpline
210
0.0
220
0.0
230
1.0
 70
     0
 71
     3
 72
     8
 73
     4
 74
     0
 42
0.0000000001
 43
0.0000000001
 40
0.0
 40
0.0
 40
0.0
 40
0.0
 40
1.0
 40
1.0
 40
1.0
 40
1.0
 10
11.5349
 20
21.241800000000001
 30
0.0
 10
11.5349
 20
21.241800000000001
 30
0.0
 10
12.9457
 20
10.526400000000001
 30
0.0
 10
12.9457
 20
10.526400000000001
 30
0.0
  0
SPLINE
  5
152
100
AcDbEntity
  8
LC-005-001-----0
370
    20
100
AcDbSpline
210
0.0
220
0.0
230
1.0
 70
     0
 71
     3
 72
     8
 73
     4
 74
     0
 42
0.0000000001
 43
0.0000000001
 40
0.0
 40
0.0
 40
0.0
 40
0.0
 40
1.0
 40
1.0
 40
1.0
 40
1.0
 10
12.9457
 20
10.526400000000001
 30
0.0
 10
12.9457
 20
10.526400000000001
 30
0.0
 10
14.356400000000001
 20
21.241800000000001
 30
0.0
 10
14.356400000000001
 20
21.241800000000001
 30
0.0
  0
SPLINE
  5
153
100
AcDbEntity
  8
LC-005-001-----0
370
    20
100
AcDbSpline
210
0.0
220
0.0
230
1.0
 70
     0
 71
     3
 72
     8
 73
     4
 74
     0
 42
0.0000000001
 43
0.0000000001
 40
0.0
 40
0.0
 40
0.0
 40
0.0
 40
1.0
 40
1.0
 40
1.0
 40
1.0
 10
14.356400000000001
 20
21.241800000000001
 30
0.0
 10
14.356400000000001
 20
21.241800000000001
 30
0.0
 10
11.5349
 20
21.241800000000001
 30
0.0
 10
11.5349
 20
21.241800000000001
 30
0.0
  0
SPLINE
  5
154
100
AcDbEntity
  8
LC-005-001-----0
370
    20
100
AcDbSpline
210
0.0
220
0.0
230
1.0
 70
     0
 71
     3
 72
     8
 73
     4
 74
     0
 42
0.0000000001
 43
0.0000000001
 40
0.0
 40
0.0
 40
0.0
 40
0.0
 40
1.0
 40
1.0
 40
1.0
 40
1.0
 10
11.9018
 20
21.266000000000002
 30
0.0
 10
11.9018
 20
21.266000000000002
 30
0.0
 10
12.9457
 20
13.336400000000001
 30
0.0
 10
12.9457
 20
13.336400000000001
 30
0.0
  0
SPLINE
  5
155
100
AcDbEntity
  8
LC-005-001-----0
370
    20
100
AcDbSpline
210
0.0
220
0.0
230
1.0
 70
     0
 71
     3
 72
     8
 73
     4
 74
     0
 42
0.0000000001
 43
0.0000000001
 40
0.0
 40
0.0
 40
0.0
 40
0.0
 40
1.0
 40
1.0
 40
1.0
 40
1.0
 10
12.9457
 20
13.336400000000001
 30
0.0
 10
12.9457
 20
13.336400000000001
 30
0.0
 10
13.989600000000001
 20
21.266000000000002
 30
0.0
 10
13.989600000000001
 20
21.266000000000002
 30
0.0
  0
SPLINE
  5
156
100
AcDbEntity
  8
LC-005-001-----0
370
    20
100
AcDbSpline
210
0.0
220
0.0
230
1.0
 70
     0
 71
     3
 72
     8
 73
     4
 74
     0
 42
0.0000000001
 43
0.0000000001
 40
0.0
 40
0.0
 40
0.0
 40
0.0
 40
1.0
 40
1.0
 40
1.0
 40
1.0
 10
12.268500000000001
 20
21.290000000000003
 30
0.0
 10
12.268500000000001
 20
21.290000000000003
 30
0.0
 10
12.9457
 20
16.146599999999999
 30
0.0
 10
12.9457
 20
16.146599999999999
 30
0.0
  0
SPLINE
  5
157
100
AcDbEntity
  8
LC-005-001-----0
370
    20
100
AcDbSpline
210
0.0
220
0.0
230
1.0
 70
     0
 71
     3
 72
     8
 73
     4
 74
     0
 42
0.0000000001
 43
0.0000000001
 40
0.0
 40
0.0
 40
0.0
 40
0.0
 40
1.0
 40
1.0
 40
1.0
 40
1.0
 10
12.9457
 20
16.146599999999999
 30
0.0
 10
12.9457
 20
16.146599999999999
 30
0.0
 10
13.622900000000001
 20
21.290000000000003
 30
0.0
 10
13.622900000000001
 20
21.290000000000003
 30
0.0
  0
SPLINE
  5
158
100
AcDbEntity
  8
LC-005-001-----0
370
    20
100
AcDbSpline
210
0.0
220
0.0
230
1.0
 70
     0
 71
     3
 72
     8
 73
     4
 74
     0
 42
0.0000000001
 43
0.0000000001
 40
0.0
 40
0.0
 40
0.0
 40
0.0
 40
1.0
 40
1.0
 40
1.0
 40
1.0
 10
12.635300000000001
 20
21.314
 30
0.0
 10
12.635300000000001
 20
21.314
 30
0.0
 10
12.9457
 20
18.956600000000002
 30
0.0
 10
12.9457
 20
18.956600000000002
 30
0.0
  0
SPLINE
  5
159
100
AcDbEntity
  8
LC-005-001-----0
370
    20
100
AcDbSpline
210
0.0
220
0.0
230
1.0
 70
     0
 71
     3
 72
     8
 73
     4
 74
     0
 42
0.0000000001
 43
0.0000000001
 40
0.0
 40
0.0
 40
0.0
 40
0.0
 40
1.0
 40
1.0
 40
1.0
 40
1.0
 10
12.9457
 20
18.956600000000002
 30
0.0
 10
12.9457
 20
18.956600000000002
 30
0.0
 10
13.256
 20
21.314
 30
0.0
 10
13.256
 20
21.314
 30
0.0
  0
SPLINE
  5
15A
100
AcDbEntity
  8
LC-005-001-----0
370
    20
100
AcDbSpline
210
0.0
220
0.0
230
1.0
 70
     0
 71
     3
 72
     8
 73
     4
 74
     0
 42
0.0000000001
 43
0.0000000001
 40
0.0
 40
0.0
 40
0.0
 40
0.0
 40
1.0
 40
1.0
 40
1.0
 40
1.0
 10
12.9457
 20
-6.5347
 30
0.0
 10
12.9457
 20
-6.5347
 30
0.0
 10
12.9457
 20
29.018600000000003
 30
0.0
 10
12.9457
 20
29.018600000000003
 30
0.0
  0
SPLINE
  5
15B
100
AcDbEntity
  8
LC-005-001-----0
370
    20
100
AcDbSpline
210
0.0
220
0.0
230
1.0
 70
     0
 71
     3
 72
     8
 73
     4
 74
     0
 42
0.0000000001
 43
0.0000000001
 40
0.0
 40
0.0
 40
0.0
 40
0.0
 40
1.0
 40
1.0
 40
1.0
 40
1.0
 10
-12.448300000000001
 20
8.5964000000000009
 30
0.0
 10
-12.448300000000001
 20
8.5964000000000009
 30
0.0
 10
-11.8148
 20
9.2299000000000007
 30
0.0
 10
-11.8148
 20
9.2299000000000007
 30
0.0
  0
SPLINE
  5
15C
100
AcDbEntity
  8
LC-005-001-----0
370
    20
100
AcDbSpline
210
0.0
220
0.0
230
1.0
 70
     0
 71
     3
 72
     8
 73
     4
 74
     0
 42
0.0000000001
 43
0.0000000001
 40
0.0
 40
0.0
 40
0.0
 40
0.0
 40
1.0
 40
1.0
 40
1.0
 40
1.0
 10
-13.540100000000001
 20
8.5964000000000009
 30
0.0
 10
-13.540100000000001
 20
8.5964000000000009
 30
0.0
 10
-11.8148
 20
10.3217
 30
0.0
 10
-11.8148
 20
10.3217
 30
0.0
  0
SPLINE
  5
15D
100
AcDbEntity
  8
LC-005-001-----0
370
    20
100
AcDbSpline
210
0.0
220
0.0
230
1.0
 70
     0
 71
     3
 72
     8
 73
     4
 74
     0
 42
0.0000000001
 43
0.0000000001
 40
0.0
 40
0.0
 40
0.0
 40
0.0
 40
1.0
 40
1.0
 40
1.0
 40
1.0
 10
-14.6318
 20
8.5964000000000009
 30
0.0
 10
-14.6318
 20
8.5964000000000009
 30
0.0
 10
-12.7018
 20
10.526400000000001
 30
0.0
 10
-12.7018
 20
10.526400000000001
 30
0.0
  0
SPLINE
  5
15E
100
AcDbEntity
  8
LC-005-001-----0
370
    20
100
AcDbSpline
210
0.0
220
0.0
230
1.0
 70
     0
 71
     3
 72
     8
 73
     4
 74
     0
 42
0.0000000001
 43
0.0000000001
 40
0.0
 40
0.0
 40
0.0
 40
0.0
 40
1.0
 40
1.0
 40
1.0
 40
1.0
 10
-15.723600000000001
 20
8.5964000000000009
 30
0.0
 10
-15.723600000000001
 20
8.5964000000000009
 30
0.0
 10
-13.793600000000001
 20
10.526400000000001
 30
0.0
 10
-13.793600000000001
 20
10.526400000000001
 30
0.0
  0
SPLINE
  5
15F
100
AcDbEntity
  8
LC-005-001-----0
370
    20
100
AcDbSpline
210
0.0
220
0.0
230
1.0
 70
     0
 71
     3
 72
     8
 73
     4
 74
     0
 42
0.0000000001
 43
0.0000000001
 40
0.0
 40
0.0
 40
0.0
 40
0.0
 40
1.0
 40
1.0
 40
1.0
 40
1.0
 10
-16.8154
 20
8.5964000000000009
 30
0.0
 10
-16.8154
 20
8.5964000000000009
 30
0.0
 10
-14.885400000000001
 20
10.526400000000001
 30
0.0
 10
-14.885400000000001
 20
10.526400000000001
 30
0.0
  0
SPLINE
  5
160
100
AcDbEntity
  8
LC-005-001-----0
370
    20
100
AcDbSpline
210
0.0
220
0.0
230
1.0
 70
     0
 71
     3
 72
     8
 73
     4
 74
     0
 42
0.0000000001
 43
0.0000000001
 40
0.0
 40
0.0
 40
0.0
 40
0.0
 40
1.0
 40
1.0
 40
1.0
 40
1.0
 10
-17.9071
 20
8.5964000000000009
 30
0.0
 10
-17.9071
 20
8.5964000000000009
 30
0.0
 10
-15.9771
 20
10.526400000000001
 30
0.0
 10
-15.9771
 20
10.526400000000001
 30
0.0
  0
SPLINE
  5
161
100
AcDbEntity
  8
LC-005-001-----0
370
    20
100
AcDbSpline
210
0.0
220
0.0
230
1.0
 70
     0
 71
     3
 72
     8
 73
     4
 74
     0
 42
0.0000000001
 43
0.0000000001
 40
0.0
 40
0.0
 40
0.0
 40
0.0
 40
1.0
 40
1.0
 40
1.0
 40
1.0
 10
-18.998900000000003
 20
8.5964000000000009
 30
0.0
 10
-18.998900000000003
 20
8.5964000000000009
 30
0.0
 10
-17.068899999999999
 20
10.526400000000001
 30
0.0
 10
-17.068899999999999
 20
10.526400000000001
 30
0.0
  0
SPLINE
  5
162
100
AcDbEntity
  8
LC-005-001-----0
370
    20
100
AcDbSpline
210
0.0
220
0.0
230
1.0
 70
     0
 71
     3
 72
     8
 73
     4
 74
     0
 42
0.0000000001
 43
0.0000000001
 40
0.0
 40
0.0
 40
0.0
 40
0.0
 40
1.0
 40
1.0
 40
1.0
 40
1.0
 10
-20.090700000000002
 20
8.5964000000000009
 30
0.0
 10
-20.090700000000002
 20
8.5964000000000009
 30
0.0
 10
-18.160700000000002
 20
10.526400000000001
 30
0.0
 10
-18.160700000000002
 20
10.526400000000001
 30
0.0
  0
SPLINE
  5
163
100
AcDbEntity
  8
LC-005-001-----0
370
    20
100
AcDbSpline
210
0.0
220
0.0
230
1.0
 70
     0
 71
     3
 72
     8
 73
     4
 74
     0
 42
0.0000000001
 43
0.0000000001
 40
0.0
 40
0.0
 40
0.0
 40
0.0
 40
1.0
 40
1.0
 40
1.0
 40
1.0
 10
-21.182400000000001
 20
8.5964000000000009
 30
0.0
 10
-21.182400000000001
 20
8.5964000000000009
 30
0.0
 10
-19.252400000000002
 20
10.526400000000001
 30
0.0
 10
-19.252400000000002
 20
10.526400000000001
 30
0.0
  0
SPLINE
  5
164
100
AcDbEntity
  8
LC-005-001-----0
370
    20
100
AcDbSpline
210
0.0
220
0.0
230
1.0
 70
     0
 71
     3
 72
     8
 73
     4
 74
     0
 42
0.0000000001
 43
0.0000000001
 40
0.0
 40
0.0
 40
0.0
 40
0.0
 40
1.0
 40
1.0
 40
1.0
 40
1.0
 10
-22.2742
 20
8.5964000000000009
 30
0.0
 10
-22.2742
 20
8.5964000000000009
 30
0.0
 10
-20.3443
 20
10.526400000000001
 30
0.0
 10
-20.3443
 20
10.526400000000001
 30
0.0
  0
SPLINE
  5
165
100
AcDbEntity
  8
LC-005-001-----0
370
    20
100
AcDbSpline
210
0.0
220
0.0
230
1.0
 70
     0
 71
     3
 72
     8
 73
     4
 74
     0
 42
0.0000000001
 43
0.0000000001
 40
0.0
 40
0.0
 40
0.0
 40
0.0
 40
1.0
 40
1.0
 40
1.0
 40
1.0
 10
-23.366
 20
8.5964000000000009
 30
0.0
 10
-23.366
 20
8.5964000000000009
 30
0.0
 10
-21.436
 20
10.526400000000001
 30
0.0
 10
-21.436
 20
10.526400000000001
 30
0.0
  0
SPLINE
  5
166
100
AcDbEntity
  8
LC-005-001-----0
370
    20
100
AcDbSpline
210
0.0
220
0.0
230
1.0
 70
     0
 71
     3
 72
     8
 73
     4
 74
     0
 42
0.0000000001
 43
0.0000000001
 40
0.0
 40
0.0
 40
0.0
 40
0.0
 40
1.0
 40
1.0
 40
1.0
 40
1.0
 10
-24.457700000000003
 20
8.5964000000000009
 30
0.0
 10
-24.457700000000003
 20
8.5964000000000009
 30
0.0
 10
-22.527699999999999
 20
10.526400000000001
 30
0.0
 10
-22.527699999999999
 20
10.526400000000001
 30
0.0
  0
SPLINE
  5
167
100
AcDbEntity
  8
LC-005-001-----0
370
    20
100
AcDbSpline
210
0.0
220
0.0
230
1.0
 70
     0
 71
     3
 72
     8
 73
     4
 74
     0
 42
0.0000000001
 43
0.0000000001
 40
0.0
 40
0.0
 40
0.0
 40
0.0
 40
1.0
 40
1.0
 40
1.0
 40
1.0
 10
-25.549600000000002
 20
8.5964000000000009
 30
0.0
 10
-25.549600000000002
 20
8.5964000000000009
 30
0.0
 10
-23.619600000000002
 20
10.526400000000001
 30
0.0
 10
-23.619600000000002
 20
10.526400000000001
 30
0.0
  0
SPLINE
  5
168
100
AcDbEntity
  8
LC-005-001-----0
370
    20
100
AcDbSpline
210
0.0
220
0.0
230
1.0
 70
     0
 71
     3
 72
     8
 73
     4
 74
     0
 42
0.0000000001
 43
0.0000000001
 40
0.0
 40
0.0
 40
0.0
 40
0.0
 40
1.0
 40
1.0
 40
1.0
 40
1.0
 10
-26.641300000000001
 20
8.5964000000000009
 30
0.0
 10
-26.641300000000001
 20
8.5964000000000009
 30
0.0
 10
-24.711300000000001
 20
10.526400000000001
 30
0.0
 10
-24.711300000000001
 20
10.526400000000001
 30
0.0
  0
SPLINE
  5
169
100
AcDbEntity
  8
LC-005-001-----0
370
    20
100
AcDbSpline
210
0.0
220
0.0
230
1.0
 70
     0
 71
     3
 72
     8
 73
     4
 74
     0
 42
0.0000000001
 43
0.0000000001
 40
0.0
 40
0.0
 40
0.0
 40
0.0
 40
1.0
 40
1.0
 40
1.0
 40
1.0
 10
-27.7331
 20
8.5964000000000009
 30
0.0
 10
-27.7331
 20
8.5964000000000009
 30
0.0
 10
-25.803100000000001
 20
10.526400000000001
 30
0.0
 10
-25.803100000000001
 20
10.526400000000001
 30
0.0
  0
SPLINE
  5
16A
100
AcDbEntity
  8
LC-005-001-----0
370
    20
100
AcDbSpline
210
0.0
220
0.0
230
1.0
 70
     0
 71
     3
 72
     8
 73
     4
 74
     0
 42
0.0000000001
 43
0.0000000001
 40
0.0
 40
0.0
 40
0.0
 40
0.0
 40
1.0
 40
1.0
 40
1.0
 40
1.0
 10
-28.824900000000003
 20
8.5964000000000009
 30
0.0
 10
-28.824900000000003
 20
8.5964000000000009
 30
0.0
 10
-26.8949
 20
10.526400000000001
 30
0.0
 10
-26.8949
 20
10.526400000000001
 30
0.0
  0
SPLINE
  5
16B
100
AcDbEntity
  8
LC-005-001-----0
370
    20
100
AcDbSpline
210
0.0
220
0.0
230
1.0
 70
     0
 71
     3
 72
     8
 73
     4
 74
     0
 42
0.0000000001
 43
0.0000000001
 40
0.0
 40
0.0
 40
0.0
 40
0.0
 40
1.0
 40
1.0
 40
1.0
 40
1.0
 10
-29.916600000000003
 20
8.5964000000000009
 30
0.0
 10
-29.916600000000003
 20
8.5964000000000009
 30
0.0
 10
-27.986600000000003
 20
10.526400000000001
 30
0.0
 10
-27.986600000000003
 20
10.526400000000001
 30
0.0
  0
SPLINE
  5
16C
100
AcDbEntity
  8
LC-005-001-----0
370
    20
100
AcDbSpline
210
0.0
220
0.0
230
1.0
 70
     0
 71
     3
 72
     8
 73
     4
 74
     0
 42
0.0000000001
 43
0.0000000001
 40
0.0
 40
0.0
 40
0.0
 40
0.0
 40
1.0
 40
1.0
 40
1.0
 40
1.0
 10
-31.008400000000002
 20
8.5964000000000009
 30
0.0
 10
-31.008400000000002
 20
8.5964000000000009
 30
0.0
 10
-29.078400000000002
 20
10.526400000000001
 30
0.0
 10
-29.078400000000002
 20
10.526400000000001
 30
0.0
  0
SPLINE
  5
16D
100
AcDbEntity
  8
LC-005-001-----0
370
    20
100
AcDbSpline
210
0.0
220
0.0
230
1.0
 70
     0
 71
     3
 72
     8
 73
     4
 74
     0
 42
0.0000000001
 43
0.0000000001
 40
0.0
 40
0.0
 40
0.0
 40
0.0
 40
1.0
 40
1.0
 40
1.0
 40
1.0
 10
-32.100200000000001
 20
8.5964000000000009
 30
0.0
 10
-32.100200000000001
 20
8.5964000000000009
 30
0.0
 10
-30.170200000000001
 20
10.526400000000001
 30
0.0
 10
-30.170200000000001
 20
10.526400000000001
 30
0.0
  0
SPLINE
  5
16E
100
AcDbEntity
  8
LC-005-001-----0
370
    20
100
AcDbSpline
210
0.0
220
0.0
230
1.0
 70
     0
 71
     3
 72
     8
 73
     4
 74
     0
 42
0.0000000001
 43
0.0000000001
 40
0.0
 40
0.0
 40
0.0
 40
0.0
 40
1.0
 40
1.0
 40
1.0
 40
1.0
 10
-33.191900000000004
 20
8.5964000000000009
 30
0.0
 10
-33.191900000000004
 20
8.5964000000000009
 30
0.0
 10
-31.261900000000001
 20
10.526400000000001
 30
0.0
 10
-31.261900000000001
 20
10.526400000000001
 30
0.0
  0
SPLINE
  5
16F
100
AcDbEntity
  8
LC-005-001-----0
370
    20
100
AcDbSpline
210
0.0
220
0.0
230
1.0
 70
     0
 71
     3
 72
     8
 73
     4
 74
     0
 42
0.0000000001
 43
0.0000000001
 40
0.0
 40
0.0
 40
0.0
 40
0.0
 40
1.0
 40
1.0
 40
1.0
 40
1.0
 10
-34.283700000000003
 20
8.5964000000000009
 30
0.0
 10
-34.283700000000003
 20
8.5964000000000009
 30
0.0
 10
-32.3538
 20
10.526400000000001
 30
0.0
 10
-32.3538
 20
10.526400000000001
 30
0.0
  0
SPLINE
  5
170
100
AcDbEntity
  8
LC-005-001-----0
370
    20
100
AcDbSpline
210
0.0
220
0.0
230
1.0
 70
     0
 71
     3
 72
     8
 73
     4
 74
     0
 42
0.0000000001
 43
0.0000000001
 40
0.0
 40
0.0
 40
0.0
 40
0.0
 40
1.0
 40
1.0
 40
1.0
 40
1.0
 10
-35.375500000000002
 20
8.5964000000000009
 30
0.0
 10
-35.375500000000002
 20
8.5964000000000009
 30
0.0
 10
-33.445500000000003
 20
10.526400000000001
 30
0.0
 10
-33.445500000000003
 20
10.526400000000001
 30
0.0
  0
SPLINE
  5
171
100
AcDbEntity
  8
LC-005-001-----0
370
    20
100
AcDbSpline
210
0.0
220
0.0
230
1.0
 70
     0
 71
     3
 72
     8
 73
     4
 74
     0
 42
0.0000000001
 43
0.0000000001
 40
0.0
 40
0.0
 40
0.0
 40
0.0
 40
1.0
 40
1.0
 40
1.0
 40
1.0
 10
-35.966700000000003
 20
9.0968999999999998
 30
0.0
 10
-35.966700000000003
 20
9.0968999999999998
 30
0.0
 10
-34.537199999999999
 20
10.526400000000001
 30
0.0
 10
-34.537199999999999
 20
10.526400000000001
 30
0.0
  0
SPLINE
  5
172
100
AcDbEntity
  8
LC-005-001-----0
370
    20
100
AcDbSpline
210
0.0
220
0.0
230
1.0
 70
     0
 71
     3
 72
     8
 73
     4
 74
     0
 42
0.0000000001
 43
0.0000000001
 40
0.0
 40
0.0
 40
0.0
 40
0.0
 40
1.0
 40
1.0
 40
1.0
 40
1.0
 10
-35.966700000000003
 20
10.188700000000001
 30
0.0
 10
-35.966700000000003
 20
10.188700000000001
 30
0.0
 10
-35.629100000000001
 20
10.526400000000001
 30
0.0
 10
-35.629100000000001
 20
10.526400000000001
 30
0.0
  0
SPLINE
  5
173
100
AcDbEntity
  8
LC-005-001-----0
370
    20
100
AcDbSpline
210
0.0
220
0.0
230
1.0
 70
     0
 71
     3
 72
     8
 73
     4
 74
     0
 42
0.0000000001
 43
0.0000000001
 40
0.0
 40
0.0
 40
0.0
 40
0.0
 40
1.0
 40
1.0
 40
1.0
 40
1.0
 10
-11.8148
 20
9.8505000000000003
 30
0.0
 10
-11.8148
 20
9.8505000000000003
 30
0.0
 10
-12.490600000000001
 20
10.526400000000001
 30
0.0
 10
-12.490600000000001
 20
10.526400000000001
 30
0.0
  0
SPLINE
  5
174
100
AcDbEntity
  8
LC-005-001-----0
370
    20
100
AcDbSpline
210
0.0
220
0.0
230
1.0
 70
     0
 71
     3
 72
     8
 73
     4
 74
     0
 42
0.0000000001
 43
0.0000000001
 40
0.0
 40
0.0
 40
0.0
 40
0.0
 40
1.0
 40
1.0
 40
1.0
 40
1.0
 10
-11.8148
 20
8.758700000000001
 30
0.0
 10
-11.8148
 20
8.758700000000001
 30
0.0
 10
-13.5824
 20
10.526400000000001
 30
0.0
 10
-13.5824
 20
10.526400000000001
 30
0.0
  0
SPLINE
  5
175
100
AcDbEntity
  8
LC-005-001-----0
370
    20
100
AcDbSpline
210
0.0
220
0.0
230
1.0
 70
     0
 71
     3
 72
     8
 73
     4
 74
     0
 42
0.0000000001
 43
0.0000000001
 40
0.0
 40
0.0
 40
0.0
 40
0.0
 40
1.0
 40
1.0
 40
1.0
 40
1.0
 10
-12.744200000000001
 20
8.5964000000000009
 30
0.0
 10
-12.744200000000001
 20
8.5964000000000009
 30
0.0
 10
-14.674100000000001
 20
10.526400000000001
 30
0.0
 10
-14.674100000000001
 20
10.526400000000001
 30
0.0
  0
SPLINE
  5
176
100
AcDbEntity
  8
LC-005-001-----0
370
    20
100
AcDbSpline
210
0.0
220
0.0
230
1.0
 70
     0
 71
     3
 72
     8
 73
     4
 74
     0
 42
0.0000000001
 43
0.0000000001
 40
0.0
 40
0.0
 40
0.0
 40
0.0
 40
1.0
 40
1.0
 40
1.0
 40
1.0
 10
-13.835900000000001
 20
8.5964000000000009
 30
0.0
 10
-13.835900000000001
 20
8.5964000000000009
 30
0.0
 10
-15.7659
 20
10.526400000000001
 30
0.0
 10
-15.7659
 20
10.526400000000001
 30
0.0
  0
SPLINE
  5
177
100
AcDbEntity
  8
LC-005-001-----0
370
    20
100
AcDbSpline
210
0.0
220
0.0
230
1.0
 70
     0
 71
     3
 72
     8
 73
     4
 74
     0
 42
0.0000000001
 43
0.0000000001
 40
0.0
 40
0.0
 40
0.0
 40
0.0
 40
1.0
 40
1.0
 40
1.0
 40
1.0
 10
-14.927700000000002
 20
8.5964000000000009
 30
0.0
 10
-14.927700000000002
 20
8.5964000000000009
 30
0.0
 10
-16.857700000000001
 20
10.526400000000001
 30
0.0
 10
-16.857700000000001
 20
10.526400000000001
 30
0.0
  0
SPLINE
  5
178
100
AcDbEntity
  8
LC-005-001-----0
370
    20
100
AcDbSpline
210
0.0
220
0.0
230
1.0
 70
     0
 71
     3
 72
     8
 73
     4
 74
     0
 42
0.0000000001
 43
0.0000000001
 40
0.0
 40
0.0
 40
0.0
 40
0.0
 40
1.0
 40
1.0
 40
1.0
 40
1.0
 10
-16.019500000000001
 20
8.5964000000000009
 30
0.0
 10
-16.019500000000001
 20
8.5964000000000009
 30
0.0
 10
-17.9495
 20
10.526400000000001
 30
0.0
 10
-17.9495
 20
10.526400000000001
 30
0.0
  0
SPLINE
  5
179
100
AcDbEntity
  8
LC-005-001-----0
370
    20
100
AcDbSpline
210
0.0
220
0.0
230
1.0
 70
     0
 71
     3
 72
     8
 73
     4
 74
     0
 42
0.0000000001
 43
0.0000000001
 40
0.0
 40
0.0
 40
0.0
 40
0.0
 40
1.0
 40
1.0
 40
1.0
 40
1.0
 10
-17.1112
 20
8.5964000000000009
 30
0.0
 10
-17.1112
 20
8.5964000000000009
 30
0.0
 10
-19.0412
 20
10.526400000000001
 30
0.0
 10
-19.0412
 20
10.526400000000001
 30
0.0
  0
SPLINE
  5
17A
100
AcDbEntity
  8
LC-005-001-----0
370
    20
100
AcDbSpline
210
0.0
220
0.0
230
1.0
 70
     0
 71
     3
 72
     8
 73
     4
 74
     0
 42
0.0000000001
 43
0.0000000001
 40
0.0
 40
0.0
 40
0.0
 40
0.0
 40
1.0
 40
1.0
 40
1.0
 40
1.0
 10
-18.202999999999999
 20
8.5964000000000009
 30
0.0
 10
-18.202999999999999
 20
8.5964000000000009
 30
0.0
 10
-20.133000000000003
 20
10.526400000000001
 30
0.0
 10
-20.133000000000003
 20
10.526400000000001
 30
0.0
  0
SPLINE
  5
17B
100
AcDbEntity
  8
LC-005-001-----0
370
    20
100
AcDbSpline
210
0.0
220
0.0
230
1.0
 70
     0
 71
     3
 72
     8
 73
     4
 74
     0
 42
0.0000000001
 43
0.0000000001
 40
0.0
 40
0.0
 40
0.0
 40
0.0
 40
1.0
 40
1.0
 40
1.0
 40
1.0
 10
-19.294800000000002
 20
8.5964000000000009
 30
0.0
 10
-19.294800000000002
 20
8.5964000000000009
 30
0.0
 10
-21.224800000000002
 20
10.526400000000001
 30
0.0
 10
-21.224800000000002
 20
10.526400000000001
 30
0.0
  0
SPLINE
  5
17C
100
AcDbEntity
  8
LC-005-001-----0
370
    20
100
AcDbSpline
210
0.0
220
0.0
230
1.0
 70
     0
 71
     3
 72
     8
 73
     4
 74
     0
 42
0.0000000001
 43
0.0000000001
 40
0.0
 40
0.0
 40
0.0
 40
0.0
 40
1.0
 40
1.0
 40
1.0
 40
1.0
 10
-20.386500000000002
 20
8.5964000000000009
 30
0.0
 10
-20.386500000000002
 20
8.5964000000000009
 30
0.0
 10
-22.316500000000001
 20
10.526400000000001
 30
0.0
 10
-22.316500000000001
 20
10.526400000000001
 30
0.0
  0
SPLINE
  5
17D
100
AcDbEntity
  8
LC-005-001-----0
370
    20
100
AcDbSpline
210
0.0
220
0.0
230
1.0
 70
     0
 71
     3
 72
     8
 73
     4
 74
     0
 42
0.0000000001
 43
0.0000000001
 40
0.0
 40
0.0
 40
0.0
 40
0.0
 40
1.0
 40
1.0
 40
1.0
 40
1.0
 10
-21.478300000000001
 20
8.5964000000000009
 30
0.0
 10
-21.478300000000001
 20
8.5964000000000009
 30
0.0
 10
-23.408300000000001
 20
10.526400000000001
 30
0.0
 10
-23.408300000000001
 20
10.526400000000001
 30
0.0
  0
SPLINE
  5
17E
100
AcDbEntity
  8
LC-005-001-----0
370
    20
100
AcDbSpline
210
0.0
220
0.0
230
1.0
 70
     0
 71
     3
 72
     8
 73
     4
 74
     0
 42
0.0000000001
 43
0.0000000001
 40
0.0
 40
0.0
 40
0.0
 40
0.0
 40
1.0
 40
1.0
 40
1.0
 40
1.0
 10
-22.5701
 20
8.5964000000000009
 30
0.0
 10
-22.5701
 20
8.5964000000000009
 30
0.0
 10
-24.5001
 20
10.526400000000001
 30
0.0
 10
-24.5001
 20
10.526400000000001
 30
0.0
  0
SPLINE
  5
17F
100
AcDbEntity
  8
LC-005-001-----0
370
    20
100
AcDbSpline
210
0.0
220
0.0
230
1.0
 70
     0
 71
     3
 72
     8
 73
     4
 74
     0
 42
0.0000000001
 43
0.0000000001
 40
0.0
 40
0.0
 40
0.0
 40
0.0
 40
1.0
 40
1.0
 40
1.0
 40
1.0
 10
-23.661799999999999
 20
8.5964000000000009
 30
0.0
 10
-23.661799999999999
 20
8.5964000000000009
 30
0.0
 10
-25.591800000000003
 20
10.526400000000001
 30
0.0
 10
-25.591800000000003
 20
10.526400000000001
 30
0.0
  0
SPLINE
  5
180
100
AcDbEntity
  8
LC-005-001-----0
370
    20
100
AcDbSpline
210
0.0
220
0.0
230
1.0
 70
     0
 71
     3
 72
     8
 73
     4
 74
     0
 42
0.0000000001
 43
0.0000000001
 40
0.0
 40
0.0
 40
0.0
 40
0.0
 40
1.0
 40
1.0
 40
1.0
 40
1.0
 10
-24.753700000000002
 20
8.5964000000000009
 30
0.0
 10
-24.753700000000002
 20
8.5964000000000009
 30
0.0
 10
-26.683600000000002
 20
10.526400000000001
 30
0.0
 10
-26.683600000000002
 20
10.526400000000001
 30
0.0
  0
SPLINE
  5
181
100
AcDbEntity
  8
LC-005-001-----0
370
    20
100
AcDbSpline
210
0.0
220
0.0
230
1.0
 70
     0
 71
     3
 72
     8
 73
     4
 74
     0
 42
0.0000000001
 43
0.0000000001
 40
0.0
 40
0.0
 40
0.0
 40
0.0
 40
1.0
 40
1.0
 40
1.0
 40
1.0
 10
-25.845400000000001
 20
8.5964000000000009
 30
0.0
 10
-25.845400000000001
 20
8.5964000000000009
 30
0.0
 10
-27.775400000000001
 20
10.526400000000001
 30
0.0
 10
-27.775400000000001
 20
10.526400000000001
 30
0.0
  0
SPLINE
  5
182
100
AcDbEntity
  8
LC-005-001-----0
370
    20
100
AcDbSpline
210
0.0
220
0.0
230
1.0
 70
     0
 71
     3
 72
     8
 73
     4
 74
     0
 42
0.0000000001
 43
0.0000000001
 40
0.0
 40
0.0
 40
0.0
 40
0.0
 40
1.0
 40
1.0
 40
1.0
 40
1.0
 10
-26.937200000000001
 20
8.5964000000000009
 30
0.0
 10
-26.937200000000001
 20
8.5964000000000009
 30
0.0
 10
-28.8672
 20
10.526400000000001
 30
0.0
 10
-28.8672
 20
10.526400000000001
 30
0.0
  0
SPLINE
  5
183
100
AcDbEntity
  8
LC-005-001-----0
370
    20
100
AcDbSpline
210
0.0
220
0.0
230
1.0
 70
     0
 71
     3
 72
     8
 73
     4
 74
     0
 42
0.0000000001
 43
0.0000000001
 40
0.0
 40
0.0
 40
0.0
 40
0.0
 40
1.0
 40
1.0
 40
1.0
 40
1.0
 10
-28.029
 20
8.5964000000000009
 30
0.0
 10
-28.029
 20
8.5964000000000009
 30
0.0
 10
-29.959000000000003
 20
10.526400000000001
 30
0.0
 10
-29.959000000000003
 20
10.526400000000001
 30
0.0
  0
SPLINE
  5
184
100
AcDbEntity
  8
LC-005-001-----0
370
    20
100
AcDbSpline
210
0.0
220
0.0
230
1.0
 70
     0
 71
     3
 72
     8
 73
     4
 74
     0
 42
0.0000000001
 43
0.0000000001
 40
0.0
 40
0.0
 40
0.0
 40
0.0
 40
1.0
 40
1.0
 40
1.0
 40
1.0
 10
-29.120700000000003
 20
8.5964000000000009
 30
0.0
 10
-29.120700000000003
 20
8.5964000000000009
 30
0.0
 10
-31.050700000000003
 20
10.526400000000001
 30
0.0
 10
-31.050700000000003
 20
10.526400000000001
 30
0.0
  0
SPLINE
  5
185
100
AcDbEntity
  8
LC-005-001-----0
370
    20
100
AcDbSpline
210
0.0
220
0.0
230
1.0
 70
     0
 71
     3
 72
     8
 73
     4
 74
     0
 42
0.0000000001
 43
0.0000000001
 40
0.0
 40
0.0
 40
0.0
 40
0.0
 40
1.0
 40
1.0
 40
1.0
 40
1.0
 10
-30.212500000000002
 20
8.5964000000000009
 30
0.0
 10
-30.212500000000002
 20
8.5964000000000009
 30
0.0
 10
-32.142499999999998
 20
10.526400000000001
 30
0.0
 10
-32.142499999999998
 20
10.526400000000001
 30
0.0
  0
SPLINE
  5
186
100
AcDbEntity
  8
LC-005-001-----0
370
    20
100
AcDbSpline
210
0.0
220
0.0
230
1.0
 70
     0
 71
     3
 72
     8
 73
     4
 74
     0
 42
0.0000000001
 43
0.0000000001
 40
0.0
 40
0.0
 40
0.0
 40
0.0
 40
1.0
 40
1.0
 40
1.0
 40
1.0
 10
-31.304300000000001
 20
8.5964000000000009
 30
0.0
 10
-31.304300000000001
 20
8.5964000000000009
 30
0.0
 10
-33.234300000000005
 20
10.526400000000001
 30
0.0
 10
-33.234300000000005
 20
10.526400000000001
 30
0.0
  0
SPLINE
  5
187
100
AcDbEntity
  8
LC-005-001-----0
370
    20
100
AcDbSpline
210
0.0
220
0.0
230
1.0
 70
     0
 71
     3
 72
     8
 73
     4
 74
     0
 42
0.0000000001
 43
0.0000000001
 40
0.0
 40
0.0
 40
0.0
 40
0.0
 40
1.0
 40
1.0
 40
1.0
 40
1.0
 10
-32.396000000000001
 20
8.5964000000000009
 30
0.0
 10
-32.396000000000001
 20
8.5964000000000009
 30
0.0
 10
-34.326000000000001
 20
10.526400000000001
 30
0.0
 10
-34.326000000000001
 20
10.526400000000001
 30
0.0
  0
SPLINE
  5
188
100
AcDbEntity
  8
LC-005-001-----0
370
    20
100
AcDbSpline
210
0.0
220
0.0
230
1.0
 70
     0
 71
     3
 72
     8
 73
     4
 74
     0
 42
0.0000000001
 43
0.0000000001
 40
0.0
 40
0.0
 40
0.0
 40
0.0
 40
1.0
 40
1.0
 40
1.0
 40
1.0
 10
-33.4878
 20
8.5964000000000009
 30
0.0
 10
-33.4878
 20
8.5964000000000009
 30
0.0
 10
-35.4178
 20
10.526400000000001
 30
0.0
 10
-35.4178
 20
10.526400000000001
 30
0.0
  0
SPLINE
  5
189
100
AcDbEntity
  8
LC-005-001-----0
370
    20
100
AcDbSpline
210
0.0
220
0.0
230
1.0
 70
     0
 71
     3
 72
     8
 73
     4
 74
     0
 42
0.0000000001
 43
0.0000000001
 40
0.0
 40
0.0
 40
0.0
 40
0.0
 40
1.0
 40
1.0
 40
1.0
 40
1.0
 10
-34.579599999999999
 20
8.5964000000000009
 30
0.0
 10
-34.579599999999999
 20
8.5964000000000009
 30
0.0
 10
-35.966700000000003
 20
9.9836000000000009
 30
0.0
 10
-35.966700000000003
 20
9.9836000000000009
 30
0.0
  0
SPLINE
  5
18A
100
AcDbEntity
  8
LC-005-001-----0
370
    20
100
AcDbSpline
210
0.0
220
0.0
230
1.0
 70
     0
 71
     3
 72
     8
 73
     4
 74
     0
 42
0.0000000001
 43
0.0000000001
 40
0.0
 40
0.0
 40
0.0
 40
0.0
 40
1.0
 40
1.0
 40
1.0
 40
1.0
 10
-35.671300000000002
 20
8.5964000000000009
 30
0.0
 10
-35.671300000000002
 20
8.5964000000000009
 30
0.0
 10
-35.966700000000003
 20
8.8917000000000002
 30
0.0
 10
-35.966700000000003
 20
8.8917000000000002
 30
0.0
  0
SPLINE
  5
18B
100
AcDbEntity
  8
LC-005-001-----0
370
    20
100
AcDbSpline
210
0.0
220
0.0
230
1.0
 70
     0
 71
     3
 72
     8
 73
     4
 74
     0
 42
0.0000000001
 43
0.0000000001
 40
0.0
 40
0.0
 40
0.0
 40
0.0
 40
1.0
 40
1.0
 40
1.0
 40
1.0
 10
-2.6223000000000001
 20
8.5964000000000009
 30
0.0
 10
-2.6223000000000001
 20
8.5964000000000009
 30
0.0
 10
-2.2539000000000002
 20
8.9647000000000006
 30
0.0
 10
-2.2539000000000002
 20
8.9647000000000006
 30
0.0
  0
SPLINE
  5
18C
100
AcDbEntity
  8
LC-005-001-----0
370
    20
100
AcDbSpline
210
0.0
220
0.0
230
1.0
 70
     0
 71
     3
 72
     8
 73
     4
 74
     0
 42
0.0000000001
 43
0.0000000001
 40
0.0
 40
0.0
 40
0.0
 40
0.0
 40
1.0
 40
1.0
 40
1.0
 40
1.0
 10
-3.7141000000000002
 20
8.5964000000000009
 30
0.0
 10
-3.7141000000000002
 20
8.5964000000000009
 30
0.0
 10
-2.2589999999999999
 20
10.051500000000001
 30
0.0
 10
-2.2589999999999999
 20
10.051500000000001
 30
0.0
  0
SPLINE
  5
18D
100
AcDbEntity
  8
LC-005-001-----0
370
    20
100
AcDbSpline
210
0.0
220
0.0
230
1.0
 70
     0
 71
     3
 72
     8
 73
     4
 74
     0
 42
0.0000000001
 43
0.0000000001
 40
0.0
 40
0.0
 40
0.0
 40
0.0
 40
1.0
 40
1.0
 40
1.0
 40
1.0
 10
-4.8059000000000003
 20
8.5964000000000009
 30
0.0
 10
-4.8059000000000003
 20
8.5964000000000009
 30
0.0
 10
-2.8759000000000001
 20
10.526400000000001
 30
0.0
 10
-2.8759000000000001
 20
10.526400000000001
 30
0.0
  0
SPLINE
  5
18E
100
AcDbEntity
  8
LC-005-001-----0
370
    20
100
AcDbSpline
210
0.0
220
0.0
230
1.0
 70
     0
 71
     3
 72
     8
 73
     4
 74
     0
 42
0.0000000001
 43
0.0000000001
 40
0.0
 40
0.0
 40
0.0
 40
0.0
 40
1.0
 40
1.0
 40
1.0
 40
1.0
 10
-5.8977000000000004
 20
8.5964000000000009
 30
0.0
 10
-5.8977000000000004
 20
8.5964000000000009
 30
0.0
 10
-3.9677000000000002
 20
10.526400000000001
 30
0.0
 10
-3.9677000000000002
 20
10.526400000000001
 30
0.0
  0
SPLINE
  5
18F
100
AcDbEntity
  8
LC-005-001-----0
370
    20
100
AcDbSpline
210
0.0
220
0.0
230
1.0
 70
     0
 71
     3
 72
     8
 73
     4
 74
     0
 42
0.0000000001
 43
0.0000000001
 40
0.0
 40
0.0
 40
0.0
 40
0.0
 40
1.0
 40
1.0
 40
1.0
 40
1.0
 10
-6.9894000000000007
 20
8.5964000000000009
 30
0.0
 10
-6.9894000000000007
 20
8.5964000000000009
 30
0.0
 10
-5.0594000000000001
 20
10.526400000000001
 30
0.0
 10
-5.0594000000000001
 20
10.526400000000001
 30
0.0
  0
SPLINE
  5
190
100
AcDbEntity
  8
LC-005-001-----0
370
    20
100
AcDbSpline
210
0.0
220
0.0
230
1.0
 70
     0
 71
     3
 72
     8
 73
     4
 74
     0
 42
0.0000000001
 43
0.0000000001
 40
0.0
 40
0.0
 40
0.0
 40
0.0
 40
1.0
 40
1.0
 40
1.0
 40
1.0
 10
-8.0812000000000008
 20
8.5964000000000009
 30
0.0
 10
-8.0812000000000008
 20
8.5964000000000009
 30
0.0
 10
-6.1512000000000002
 20
10.526400000000001
 30
0.0
 10
-6.1512000000000002
 20
10.526400000000001
 30
0.0
  0
SPLINE
  5
191
100
AcDbEntity
  8
LC-005-001-----0
370
    20
100
AcDbSpline
210
0.0
220
0.0
230
1.0
 70
     0
 71
     3
 72
     8
 73
     4
 74
     0
 42
0.0000000001
 43
0.0000000001
 40
0.0
 40
0.0
 40
0.0
 40
0.0
 40
1.0
 40
1.0
 40
1.0
 40
1.0
 10
-9.173
 20
8.5964000000000009
 30
0.0
 10
-9.173
 20
8.5964000000000009
 30
0.0
 10
-7.2430000000000003
 20
10.526400000000001
 30
0.0
 10
-7.2430000000000003
 20
10.526400000000001
 30
0.0
  0
SPLINE
  5
192
100
AcDbEntity
  8
LC-005-001-----0
370
    20
100
AcDbSpline
210
0.0
220
0.0
230
1.0
 70
     0
 71
     3
 72
     8
 73
     4
 74
     0
 42
0.0000000001
 43
0.0000000001
 40
0.0
 40
0.0
 40
0.0
 40
0.0
 40
1.0
 40
1.0
 40
1.0
 40
1.0
 10
-10.264800000000001
 20
8.5964000000000009
 30
0.0
 10
-10.264800000000001
 20
8.5964000000000009
 30
0.0
 10
-8.3347999999999995
 20
10.526400000000001
 30
0.0
 10
-8.3347999999999995
 20
10.526400000000001
 30
0.0
  0
SPLINE
  5
193
100
AcDbEntity
  8
LC-005-001-----0
370
    20
100
AcDbSpline
210
0.0
220
0.0
230
1.0
 70
     0
 71
     3
 72
     8
 73
     4
 74
     0
 42
0.0000000001
 43
0.0000000001
 40
0.0
 40
0.0
 40
0.0
 40
0.0
 40
1.0
 40
1.0
 40
1.0
 40
1.0
 10
-11.3565
 20
8.5964000000000009
 30
0.0
 10
-11.3565
 20
8.5964000000000009
 30
0.0
 10
-9.4265000000000008
 20
10.526400000000001
 30
0.0
 10
-9.4265000000000008
 20
10.526400000000001
 30
0.0
  0
SPLINE
  5
194
100
AcDbEntity
  8
LC-005-001-----0
370
    20
100
AcDbSpline
210
0.0
220
0.0
230
1.0
 70
     0
 71
     3
 72
     8
 73
     4
 74
     0
 42
0.0000000001
 43
0.0000000001
 40
0.0
 40
0.0
 40
0.0
 40
0.0
 40
1.0
 40
1.0
 40
1.0
 40
1.0
 10
-11.8148
 20
9.2299000000000007
 30
0.0
 10
-11.8148
 20
9.2299000000000007
 30
0.0
 10
-10.5183
 20
10.526400000000001
 30
0.0
 10
-10.5183
 20
10.526400000000001
 30
0.0
  0
SPLINE
  5
195
100
AcDbEntity
  8
LC-005-001-----0
370
    20
100
AcDbSpline
210
0.0
220
0.0
230
1.0
 70
     0
 71
     3
 72
     8
 73
     4
 74
     0
 42
0.0000000001
 43
0.0000000001
 40
0.0
 40
0.0
 40
0.0
 40
0.0
 40
1.0
 40
1.0
 40
1.0
 40
1.0
 10
-11.8148
 20
10.3217
 30
0.0
 10
-11.8148
 20
10.3217
 30
0.0
 10
-11.610100000000001
 20
10.526400000000001
 30
0.0
 10
-11.610100000000001
 20
10.526400000000001
 30
0.0
  0
SPLINE
  5
196
100
AcDbEntity
  8
LC-005-001-----0
370
    20
100
AcDbSpline
210
0.0
220
0.0
230
1.0
 70
     0
 71
     3
 72
     8
 73
     4
 74
     0
 42
0.0000000001
 43
0.0000000001
 40
0.0
 40
0.0
 40
0.0
 40
0.0
 40
1.0
 40
1.0
 40
1.0
 40
1.0
 10
-2.3301000000000003
 20
10.1919
 30
0.0
 10
-2.3301000000000003
 20
10.1919
 30
0.0
 10
-2.6647000000000003
 20
10.526400000000001
 30
0.0
 10
-2.6647000000000003
 20
10.526400000000001
 30
0.0
  0
SPLINE
  5
197
100
AcDbEntity
  8
LC-005-001-----0
370
    20
100
AcDbSpline
210
0.0
220
0.0
230
1.0
 70
     0
 71
     3
 72
     8
 73
     4
 74
     0
 42
0.0000000001
 43
0.0000000001
 40
0.0
 40
0.0
 40
0.0
 40
0.0
 40
1.0
 40
1.0
 40
1.0
 40
1.0
 10
-2.2493000000000003
 20
9.0193000000000012
 30
0.0
 10
-2.2493000000000003
 20
9.0193000000000012
 30
0.0
 10
-3.7565000000000004
 20
10.526400000000001
 30
0.0
 10
-3.7565000000000004
 20
10.526400000000001
 30
0.0
  0
SPLINE
  5
198
100
AcDbEntity
  8
LC-005-001-----0
370
    20
100
AcDbSpline
210
0.0
220
0.0
230
1.0
 70
     0
 71
     3
 72
     8
 73
     4
 74
     0
 42
0.0000000001
 43
0.0000000001
 40
0.0
 40
0.0
 40
0.0
 40
0.0
 40
1.0
 40
1.0
 40
1.0
 40
1.0
 10
-2.9182000000000001
 20
8.5964000000000009
 30
0.0
 10
-2.9182000000000001
 20
8.5964000000000009
 30
0.0
 10
-4.8482000000000003
 20
10.526400000000001
 30
0.0
 10
-4.8482000000000003
 20
10.526400000000001
 30
0.0
  0
SPLINE
  5
199
100
AcDbEntity
  8
LC-005-001-----0
370
    20
100
AcDbSpline
210
0.0
220
0.0
230
1.0
 70
     0
 71
     3
 72
     8
 73
     4
 74
     0
 42
0.0000000001
 43
0.0000000001
 40
0.0
 40
0.0
 40
0.0
 40
0.0
 40
1.0
 40
1.0
 40
1.0
 40
1.0
 10
-4.0099999999999998
 20
8.5964000000000009
 30
0.0
 10
-4.0099999999999998
 20
8.5964000000000009
 30
0.0
 10
-5.9400000000000004
 20
10.526400000000001
 30
0.0
 10
-5.9400000000000004
 20
10.526400000000001
 30
0.0
  0
SPLINE
  5
19A
100
AcDbEntity
  8
LC-005-001-----0
370
    20
100
AcDbSpline
210
0.0
220
0.0
230
1.0
 70
     0
 71
     3
 72
     8
 73
     4
 74
     0
 42
0.0000000001
 43
0.0000000001
 40
0.0
 40
0.0
 40
0.0
 40
0.0
 40
1.0
 40
1.0
 40
1.0
 40
1.0
 10
-5.1017999999999999
 20
8.5964000000000009
 30
0.0
 10
-5.1017999999999999
 20
8.5964000000000009
 30
0.0
 10
-7.0318000000000005
 20
10.526400000000001
 30
0.0
 10
-7.0318000000000005
 20
10.526400000000001
 30
0.0
  0
SPLINE
  5
19B
100
AcDbEntity
  8
LC-005-001-----0
370
    20
100
AcDbSpline
210
0.0
220
0.0
230
1.0
 70
     0
 71
     3
 72
     8
 73
     4
 74
     0
 42
0.0000000001
 43
0.0000000001
 40
0.0
 40
0.0
 40
0.0
 40
0.0
 40
1.0
 40
1.0
 40
1.0
 40
1.0
 10
-6.1935000000000002
 20
8.5964000000000009
 30
0.0
 10
-6.1935000000000002
 20
8.5964000000000009
 30
0.0
 10
-8.1234999999999999
 20
10.526400000000001
 30
0.0
 10
-8.1234999999999999
 20
10.526400000000001
 30
0.0
  0
SPLINE
  5
19C
100
AcDbEntity
  8
LC-005-001-----0
370
    20
100
AcDbSpline
210
0.0
220
0.0
230
1.0
 70
     0
 71
     3
 72
     8
 73
     4
 74
     0
 42
0.0000000001
 43
0.0000000001
 40
0.0
 40
0.0
 40
0.0
 40
0.0
 40
1.0
 40
1.0
 40
1.0
 40
1.0
 10
-7.2853000000000003
 20
8.5964000000000009
 30
0.0
 10
-7.2853000000000003
 20
8.5964000000000009
 30
0.0
 10
-9.2153000000000009
 20
10.526400000000001
 30
0.0
 10
-9.2153000000000009
 20
10.526400000000001
 30
0.0
  0
SPLINE
  5
19D
100
AcDbEntity
  8
LC-005-001-----0
370
    20
100
AcDbSpline
210
0.0
220
0.0
230
1.0
 70
     0
 71
     3
 72
     8
 73
     4
 74
     0
 42
0.0000000001
 43
0.0000000001
 40
0.0
 40
0.0
 40
0.0
 40
0.0
 40
1.0
 40
1.0
 40
1.0
 40
1.0
 10
-8.3771000000000004
 20
8.5964000000000009
 30
0.0
 10
-8.3771000000000004
 20
8.5964000000000009
 30
0.0
 10
-10.3071
 20
10.526400000000001
 30
0.0
 10
-10.3071
 20
10.526400000000001
 30
0.0
  0
SPLINE
  5
19E
100
AcDbEntity
  8
LC-005-001-----0
370
    20
100
AcDbSpline
210
0.0
220
0.0
230
1.0
 70
     0
 71
     3
 72
     8
 73
     4
 74
     0
 42
0.0000000001
 43
0.0000000001
 40
0.0
 40
0.0
 40
0.0
 40
0.0
 40
1.0
 40
1.0
 40
1.0
 40
1.0
 10
-9.4687999999999999
 20
8.5964000000000009
 30
0.0
 10
-9.4687999999999999
 20
8.5964000000000009
 30
0.0
 10
-11.398800000000001
 20
10.526400000000001
 30
0.0
 10
-11.398800000000001
 20
10.526400000000001
 30
0.0
  0
SPLINE
  5
19F
100
AcDbEntity
  8
LC-005-001-----0
370
    20
100
AcDbSpline
210
0.0
220
0.0
230
1.0
 70
     0
 71
     3
 72
     8
 73
     4
 74
     0
 42
0.0000000001
 43
0.0000000001
 40
0.0
 40
0.0
 40
0.0
 40
0.0
 40
1.0
 40
1.0
 40
1.0
 40
1.0
 10
-10.560600000000001
 20
8.5964000000000009
 30
0.0
 10
-10.560600000000001
 20
8.5964000000000009
 30
0.0
 10
-11.8148
 20
9.8505000000000003
 30
0.0
 10
-11.8148
 20
9.8505000000000003
 30
0.0
  0
SPLINE
  5
1A0
100
AcDbEntity
  8
LC-005-001-----0
370
    20
100
AcDbSpline
210
0.0
220
0.0
230
1.0
 70
     0
 71
     3
 72
     8
 73
     4
 74
     0
 42
0.0000000001
 43
0.0000000001
 40
0.0
 40
0.0
 40
0.0
 40
0.0
 40
1.0
 40
1.0
 40
1.0
 40
1.0
 10
-11.6524
 20
8.5964000000000009
 30
0.0
 10
-11.6524
 20
8.5964000000000009
 30
0.0
 10
-11.8148
 20
8.758700000000001
 30
0.0
 10
-11.8148
 20
8.758700000000001
 30
0.0
  0
SPLINE
  5
1A1
100
AcDbEntity
  8
LC-005-001-----0
100
AcDbSpline
210
0.0
220
0.0
230
1.0
 70
     1
 71
     3
 72
   120
 73
   116
 74
     0
 42
0.0000000001
 43
0.0000000001
 40
0.0
 40
0.0
 40
0.0
 40
0.0
 40
0.0344827586206897
 40
0.0344827586206897
 40
0.0344827586206897
 40
0.0344827586206897
 40
0.0689655172413793
 40
0.0689655172413793
 40
0.0689655172413793
 40
0.0689655172413793
 40
0.103448275862069
 40
0.103448275862069
 40
0.103448275862069
 40
0.103448275862069
 40
0.1379310344827586
 40
0.1379310344827586
 40
0.1379310344827586
 40
0.1379310344827586
 40
0.1724137931034483
 40
0.1724137931034483
 40
0.1724137931034483
 40
0.1724137931034483
 40
0.206896551724138
 40
0.206896551724138
 40
0.206896551724138
 40
0.206896551724138
 40
0.2413793103448276
 40
0.2413793103448276
 40
0.2413793103448276
 40
0.2413793103448276
 40
0.2758620689655173
 40
0.2758620689655173
 40
0.2758620689655173
 40
0.2758620689655173
 40
0.310344827586207
 40
0.310344827586207
 40
0.310344827586207
 40
0.310344827586207
 40
0.3448275862068966
 40
0.3448275862068966
 40
0.3448275862068966
 40
0.3448275862068966
 40
0.3793103448275863
 40
0.3793103448275863
 40
0.3793103448275863
 40
0.3793103448275863
 40
0.413793103448276
 40
0.413793103448276
 40
0.413793103448276
 40
0.413793103448276
 40
0.4482758620689656
 40
0.4482758620689656
 40
0.4482758620689656
 40
0.4482758620689656
 40
0.4827586206896553
 40
0.4827586206896553
 40
0.4827586206896553
 40
0.4827586206896553
 40
0.517241379310345
 40
0.517241379310345
 40
0.517241379310345
 40
0.517241379310345
 40
0.5517241379310346
 40
0.5517241379310346
 40
0.5517241379310346
 40
0.5517241379310346
 40
0.5862068965517242
 40
0.5862068965517242
 40
0.5862068965517242
 40
0.5862068965517242
 40
0.6206896551724138
 40
0.6206896551724138
 40
0.6206896551724138
 40
0.6206896551724138
 40
0.6551724137931034
 40
0.6551724137931034
 40
0.6551724137931034
 40
0.6551724137931034
 40
0.689655172413793
 40
0.689655172413793
 40
0.689655172413793
 40
0.689655172413793
 40
0.7241379310344827
 40
0.7241379310344827
 40
0.7241379310344827
 40
0.7241379310344827
 40
0.7586206896551723
 40
0.7586206896551723
 40
0.7586206896551723
 40
0.7586206896551723
 40
0.7931034482758619
 40
0.7931034482758619
 40
0.7931034482758619
 40
0.7931034482758619
 40
0.8275862068965515
 40
0.8275862068965515
 40
0.8275862068965515
 40
0.8275862068965515
 40
0.8620689655172411
 40
0.8620689655172411
 40
0.8620689655172411
 40
0.8620689655172411
 40
0.8965517241379307
 40
0.8965517241379307
 40
0.8965517241379307
 40
0.8965517241379307
 40
0.9310344827586203
 40
0.9310344827586203
 40
0.9310344827586203
 40
0.9310344827586203
 40
0.9655172413793099
 40
0.9655172413793099
 40
0.9655172413793099
 40
0.9655172413793099
 40
1.0
 40
1.0
 40
1.0
 40
1.0
 10
10.1236
 20
23.280200000000001
 30
0.0
 10
10.1236
 20
23.280200000000001
 30
0.0
 10
10.0318
 20
24.230900000000002
 30
0.0
 10
10.0318
 20
24.230900000000002
 30
0.0
 10
10.0318
 20
24.230900000000002
 30
0.0
 10
10.165900000000001
 20
24.223800000000001
 30
0.0
 10
10.247
 20
24.220300000000002
 30
0.0
 10
10.2735
 20
24.220300000000002
 30
0.0
 10
10.2735
 20
24.220300000000002
 30
0.0
 10
10.501000000000001
 20
24.220300000000002
 30
0.0
 10
10.7303
 20
24.278500000000001
 30
0.0
 10
10.961400000000001
 20
24.3932
 30
0.0
 10
10.961400000000001
 20
24.3932
 30
0.0
 10
11.192500000000001
 20
24.509600000000002
 30
0.0
 10
11.3689
 20
24.666600000000003
 30
0.0
 10
11.490600000000001
 20
24.864100000000001
 30
0.0
 10
11.490600000000001
 20
24.864100000000001
 30
0.0
 10
11.614000000000001
 20
25.061700000000002
 30
0.0
 10
11.674000000000001
 20
25.271600000000003
 30
0.0
 10
11.674000000000001
 20
25.492100000000001
 30
0.0
 10
11.674000000000001
 20
25.492100000000001
 30
0.0
 10
11.674000000000001
 20
25.781400000000001
 30
0.0
 10
11.575200000000001
 20
26.075900000000001
 30
0.0
 10
11.3741
 20
26.375800000000002
 30
0.0
 10
11.3741
 20
26.375800000000002
 30
0.0
 10
11.174800000000001
 20
26.675600000000003
 30
0.0
 10
10.883800000000001
 20
26.917300000000001
 30
0.0
 10
10.501000000000001
 20
27.104300000000002
 30
0.0
 10
10.501000000000001
 20
27.104300000000002
 30
0.0
 10
10.120000000000001
 20
27.2895
 30
0.0
 10
9.7408000000000001
 20
27.383000000000003
 30
0.0
 10
9.3651
 20
27.383000000000003
 30
0.0
 10
9.3651
 20
27.383000000000003
 30
0.0
 10
8.9417000000000009
 20
27.383000000000003
 30
0.0
 10
8.6013000000000002
 20
27.2577
 30
0.0
 10
8.3473000000000006
 20
27.009
 30
0.0
 10
8.3473000000000006
 20
27.009
 30
0.0
 10
8.0915999999999997
 20
26.758500000000002
 30
0.0
 10
7.9646000000000008
 20
26.430500000000002
 30
0.0
 10
7.9646000000000008
 20
26.024800000000003
 30
0.0
 10
7.9646000000000008
 20
26.024800000000003
 30
0.0
 10
7.9646000000000008
 20
25.7514
 30
0.0
 10
8.0297999999999998
 20
25.4938
 30
0.0
 10
8.1603000000000012
 20
25.252200000000002
 30
0.0
 10
8.1603000000000012
 20
25.252200000000002
 30
0.0
 10
8.2909000000000006
 20
25.008800000000001
 30
0.0
 10
8.4884000000000004
 20
24.783000000000001
 30
0.0
 10
8.7495000000000012
 20
24.571300000000001
 30
0.0
 10
8.7495000000000012
 20
24.571300000000001
 30
0.0
 10
8.7495000000000012
 20
24.571300000000001
 30
0.0
 10
8.6929999999999996
 20
23.7547
 30
0.0
 10
8.6929999999999996
 20
23.7547
 30
0.0
 10
8.6929999999999996
 20
23.7547
 30
0.0
 10
8.6929999999999996
 20
23.7547
 30
0.0
 10
4.8178000000000001
 20
24.897600000000001
 30
0.0
 10
4.8178000000000001
 20
24.897600000000001
 30
0.0
 10
4.8178000000000001
 20
24.897600000000001
 30
0.0
 10
4.8178000000000001
 20
24.897600000000001
 30
0.0
 10
4.8178000000000001
 20
28.598300000000002
 30
0.0
 10
4.8178000000000001
 20
28.598300000000002
 30
0.0
 10
4.8178000000000001
 20
28.598300000000002
 30
0.0
 10
4.8178000000000001
 20
28.598300000000002
 30
0.0
 10
5.6750000000000007
 20
28.416600000000003
 30
0.0
 10
5.6750000000000007
 20
28.416600000000003
 30
0.0
 10
5.6750000000000007
 20
28.416600000000003
 30
0.0
 10
5.6750000000000007
 20
28.416600000000003
 30
0.0
 10
5.6750000000000007
 20
25.5379
 30
0.0
 10
5.6750000000000007
 20
25.5379
 30
0.0
 10
5.6750000000000007
 20
25.5379
 30
0.0
 10
5.6750000000000007
 20
25.5379
 30
0.0
 10
7.6030000000000006
 20
24.970000000000002
 30
0.0
 10
7.6030000000000006
 20
24.970000000000002
 30
0.0
 10
7.6030000000000006
 20
24.970000000000002
 30
0.0
 10
7.4477000000000002
 20
25.183400000000002
 30
0.0
 10
7.3313000000000006
 20
25.4039
 30
0.0
 10
7.2537000000000003
 20
25.6279
 30
0.0
 10
7.2537000000000003
 20
25.6279
 30
0.0
 10
7.1760999999999999
 20
25.8537
 30
0.0
 10
7.1373000000000006
 20
26.086500000000001
 30
0.0
 10
7.1373000000000006
 20
26.3246
 30
0.0
 10
7.1373000000000006
 20
26.3246
 30
0.0
 10
7.1373000000000006
 20
26.903200000000002
 30
0.0
 10
7.3278000000000008
 20
27.377700000000001
 30
0.0
 10
7.7106000000000003
 20
27.7498
 30
0.0
 10
7.7106000000000003
 20
27.7498
 30
0.0
 10
8.093300000000001
 20
28.122
 30
0.0
 10
8.6172000000000004
 20
28.309000000000001
 30
0.0
 10
9.2821999999999996
 20
28.309000000000001
 30
0.0
 10
9.2821999999999996
 20
28.309000000000001
 30
0.0
 10
9.8643000000000001
 20
28.309000000000001
 30
0.0
 10
10.400500000000001
 20
28.180200000000003
 30
0.0
 10
10.8926
 20
27.926200000000001
 30
0.0
 10
10.8926
 20
27.926200000000001
 30
0.0
 10
11.383000000000001
 20
27.670500000000001
 30
0.0
 10
11.760400000000001
 20
27.319500000000001
 30
0.0
 10
12.023300000000001
 20
26.875
 30
0.0
 10
12.023300000000001
 20
26.875
 30
0.0
 10
12.287800000000001
 20
26.428700000000003
 30
0.0
 10
12.4184
 20
25.947200000000002
 30
0.0
 10
12.4184
 20
25.430300000000003
 30
0.0
 10
12.4184
 20
25.430300000000003
 30
0.0
 10
12.4184
 20
24.996400000000001
 30
0.0
 10
12.321300000000001
 20
24.611900000000002
 30
0.0
 10
12.123800000000001
 20
24.276800000000001
 30
0.0
 10
12.123800000000001
 20
24.276800000000001
 30
0.0
 10
11.928000000000001
 20
23.9434
 30
0.0
 10
11.658100000000001
 20
23.692900000000002
 30
0.0
 10
11.3124
 20
23.525300000000001
 30
0.0
 10
11.3124
 20
23.525300000000001
 30
0.0
 10
10.968500000000001
 20
23.357800000000001
 30
0.0
 10
10.624500000000001
 20
23.274900000000002
 30
0.0
 10
10.2788
 20
23.274900000000002
 30
0.0
 10
10.2788
 20
23.274900000000002
 30
0.0
 10
10.2453
 20
23.274900000000002
 30
0.0
 10
10.194100000000001
 20
23.276600000000002
 30
0.0
 10
10.1236
 20
23.280200000000001
 30
0.0
  0
SPLINE
  5
1A2
100
AcDbEntity
  8
LC-005-001-----0
100
AcDbSpline
210
0.0
220
0.0
230
1.0
 70
     1
 71
     3
 72
   120
 73
   116
 74
     0
 42
0.0000000001
 43
0.0000000001
 40
0.0
 40
0.0
 40
0.0
 40
0.0
 40
0.0344827586206897
 40
0.0344827586206897
 40
0.0344827586206897
 40
0.0344827586206897
 40
0.0689655172413793
 40
0.0689655172413793
 40
0.0689655172413793
 40
0.0689655172413793
 40
0.103448275862069
 40
0.103448275862069
 40
0.103448275862069
 40
0.103448275862069
 40
0.1379310344827586
 40
0.1379310344827586
 40
0.1379310344827586
 40
0.1379310344827586
 40
0.1724137931034483
 40
0.1724137931034483
 40
0.1724137931034483
 40
0.1724137931034483
 40
0.206896551724138
 40
0.206896551724138
 40
0.206896551724138
 40
0.206896551724138
 40
0.2413793103448276
 40
0.2413793103448276
 40
0.2413793103448276
 40
0.2413793103448276
 40
0.2758620689655173
 40
0.2758620689655173
 40
0.2758620689655173
 40
0.2758620689655173
 40
0.310344827586207
 40
0.310344827586207
 40
0.310344827586207
 40
0.310344827586207
 40
0.3448275862068966
 40
0.3448275862068966
 40
0.3448275862068966
 40
0.3448275862068966
 40
0.3793103448275863
 40
0.3793103448275863
 40
0.3793103448275863
 40
0.3793103448275863
 40
0.413793103448276
 40
0.413793103448276
 40
0.413793103448276
 40
0.413793103448276
 40
0.4482758620689656
 40
0.4482758620689656
 40
0.4482758620689656
 40
0.4482758620689656
 40
0.4827586206896553
 40
0.4827586206896553
 40
0.4827586206896553
 40
0.4827586206896553
 40
0.517241379310345
 40
0.517241379310345
 40
0.517241379310345
 40
0.517241379310345
 40
0.5517241379310346
 40
0.5517241379310346
 40
0.5517241379310346
 40
0.5517241379310346
 40
0.5862068965517242
 40
0.5862068965517242
 40
0.5862068965517242
 40
0.5862068965517242
 40
0.6206896551724138
 40
0.6206896551724138
 40
0.6206896551724138
 40
0.6206896551724138
 40
0.6551724137931034
 40
0.6551724137931034
 40
0.6551724137931034
 40
0.6551724137931034
 40
0.689655172413793
 40
0.689655172413793
 40
0.689655172413793
 40
0.689655172413793
 40
0.7241379310344827
 40
0.7241379310344827
 40
0.7241379310344827
 40
0.7241379310344827
 40
0.7586206896551723
 40
0.7586206896551723
 40
0.7586206896551723
 40
0.7586206896551723
 40
0.7931034482758619
 40
0.7931034482758619
 40
0.7931034482758619
 40
0.7931034482758619
 40
0.8275862068965515
 40
0.8275862068965515
 40
0.8275862068965515
 40
0.8275862068965515
 40
0.8620689655172411
 40
0.8620689655172411
 40
0.8620689655172411
 40
0.8620689655172411
 40
0.8965517241379307
 40
0.8965517241379307
 40
0.8965517241379307
 40
0.8965517241379307
 40
0.9310344827586203
 40
0.9310344827586203
 40
0.9310344827586203
 40
0.9310344827586203
 40
0.9655172413793099
 40
0.9655172413793099
 40
0.9655172413793099
 40
0.9655172413793099
 40
1.0
 40
1.0
 40
1.0
 40
1.0
 10
22.4663
 20
14.2714
 30
0.0
 10
22.4663
 20
14.2714
 30
0.0
 10
22.374500000000001
 20
15.222100000000001
 30
0.0
 10
22.374500000000001
 20
15.222100000000001
 30
0.0
 10
22.374500000000001
 20
15.222100000000001
 30
0.0
 10
22.508600000000001
 20
15.215
 30
0.0
 10
22.589700000000001
 20
15.211500000000001
 30
0.0
 10
22.616200000000003
 20
15.211500000000001
 30
0.0
 10
22.616200000000003
 20
15.211500000000001
 30
0.0
 10
22.843700000000002
 20
15.211500000000001
 30
0.0
 10
23.073
 20
15.2697
 30
0.0
 10
23.304100000000002
 20
15.384400000000001
 30
0.0
 10
23.304100000000002
 20
15.384400000000001
 30
0.0
 10
23.5352
 20
15.5008
 30
0.0
 10
23.711600000000001
 20
15.6578
 30
0.0
 10
23.833300000000001
 20
15.855300000000002
 30
0.0
 10
23.833300000000001
 20
15.855300000000002
 30
0.0
 10
23.956700000000001
 20
16.052900000000001
 30
0.0
 10
24.0167
 20
16.262800000000002
 30
0.0
 10
24.0167
 20
16.4833
 30
0.0
 10
24.0167
 20
16.4833
 30
0.0
 10
24.0167
 20
16.772600000000001
 30
0.0
 10
23.917899999999999
 20
17.0671
 30
0.0
 10
23.716800000000003
 20
17.367000000000001
 30
0.0
 10
23.716800000000003
 20
17.367000000000001
 30
0.0
 10
23.517500000000002
 20
17.666800000000002
 30
0.0
 10
23.226500000000001
 20
17.9085
 30
0.0
 10
22.843700000000002
 20
18.095500000000001
 30
0.0
 10
22.843700000000002
 20
18.095500000000001
 30
0.0
 10
22.462700000000002
 20
18.2807
 30
0.0
 10
22.083500000000001
 20
18.374200000000002
 30
0.0
 10
21.707800000000002
 20
18.374200000000002
 30
0.0
 10
21.707800000000002
 20
18.374200000000002
 30
0.0
 10
21.284400000000002
 20
18.374200000000002
 30
0.0
 10
20.944000000000003
 20
18.248900000000003
 30
0.0
 10
20.690000000000001
 20
18.0002
 30
0.0
 10
20.690000000000001
 20
18.0002
 30
0.0
 10
20.4343
 20
17.749700000000001
 30
0.0
 10
20.307300000000001
 20
17.421700000000001
 30
0.0
 10
20.307300000000001
 20
17.016000000000002
 30
0.0
 10
20.307300000000001
 20
17.016000000000002
 30
0.0
 10
20.307300000000001
 20
16.742599999999999
 30
0.0
 10
20.372500000000002
 20
16.484999999999999
 30
0.0
 10
20.503
 20
16.243400000000001
 30
0.0
 10
20.503
 20
16.243400000000001
 30
0.0
 10
20.633600000000001
 20
16.0
 30
0.0
 10
20.831099999999999
 20
15.7742
 30
0.0
 10
21.092200000000002
 20
15.5625
 30
0.0
 10
21.092200000000002
 20
15.5625
 30
0.0
 10
21.092200000000002
 20
15.5625
 30
0.0
 10
21.035700000000002
 20
14.745900000000001
 30
0.0
 10
21.035700000000002
 20
14.745900000000001
 30
0.0
 10
21.035700000000002
 20
14.745900000000001
 30
0.0
 10
21.035700000000002
 20
14.745900000000001
 30
0.0
 10
17.160500000000003
 20
15.888800000000002
 30
0.0
 10
17.160500000000003
 20
15.888800000000002
 30
0.0
 10
17.160500000000003
 20
15.888800000000002
 30
0.0
 10
17.160500000000003
 20
15.888800000000002
 30
0.0
 10
17.160500000000003
 20
19.589500000000001
 30
0.0
 10
17.160500000000003
 20
19.589500000000001
 30
0.0
 10
17.160500000000003
 20
19.589500000000001
 30
0.0
 10
17.160500000000003
 20
19.589500000000001
 30
0.0
 10
18.017700000000001
 20
19.407800000000002
 30
0.0
 10
18.017700000000001
 20
19.407800000000002
 30
0.0
 10
18.017700000000001
 20
19.407800000000002
 30
0.0
 10
18.017700000000001
 20
19.407800000000002
 30
0.0
 10
18.017700000000001
 20
16.5291
 30
0.0
 10
18.017700000000001
 20
16.5291
 30
0.0
 10
18.017700000000001
 20
16.5291
 30
0.0
 10
18.017700000000001
 20
16.5291
 30
0.0
 10
19.945700000000002
 20
15.961200000000002
 30
0.0
 10
19.945700000000002
 20
15.961200000000002
 30
0.0
 10
19.945700000000002
 20
15.961200000000002
 30
0.0
 10
19.790400000000002
 20
16.174600000000002
 30
0.0
 10
19.673999999999999
 20
16.395099999999999
 30
0.0
 10
19.596400000000003
 20
16.6191
 30
0.0
 10
19.596400000000003
 20
16.6191
 30
0.0
 10
19.518800000000002
 20
16.844899999999999
 30
0.0
 10
19.48
 20
17.0777
 30
0.0
 10
19.48
 20
17.315799999999999
 30
0.0
 10
19.48
 20
17.315799999999999
 30
0.0
 10
19.48
 20
17.894400000000001
 30
0.0
 10
19.670500000000001
 20
18.3689
 30
0.0
 10
20.0533
 20
18.741
 30
0.0
 10
20.0533
 20
18.741
 30
0.0
 10
20.436
 20
19.113200000000003
 30
0.0
 10
20.959900000000001
 20
19.3002
 30
0.0
 10
21.6249
 20
19.3002
 30
0.0
 10
21.6249
 20
19.3002
 30
0.0
 10
22.207000000000001
 20
19.3002
 30
0.0
 10
22.743200000000002
 20
19.171400000000002
 30
0.0
 10
23.235300000000002
 20
18.917400000000001
 30
0.0
 10
23.235300000000002
 20
18.917400000000001
 30
0.0
 10
23.7257
 20
18.6617
 30
0.0
 10
24.103100000000001
 20
18.310700000000001
 30
0.0
 10
24.366
 20
17.866199999999999
 30
0.0
 10
24.366
 20
17.866199999999999
 30
0.0
 10
24.630500000000001
 20
17.419900000000002
 30
0.0
 10
24.761100000000003
 20
16.938400000000001
 30
0.0
 10
24.761100000000003
 20
16.421500000000002
 30
0.0
 10
24.761100000000003
 20
16.421500000000002
 30
0.0
 10
24.761100000000003
 20
15.9876
 30
0.0
 10
24.664000000000001
 20
15.603100000000001
 30
0.0
 10
24.4665
 20
15.268000000000001
 30
0.0
 10
24.4665
 20
15.268000000000001
 30
0.0
 10
24.270700000000001
 20
14.934600000000001
 30
0.0
 10
24.000800000000002
 20
14.684100000000001
 30
0.0
 10
23.655100000000001
 20
14.516500000000001
 30
0.0
 10
23.655100000000001
 20
14.516500000000001
 30
0.0
 10
23.311199999999999
 20
14.349
 30
0.0
 10
22.967200000000002
 20
14.266100000000002
 30
0.0
 10
22.621500000000001
 20
14.266100000000002
 30
0.0
 10
22.621500000000001
 20
14.266100000000002
 30
0.0
 10
22.588000000000001
 20
14.266100000000002
 30
0.0
 10
22.536799999999999
 20
14.267800000000001
 30
0.0
 10
22.4663
 20
14.2714
 30
0.0
  0
SPLINE
  5
1A3
100
AcDbEntity
  8
LC-005-001-----0
100
AcDbSpline
210
0.0
220
0.0
230
1.0
 70
     1
 71
     3
 72
    52
 73
    48
 74
     0
 42
0.0000000001
 43
0.0000000001
 40
0.0
 40
0.0
 40
0.0
 40
0.0
 40
0.0833333333333333
 40
0.0833333333333333
 40
0.0833333333333333
 40
0.0833333333333333
 40
0.1666666666666667
 40
0.1666666666666667
 40
0.1666666666666667
 40
0.1666666666666667
 40
0.25
 40
0.25
 40
0.25
 40
0.25
 40
0.3333333333333333
 40
0.3333333333333333
 40
0.3333333333333333
 40
0.3333333333333333
 40
0.4166666666666666
 40
0.4166666666666666
 40
0.4166666666666666
 40
0.4166666666666666
 40
0.4999999999999999
 40
0.4999999999999999
 40
0.4999999999999999
 40
0.4999999999999999
 40
0.5833333333333333
 40
0.5833333333333333
 40
0.5833333333333333
 40
0.5833333333333333
 40
0.6666666666666666
 40
0.6666666666666666
 40
0.6666666666666666
 40
0.6666666666666666
 40
0.75
 40
0.75
 40
0.75
 40
0.75
 40
0.8333333333333334
 40
0.8333333333333334
 40
0.8333333333333334
 40
0.8333333333333334
 40
0.9166666666666667
 40
0.9166666666666667
 40
0.9166666666666667
 40
0.9166666666666667
 40
1.0
 40
1.0
 40
1.0
 40
1.0
 10
22.147000000000002
 20
20.168100000000003
 30
0.0
 10
21.506700000000002
 20
20.168100000000003
 30
0.0
 10
20.854100000000003
 20
20.263300000000001
 30
0.0
 10
20.192600000000002
 20
20.453800000000001
 30
0.0
 10
20.192600000000002
 20
20.453800000000001
 30
0.0
 10
19.531100000000002
 20
20.646100000000001
 30
0.0
 10
19.003700000000002
 20
20.857700000000001
 30
0.0
 10
18.6069
 20
21.092300000000002
 30
0.0
 10
18.6069
 20
21.092300000000002
 30
0.0
 10
18.210000000000001
 20
21.326900000000002
 30
0.0
 10
17.901299999999999
 20
21.5703
 30
0.0
 10
17.677300000000002
 20
21.820800000000002
 30
0.0
 10
17.677300000000002
 20
21.820800000000002
 30
0.0
 10
17.453300000000002
 20
22.073
 30
0.0
 10
17.287500000000001
 20
22.32
 30
0.0
 10
17.183400000000002
 20
22.563400000000001
 30
0.0
 10
17.183400000000002
 20
22.563400000000001
 30
0.0
 10
17.0776
 20
22.805099999999999
 30
0.0
 10
17.024699999999999
 20
23.0749
 30
0.0
 10
17.024699999999999
 20
23.371300000000002
 30
0.0
 10
17.024699999999999
 20
23.371300000000002
 30
0.0
 10
17.024699999999999
 20
23.9498
 30
0.0
 10
17.241600000000002
 20
24.4331
 30
0.0
 10
17.672000000000001
 20
24.821200000000001
 30
0.0
 10
17.672000000000001
 20
24.821200000000001
 30
0.0
 10
18.102399999999999
 20
25.209200000000003
 30
0.0
 10
18.723300000000002
 20
25.403300000000002
 30
0.0
 10
19.5364
 20
25.403300000000002
 30
0.0
 10
19.5364
 20
25.403300000000002
 30
0.0
 10
20.374300000000002
 20
25.403300000000002
 30
0.0
 10
21.203300000000002
 20
25.267400000000002
 30
0.0
 10
22.021800000000002
 20
24.999300000000002
 30
0.0
 10
22.021800000000002
 20
24.999300000000002
 30
0.0
 10
22.9937
 20
24.681800000000003
 30
0.0
 10
23.722100000000001
 20
24.2409
 30
0.0
 10
24.209
 20
23.676400000000001
 30
0.0
 10
24.209
 20
23.676400000000001
 30
0.0
 10
24.5776
 20
23.2425
 30
0.0
 10
24.761100000000003
 20
22.7486
 30
0.0
 10
24.761100000000003
 20
22.193000000000001
 30
0.0
 10
24.761100000000003
 20
22.193000000000001
 30
0.0
 10
24.761100000000003
 20
21.625
 30
0.0
 10
24.538800000000002
 20
21.145200000000003
 30
0.0
 10
24.092600000000001
 20
20.753700000000002
 30
0.0
 10
24.092600000000001
 20
20.753700000000002
 30
0.0
 10
23.6463
 20
20.363800000000001
 30
0.0
 10
22.997199999999999
 20
20.168100000000003
 30
0.0
 10
22.147000000000002
 20
20.168100000000003
 30
0.0
  0
SPLINE
  5
1A4
100
AcDbEntity
  8
LC-005-001-----0
100
AcDbSpline
210
0.0
220
0.0
230
1.0
 70
     1
 71
     3
 72
    48
 73
    44
 74
     0
 42
0.0000000001
 43
0.0000000001
 40
0.0
 40
0.0
 40
0.0
 40
0.0
 40
0.0909090909090909
 40
0.0909090909090909
 40
0.0909090909090909
 40
0.0909090909090909
 40
0.1818181818181818
 40
0.1818181818181818
 40
0.1818181818181818
 40
0.1818181818181818
 40
0.2727272727272727
 40
0.2727272727272727
 40
0.2727272727272727
 40
0.2727272727272727
 40
0.3636363636363637
 40
0.3636363636363637
 40
0.3636363636363637
 40
0.3636363636363637
 40
0.4545454545454546
 40
0.4545454545454546
 40
0.4545454545454546
 40
0.4545454545454546
 40
0.5454545454545455
 40
0.5454545454545455
 40
0.5454545454545455
 40
0.5454545454545455
 40
0.6363636363636365
 40
0.6363636363636365
 40
0.6363636363636365
 40
0.6363636363636365
 40
0.7272727272727274
 40
0.7272727272727274
 40
0.7272727272727274
 40
0.7272727272727274
 40
0.8181818181818183
 40
0.8181818181818183
 40
0.8181818181818183
 40
0.8181818181818183
 40
0.9090909090909093
 40
0.9090909090909093
 40
0.9090909090909093
 40
0.9090909090909093
 40
1.0
 40
1.0
 40
1.0
 40
1.0
 10
22.385100000000001
 20
21.072900000000001
 30
0.0
 10
22.849
 20
21.072900000000001
 30
0.0
 10
23.212400000000002
 20
21.148800000000001
 30
0.0
 10
23.475200000000001
 20
21.304000000000002
 30
0.0
 10
23.475200000000001
 20
21.304000000000002
 30
0.0
 10
23.8368
 20
21.5139
 30
0.0
 10
24.0167
 20
21.8261
 30
0.0
 10
24.0167
 20
22.240600000000001
 30
0.0
 10
24.0167
 20
22.240600000000001
 30
0.0
 10
24.0167
 20
22.6022
 30
0.0
 10
23.854400000000002
 20
22.930300000000003
 30
0.0
 10
23.526300000000003
 20
23.226600000000001
 30
0.0
 10
23.526300000000003
 20
23.226600000000001
 30
0.0
 10
23.0642
 20
23.653500000000001
 30
0.0
 10
22.3886
 20
23.976300000000002
 30
0.0
 10
21.497900000000001
 20
24.191500000000001
 30
0.0
 10
21.497900000000001
 20
24.191500000000001
 30
0.0
 10
20.607100000000003
 20
24.406700000000001
 30
0.0
 10
19.880400000000002
 20
24.514300000000002
 30
0.0
 10
19.3142
 20
24.514300000000002
 30
0.0
 10
19.3142
 20
24.514300000000002
 30
0.0
 10
18.770900000000001
 20
24.514300000000002
 30
0.0
 10
18.377600000000001
 20
24.4102
 30
0.0
 10
18.135899999999999
 20
24.200300000000002
 30
0.0
 10
18.135899999999999
 20
24.200300000000002
 30
0.0
 10
17.896000000000001
 20
23.992100000000001
 30
0.0
 10
17.7743
 20
23.718700000000002
 30
0.0
 10
17.7743
 20
23.3766
 30
0.0
 10
17.7743
 20
23.3766
 30
0.0
 10
17.7743
 20
23.1296
 30
0.0
 10
17.837800000000001
 20
22.896800000000002
 30
0.0
 10
17.9666
 20
22.6816
 30
0.0
 10
17.9666
 20
22.6816
 30
0.0
 10
18.093600000000002
 20
22.4664
 30
0.0
 10
18.3123
 20
22.260000000000002
 30
0.0
 10
18.622700000000002
 20
22.0642
 30
0.0
 10
18.622700000000002
 20
22.0642
 30
0.0
 10
19.060200000000002
 20
21.785500000000003
 30
0.0
 10
19.714600000000001
 20
21.542100000000001
 30
0.0
 10
20.586000000000002
 20
21.335700000000003
 30
0.0
 10
20.586000000000002
 20
21.335700000000003
 30
0.0
 10
21.330300000000001
 20
21.159400000000002
 30
0.0
 10
21.93
 20
21.072900000000001
 30
0.0
 10
22.385100000000001
 20
21.072900000000001
 30
0.0
  0
ENDSEC
  0
SECTION
  2
OBJECTS
  0
DICTIONARY
  5
19
100
AcDbDictionary
280
     0
281
     1
  3
ACAD_GROUP
350
1A
  3
ACAD_MLINESTYLE
350
1B
  3
ACAD_LAYOUT
350
1E
  3
ACAD_PLOTSETTINGS
350
22
  3
ACAD_PLOTSTYLENAME
350
1F
  3
ACAD_WIPEOUT_VARS
350
23
  0
DICTIONARY
  5
1A
102
{ACAD_REACTORS
330
19
102
}
100
AcDbDictionary
280
     0
281
     1
  0
DICTIONARY
  5
1B
102
{ACAD_REACTORS
330
19
102
}
100
AcDbDictionary
280
     0
281
     1
  3
Standard
350
1C
  0
MLINESTYLE
  5
1C
102
{ACAD_REACTORS
330
1B
102
}
100
AcDbMlineStyle
  2
Standard
 70
     0
  3

 62
     0
 51
90.0
 52
90.0
 71
     2
 49
0.5
 62
   256
  6
BYLAYER
 49
-0.5
 62
   256
  6
BYLAYER
  0
ACDBDICTIONARYWDFLT
  5
1F
102
{ACAD_REACTORS
330
19
102
}
100
AcDbDictionary
281
     1
  3
Normal
350
1D
100
AcDbDictionaryWithDefault
340
1D
  0
ACDBPLACEHOLDER
  5
1D
102
{ACAD_REACTORS
330
1F
102
}
  0
LAYOUT
  5
20
102
{ACAD_REACTORS
330
1E
102
}
100
AcDbPlotSettings
  1

  2

  4

  6

 40
0.0
 41
0.0
 42
0.0
 43
0.0
 44
0.0
 45
0.0
 46
0.0
 47
0.0
 48
0.0
 49
0.0
140
0.0
141
0.0
142
1.0
143
1.0
 70
  1024
 72
     0
 73
     0
 74
     0
  7

 75
     0
147
1.0
148
0.0
149
0.0
100
AcDbLayout
  1
Model
 70
     0
 71
     0
 10
0.0
 20
0.0
 11
0.0
 21
0.0
 12
0.0
 22
0.0
 32
0.0
 14
0.0
 24
0.0
 34
0.0
 15
0.0
 25
0.0
 35
0.0
146
0.0
 13
0.0
 23
0.0
 33
0.0
 16
0.0
 26
0.0
 36
0.0
 17
0.0
 27
0.0
 37
0.0
 76
     0
330
A
331
0
345
0
346
0
  0
LAYOUT
  5
21
102
{ACAD_REACTORS
330
1E
102
}
100
AcDbPlotSettings
  1

  2

  4

  6

 40
0.0
 41
0.0
 42
0.0
 43
0.0
 44
0.0
 45
0.0
 46
0.0
 47
0.0
 48
0.0
 49
0.0
140
0.0
141
0.0
142
1.0
143
1.0
 70
     0
 72
     0
 73
     0
 74
     0
  7

 75
     0
147
1.0
148
0.0
149
0.0
100
AcDbLayout
  1
Layout1
 70
     0
 71
     0
 10
0.0
 20
0.0
 11
0.0
 21
0.0
 12
0.0
 22
0.0
 32
0.0
 14
0.0
 24
0.0
 34
0.0
 15
0.0
 25
0.0
 35
0.0
146
0.0
 13
0.0
 23
0.0
 33
0.0
 16
0.0
 26
0.0
 36
0.0
 17
0.0
 27
0.0
 37
0.0
 76
     0
330
B
331
0
345
0
346
0
  0
DICTIONARY
  5
1E
102
{ACAD_REACTORS
330
19
102
}
100
AcDbDictionary
280
     0
281
     1
  3
Layout1
350
21
  3
Model
350
20
  0
DICTIONARY
  5
22
102
{ACAD_REACTORS
330
19
102
}
100
AcDbDictionary
280
     0
281
     1
  0
WIPEOUTVARIABLES
  5
23
100
AcDbWipeoutVariables
 70
     1
  0
ENDSEC
  0
EOF
